ISO-10303-21;
HEADER;
/* Generated by software containing ST-Developer
 * from STEP Tools, Inc. (www.steptools.com) 
 */
/* OPTION: using custom schema-name function */

FILE_DESCRIPTION(
/* description */ (''),
/* implementation_level */ '2;1');

FILE_NAME(
/* name */ 'ABHF-D29X40-WA16.stp',
/* time_stamp */ '2023-10-18T10:18:01+03:00',
/* author */ (''),
/* organization */ (''),
/* preprocessor_version */ 'ST-DEVELOPER v19.4',
/* originating_system */ 'SIEMENS PLM Software NX2306.3001',
/* authorisation */ '');

FILE_SCHEMA (('AP203_CONFIGURATION_CONTROLLED_3D_DESIGN_OF_MECHANICAL_PARTS_AND_ASSEMBLIES_MIM_LF { 1 0 10303 403 2 1 2}'));
ENDSEC;

DATA;
#10=SHAPE_REPRESENTATION_RELATIONSHIP('None',
'relationship between model1-None and model1-None',#76,#11);
#11=ADVANCED_BREP_SHAPE_REPRESENTATION('model1-None',(#86),#523);
#12=APPLIED_APPROVAL_ASSIGNMENT(#24,(#66));
#13=APPLIED_APPROVAL_ASSIGNMENT(#25,(#68));
#14=APPLIED_APPROVAL_ASSIGNMENT(#26,(#38));
#15=APPROVAL_PERSON_ORGANIZATION(#30,#24,#18);
#16=APPROVAL_PERSON_ORGANIZATION(#31,#25,#19);
#17=APPROVAL_PERSON_ORGANIZATION(#32,#26,#20);
#18=APPROVAL_ROLE('approver');
#19=APPROVAL_ROLE('approver');
#20=APPROVAL_ROLE('approver');
#21=APPROVAL_DATE_TIME(#46,#24);
#22=APPROVAL_DATE_TIME(#47,#25);
#23=APPROVAL_DATE_TIME(#48,#26);
#24=APPROVAL(#27,' ');
#25=APPROVAL(#28,' ');
#26=APPROVAL(#29,' ');
#27=APPROVAL_STATUS('not_yet_approved');
#28=APPROVAL_STATUS('not_yet_approved');
#29=APPROVAL_STATUS('not_yet_approved');
#30=PERSON_AND_ORGANIZATION(#36,#33);
#31=PERSON_AND_ORGANIZATION(#36,#34);
#32=PERSON_AND_ORGANIZATION(#36,#35);
#33=ORGANIZATION(' ',' ',' ');
#34=ORGANIZATION(' ',' ',' ');
#35=ORGANIZATION(' ',' ',' ');
#36=PERSON(' ',' ',' ',(' '),$,$);
#37=APPLIED_SECURITY_CLASSIFICATION_ASSIGNMENT(#38,(#68));
#38=SECURITY_CLASSIFICATION(' ',' ',#39);
#39=SECURITY_CLASSIFICATION_LEVEL('confidential');
#40=APPLIED_DATE_AND_TIME_ASSIGNMENT(#44,#42,(#66));
#41=APPLIED_DATE_AND_TIME_ASSIGNMENT(#45,#43,(#38));
#42=DATE_TIME_ROLE('creation_date');
#43=DATE_TIME_ROLE('classification_date');
#44=DATE_AND_TIME(#59,#49);
#45=DATE_AND_TIME(#60,#50);
#46=DATE_AND_TIME(#61,#51);
#47=DATE_AND_TIME(#62,#52);
#48=DATE_AND_TIME(#63,#53);
#49=LOCAL_TIME(0,0,0.,#54);
#50=LOCAL_TIME(0,0,0.,#55);
#51=LOCAL_TIME(0,0,0.,#56);
#52=LOCAL_TIME(0,0,0.,#57);
#53=LOCAL_TIME(0,0,0.,#58);
#54=COORDINATED_UNIVERSAL_TIME_OFFSET(0,0,.BEHIND.);
#55=COORDINATED_UNIVERSAL_TIME_OFFSET(0,0,.BEHIND.);
#56=COORDINATED_UNIVERSAL_TIME_OFFSET(0,0,.BEHIND.);
#57=COORDINATED_UNIVERSAL_TIME_OFFSET(0,0,.BEHIND.);
#58=COORDINATED_UNIVERSAL_TIME_OFFSET(0,0,.BEHIND.);
#59=CALENDAR_DATE(0,1,1);
#60=CALENDAR_DATE(0,1,1);
#61=CALENDAR_DATE(0,1,1);
#62=CALENDAR_DATE(0,1,1);
#63=CALENDAR_DATE(0,1,1);
#64=SHAPE_DEFINITION_REPRESENTATION(#65,#76);
#65=PRODUCT_DEFINITION_SHAPE('','',#66);
#66=PRODUCT_DEFINITION(' ','',#68,#67);
#67=PRODUCT_DEFINITION_CONTEXT('part definition',#75,'design');
#68=PRODUCT_DEFINITION_FORMATION_WITH_SPECIFIED_SOURCE(' ',' ',#70,
 .NOT_KNOWN.);
#69=PRODUCT_RELATED_PRODUCT_CATEGORY('detail','',(#70));
#70=PRODUCT('model1','model1',' ',(#73));
#71=PRODUCT_CATEGORY('part',' ');
#72=PRODUCT_CATEGORY(' ','');
#73=PRODUCT_CONTEXT(' ',#75,'mechanical');
#74=APPLICATION_PROTOCOL_DEFINITION('international standard',
'config_control_design',2010,#75);
#75=APPLICATION_CONTEXT(
'configuration controlled 3D designs of mechanical parts and assemblie
s');
#76=SHAPE_REPRESENTATION('model1-None',(#297),#523);
#77=PRESENTATION_LAYER_ASSIGNMENT('1','Layer 1',(#86));
#78=STYLED_ITEM('',(#79),#86);
#79=PRESENTATION_STYLE_ASSIGNMENT((#80));
#80=SURFACE_STYLE_USAGE(.BOTH.,#81);
#81=SURFACE_SIDE_STYLE('',(#82));
#82=SURFACE_STYLE_FILL_AREA(#83);
#83=FILL_AREA_STYLE('',(#84));
#84=FILL_AREA_STYLE_COLOUR('',#85);
#85=COLOUR_RGB('medium steel',0.611764705882353,0.658823529411765,0.670588235294118);
#86=MANIFOLD_SOLID_BREP('',#87);
#87=CLOSED_SHELL('',(#110,#111,#112,#113,#114,#115,#116,#117,#118,#119,
#120,#121,#122,#123,#124,#125,#126));
#88=PLANE('',#309);
#89=PLANE('',#312);
#90=PLANE('',#318);
#91=PLANE('',#321);
#92=PLANE('',#324);
#93=LINE('',#490,#94);
#94=VECTOR('',#356,1.);
#95=CONICAL_SURFACE('',#306,3.5527136788005E-15,30.0000000000011);
#96=CONICAL_SURFACE('',#315,13.5,4.99999999999406);
#97=CONICAL_SURFACE('',#319,21.0288192659563,45.0000000000001);
#98=CONICAL_SURFACE('',#330,7.99999999997036,20.0000000000013);
#99=TOROIDAL_SURFACE('',#304,11.9999999999996,1.5);
#100=TOROIDAL_SURFACE('',#308,11.1339745962156,1.5);
#101=TOROIDAL_SURFACE('',#314,12.4950564355557,1.);
#102=TOROIDAL_SURFACE('',#326,6.74999999997035,1.);
#103=FACE_OUTER_BOUND('',#163,.T.);
#104=FACE_OUTER_BOUND('',#164,.T.);
#105=FACE_OUTER_BOUND('',#165,.T.);
#106=FACE_OUTER_BOUND('',#166,.T.);
#107=FACE_OUTER_BOUND('',#175,.T.);
#108=FACE_OUTER_BOUND('',#176,.T.);
#109=FACE_OUTER_BOUND('',#179,.T.);
#110=ADVANCED_FACE('',(#141,#142),#127,.T.);
#111=ADVANCED_FACE('',(#103),#99,.T.);
#112=ADVANCED_FACE('',(#104),#95,.T.);
#113=ADVANCED_FACE('',(#105),#100,.T.);
#114=ADVANCED_FACE('',(#106),#88,.T.);
#115=ADVANCED_FACE('',(#143,#144),#89,.T.);
#116=ADVANCED_FACE('',(#145,#146),#101,.T.);
#117=ADVANCED_FACE('',(#147,#148),#96,.T.);
#118=ADVANCED_FACE('',(#149,#150),#90,.T.);
#119=ADVANCED_FACE('',(#107),#97,.F.);
#120=ADVANCED_FACE('',(#108),#91,.F.);
#121=ADVANCED_FACE('',(#151,#152),#128,.F.);
#122=ADVANCED_FACE('',(#109),#92,.T.);
#123=ADVANCED_FACE('',(#153,#154),#102,.T.);
#124=ADVANCED_FACE('',(#155,#156),#129,.T.);
#125=ADVANCED_FACE('',(#157,#158),#98,.T.);
#126=ADVANCED_FACE('',(#159,#160),#130,.T.);
#127=CYLINDRICAL_SURFACE('',#302,13.5);
#128=CYLINDRICAL_SURFACE('',#322,7.);
#129=CYLINDRICAL_SURFACE('',#328,7.74999999997035);
#130=CYLINDRICAL_SURFACE('',#331,7.99999999997036);
#131=B_SPLINE_CURVE_WITH_KNOTS('',3,(#411,#412,#413,#414,#415,#416,#417,
#418,#419,#420,#421,#422,#423,#424,#425,#426),.UNSPECIFIED.,.F.,.F.,(4,
2,2,2,2,2,2,4),(0.,0.125,0.25,0.375,0.5,0.625,0.75,1.),.UNSPECIFIED.);
#132=B_SPLINE_CURVE_WITH_KNOTS('',3,(#430,#431,#432,#433,#434,#435,#436),
 .UNSPECIFIED.,.F.,.F.,(4,3,4),(0.,0.598952461958481,1.),.UNSPECIFIED.);
#133=B_SPLINE_CURVE_WITH_KNOTS('',3,(#438,#439,#440,#441,#442,#443,#444),
 .UNSPECIFIED.,.F.,.F.,(4,3,4),(0.,0.598987818476156,1.),.UNSPECIFIED.);
#134=B_SPLINE_CURVE_WITH_KNOTS('',3,(#448,#449,#450,#451),.UNSPECIFIED.,
 .F.,.F.,(4,4),(0.,1.),.UNSPECIFIED.);
#135=B_SPLINE_CURVE_WITH_KNOTS('',3,(#453,#454,#455,#456),.UNSPECIFIED.,
 .F.,.F.,(4,4),(0.,1.),.UNSPECIFIED.);
#136=B_SPLINE_CURVE_WITH_KNOTS('',3,(#463,#464,#465,#466,#467,#468,#469,
#470,#471,#472,#473,#474,#475),.UNSPECIFIED.,.F.,.F.,(4,3,3,3,4),(0.,0.0283938014100496,
0.414136181128114,0.775183580222838,1.),.UNSPECIFIED.);
#137=B_SPLINE_CURVE_WITH_KNOTS('',3,(#476,#477,#478,#479,#480,#481,#482,
#483,#484,#485,#486,#487,#488),.UNSPECIFIED.,.F.,.F.,(4,3,3,3,4),(0.,0.305144505495384,
0.609095407509544,0.934408442170523,1.),.UNSPECIFIED.);
#138=ELLIPSE('',#300,257.948855225515,13.5);
#139=ELLIPSE('',#301,257.948855225515,13.5);
#140=ELLIPSE('',#317,7.00960642198546,7.);
#141=FACE_BOUND('',#161,.T.);
#142=FACE_BOUND('',#162,.T.);
#143=FACE_BOUND('',#167,.T.);
#144=FACE_BOUND('',#168,.T.);
#145=FACE_BOUND('',#169,.T.);
#146=FACE_BOUND('',#170,.T.);
#147=FACE_BOUND('',#171,.T.);
#148=FACE_BOUND('',#172,.T.);
#149=FACE_BOUND('',#173,.T.);
#150=FACE_BOUND('',#174,.T.);
#151=FACE_BOUND('',#177,.T.);
#152=FACE_BOUND('',#178,.T.);
#153=FACE_BOUND('',#180,.T.);
#154=FACE_BOUND('',#181,.T.);
#155=FACE_BOUND('',#182,.T.);
#156=FACE_BOUND('',#183,.T.);
#157=FACE_BOUND('',#184,.T.);
#158=FACE_BOUND('',#185,.T.);
#159=FACE_BOUND('',#186,.T.);
#160=FACE_BOUND('',#187,.T.);
#161=EDGE_LOOP('',(#188));
#162=EDGE_LOOP('',(#189,#190,#191,#192));
#163=EDGE_LOOP('',(#193,#194,#195,#196));
#164=EDGE_LOOP('',(#197,#198,#199,#200));
#165=EDGE_LOOP('',(#201,#202,#203,#204));
#166=EDGE_LOOP('',(#205,#206));
#167=EDGE_LOOP('',(#207));
#168=EDGE_LOOP('',(#208));
#169=EDGE_LOOP('',(#209));
#170=EDGE_LOOP('',(#210));
#171=EDGE_LOOP('',(#211));
#172=EDGE_LOOP('',(#212));
#173=EDGE_LOOP('',(#213,#214,#215,#216,#217,#218,#219,#220,#221,#222));
#174=EDGE_LOOP('',(#223));
#175=EDGE_LOOP('',(#224,#225));
#176=EDGE_LOOP('',(#226));
#177=EDGE_LOOP('',(#227));
#178=EDGE_LOOP('',(#228));
#179=EDGE_LOOP('',(#229));
#180=EDGE_LOOP('',(#230));
#181=EDGE_LOOP('',(#231));
#182=EDGE_LOOP('',(#232));
#183=EDGE_LOOP('',(#233));
#184=EDGE_LOOP('',(#234));
#185=EDGE_LOOP('',(#235));
#186=EDGE_LOOP('',(#236));
#187=EDGE_LOOP('',(#237));
#188=ORIENTED_EDGE('',*,*,#258,.T.);
#189=ORIENTED_EDGE('',*,*,#259,.T.);
#190=ORIENTED_EDGE('',*,*,#260,.T.);
#191=ORIENTED_EDGE('',*,*,#261,.T.);
#192=ORIENTED_EDGE('',*,*,#262,.T.);
#193=ORIENTED_EDGE('',*,*,#263,.F.);
#194=ORIENTED_EDGE('',*,*,#259,.F.);
#195=ORIENTED_EDGE('',*,*,#264,.F.);
#196=ORIENTED_EDGE('',*,*,#265,.T.);
#197=ORIENTED_EDGE('',*,*,#266,.F.);
#198=ORIENTED_EDGE('',*,*,#265,.F.);
#199=ORIENTED_EDGE('',*,*,#267,.F.);
#200=ORIENTED_EDGE('',*,*,#268,.T.);
#201=ORIENTED_EDGE('',*,*,#269,.F.);
#202=ORIENTED_EDGE('',*,*,#270,.T.);
#203=ORIENTED_EDGE('',*,*,#268,.F.);
#204=ORIENTED_EDGE('',*,*,#271,.T.);
#205=ORIENTED_EDGE('',*,*,#269,.T.);
#206=ORIENTED_EDGE('',*,*,#272,.T.);
#207=ORIENTED_EDGE('',*,*,#273,.F.);
#208=ORIENTED_EDGE('',*,*,#274,.F.);
#209=ORIENTED_EDGE('',*,*,#274,.T.);
#210=ORIENTED_EDGE('',*,*,#275,.F.);
#211=ORIENTED_EDGE('',*,*,#275,.T.);
#212=ORIENTED_EDGE('',*,*,#258,.F.);
#213=ORIENTED_EDGE('',*,*,#263,.T.);
#214=ORIENTED_EDGE('',*,*,#266,.T.);
#215=ORIENTED_EDGE('',*,*,#270,.F.);
#216=ORIENTED_EDGE('',*,*,#272,.F.);
#217=ORIENTED_EDGE('',*,*,#271,.F.);
#218=ORIENTED_EDGE('',*,*,#267,.T.);
#219=ORIENTED_EDGE('',*,*,#264,.T.);
#220=ORIENTED_EDGE('',*,*,#262,.F.);
#221=ORIENTED_EDGE('',*,*,#276,.F.);
#222=ORIENTED_EDGE('',*,*,#260,.F.);
#223=ORIENTED_EDGE('',*,*,#277,.T.);
#224=ORIENTED_EDGE('',*,*,#276,.T.);
#225=ORIENTED_EDGE('',*,*,#261,.F.);
#226=ORIENTED_EDGE('',*,*,#278,.F.);
#227=ORIENTED_EDGE('',*,*,#278,.T.);
#228=ORIENTED_EDGE('',*,*,#277,.F.);
#229=ORIENTED_EDGE('',*,*,#279,.F.);
#230=ORIENTED_EDGE('',*,*,#279,.T.);
#231=ORIENTED_EDGE('',*,*,#280,.F.);
#232=ORIENTED_EDGE('',*,*,#280,.T.);
#233=ORIENTED_EDGE('',*,*,#281,.F.);
#234=ORIENTED_EDGE('',*,*,#281,.T.);
#235=ORIENTED_EDGE('',*,*,#282,.F.);
#236=ORIENTED_EDGE('',*,*,#282,.T.);
#237=ORIENTED_EDGE('',*,*,#273,.T.);
#238=VERTEX_POINT('',#405);
#239=VERTEX_POINT('',#407);
#240=VERTEX_POINT('',#408);
#241=VERTEX_POINT('',#410);
#242=VERTEX_POINT('',#427);
#243=VERTEX_POINT('',#437);
#244=VERTEX_POINT('',#445);
#245=VERTEX_POINT('',#452);
#246=VERTEX_POINT('',#457);
#247=VERTEX_POINT('',#461);
#248=VERTEX_POINT('',#462);
#249=VERTEX_POINT('',#493);
#250=VERTEX_POINT('',#495);
#251=VERTEX_POINT('',#498);
#252=VERTEX_POINT('',#503);
#253=VERTEX_POINT('',#507);
#254=VERTEX_POINT('',#511);
#255=VERTEX_POINT('',#514);
#256=VERTEX_POINT('',#517);
#257=VERTEX_POINT('',#520);
#258=EDGE_CURVE('',#238,#238,#283,.T.);
#259=EDGE_CURVE('',#239,#240,#284,.T.);
#260=EDGE_CURVE('',#240,#241,#138,.T.);
#261=EDGE_CURVE('',#241,#242,#131,.T.);
#262=EDGE_CURVE('',#242,#239,#139,.T.);
#263=EDGE_CURVE('',#240,#243,#132,.T.);
#264=EDGE_CURVE('',#244,#239,#133,.T.);
#265=EDGE_CURVE('',#244,#243,#285,.T.);
#266=EDGE_CURVE('',#243,#245,#134,.T.);
#267=EDGE_CURVE('',#246,#244,#135,.T.);
#268=EDGE_CURVE('',#246,#245,#286,.T.);
#269=EDGE_CURVE('',#247,#248,#287,.T.);
#270=EDGE_CURVE('',#247,#245,#136,.T.);
#271=EDGE_CURVE('',#246,#248,#137,.T.);
#272=EDGE_CURVE('',#248,#247,#93,.T.);
#273=EDGE_CURVE('',#249,#249,#288,.T.);
#274=EDGE_CURVE('',#250,#250,#289,.T.);
#275=EDGE_CURVE('',#251,#251,#290,.T.);
#276=EDGE_CURVE('',#241,#242,#291,.T.);
#277=EDGE_CURVE('',#252,#252,#140,.T.);
#278=EDGE_CURVE('',#253,#253,#292,.T.);
#279=EDGE_CURVE('',#254,#254,#293,.T.);
#280=EDGE_CURVE('',#255,#255,#294,.T.);
#281=EDGE_CURVE('',#256,#256,#295,.T.);
#282=EDGE_CURVE('',#257,#257,#296,.T.);
#283=CIRCLE('',#298,13.5);
#284=CIRCLE('',#299,13.4999999999996);
#285=CIRCLE('',#303,13.2990381056762);
#286=CIRCLE('',#305,12.4330127018922);
#287=CIRCLE('',#307,11.1339745962156);
#288=CIRCLE('',#310,7.99999999997036);
#289=CIRCLE('',#311,12.4950564355557);
#290=CIRCLE('',#313,13.4912511336474);
#291=CIRCLE('',#316,21.0288192659563);
#292=CIRCLE('',#320,7.);
#293=CIRCLE('',#323,6.74999999997035);
#294=CIRCLE('',#325,7.74999999997035);
#295=CIRCLE('',#327,7.74999999997035);
#296=CIRCLE('',#329,7.99999999997036);
#297=AXIS2_PLACEMENT_3D('',#403,#332,#333);
#298=AXIS2_PLACEMENT_3D('',#404,#334,#335);
#299=AXIS2_PLACEMENT_3D('',#406,#336,#337);
#300=AXIS2_PLACEMENT_3D('',#409,#338,#339);
#301=AXIS2_PLACEMENT_3D('',#428,#340,#341);
#302=AXIS2_PLACEMENT_3D('',#429,#342,#343);
#303=AXIS2_PLACEMENT_3D('',#446,#344,#345);
#304=AXIS2_PLACEMENT_3D('',#447,#346,#347);
#305=AXIS2_PLACEMENT_3D('',#458,#348,#349);
#306=AXIS2_PLACEMENT_3D('',#459,#350,#351);
#307=AXIS2_PLACEMENT_3D('',#460,#352,#353);
#308=AXIS2_PLACEMENT_3D('',#489,#354,#355);
#309=AXIS2_PLACEMENT_3D('',#491,#357,#358);
#310=AXIS2_PLACEMENT_3D('',#492,#359,#360);
#311=AXIS2_PLACEMENT_3D('',#494,#361,#362);
#312=AXIS2_PLACEMENT_3D('',#496,#363,#364);
#313=AXIS2_PLACEMENT_3D('',#497,#365,#366);
#314=AXIS2_PLACEMENT_3D('',#499,#367,#368);
#315=AXIS2_PLACEMENT_3D('',#500,#369,#370);
#316=AXIS2_PLACEMENT_3D('',#501,#371,#372);
#317=AXIS2_PLACEMENT_3D('',#502,#373,#374);
#318=AXIS2_PLACEMENT_3D('',#504,#375,#376);
#319=AXIS2_PLACEMENT_3D('',#505,#377,#378);
#320=AXIS2_PLACEMENT_3D('',#506,#379,#380);
#321=AXIS2_PLACEMENT_3D('',#508,#381,#382);
#322=AXIS2_PLACEMENT_3D('',#509,#383,#384);
#323=AXIS2_PLACEMENT_3D('',#510,#385,#386);
#324=AXIS2_PLACEMENT_3D('',#512,#387,#388);
#325=AXIS2_PLACEMENT_3D('',#513,#389,#390);
#326=AXIS2_PLACEMENT_3D('',#515,#391,#392);
#327=AXIS2_PLACEMENT_3D('',#516,#393,#394);
#328=AXIS2_PLACEMENT_3D('',#518,#395,#396);
#329=AXIS2_PLACEMENT_3D('',#519,#397,#398);
#330=AXIS2_PLACEMENT_3D('',#521,#399,#400);
#331=AXIS2_PLACEMENT_3D('',#522,#401,#402);
#332=DIRECTION('',(0.,0.,1.));
#333=DIRECTION('',(1.,0.,0.));
#334=DIRECTION('',(-1.,0.,0.));
#335=DIRECTION('',(0.,0.,1.));
#336=DIRECTION('',(1.,0.,0.));
#337=DIRECTION('',(0.,0.,-1.));
#338=DIRECTION('',(0.0523359562429437,0.,-0.998629534754574));
#339=DIRECTION('',(-0.998629534754574,0.,-0.0523359562429437));
#340=DIRECTION('',(0.0523359562429437,0.,-0.998629534754574));
#341=DIRECTION('',(-0.998629534754574,0.,-0.0523359562429437));
#342=DIRECTION('',(-1.,0.,0.));
#343=DIRECTION('',(0.,0.,1.));
#344=DIRECTION('',(1.,0.,0.));
#345=DIRECTION('',(0.,0.,-1.));
#346=DIRECTION('',(1.,0.,0.));
#347=DIRECTION('',(0.,0.,-1.));
#348=DIRECTION('',(1.,0.,0.));
#349=DIRECTION('',(0.,0.,1.));
#350=DIRECTION('',(1.,0.,0.));
#351=DIRECTION('',(6.00925839494838E-17,0.,-1.));
#352=DIRECTION('',(-1.,0.,0.));
#353=DIRECTION('',(0.,0.,1.));
#354=DIRECTION('',(-1.,0.,0.));
#355=DIRECTION('',(0.,0.,1.));
#356=DIRECTION('',(0.,1.,0.));
#357=DIRECTION('',(-1.,0.,0.));
#358=DIRECTION('',(0.,0.,1.));
#359=DIRECTION('',(1.,0.,0.));
#360=DIRECTION('',(0.,0.,-1.));
#361=DIRECTION('',(-1.,0.,0.));
#362=DIRECTION('',(0.,0.,1.));
#363=DIRECTION('',(1.,0.,0.));
#364=DIRECTION('',(0.,0.,-1.));
#365=DIRECTION('',(-1.,0.,0.));
#366=DIRECTION('',(0.,0.,1.));
#367=DIRECTION('',(-1.,0.,0.));
#368=DIRECTION('',(0.,0.,1.));
#369=DIRECTION('',(-1.,0.,0.));
#370=DIRECTION('',(-6.87096319690692E-17,0.,1.));
#371=DIRECTION('',(0.0523359562429437,0.,-0.998629534754574));
#372=DIRECTION('',(0.998629534754574,0.,0.0523359562429437));
#373=DIRECTION('',(0.0523359562429437,0.,-0.998629534754574));
#374=DIRECTION('',(0.998629534754574,0.,0.0523359562429437));
#375=DIRECTION('',(-0.0523359562429437,0.,0.998629534754574));
#376=DIRECTION('',(0.998629534754574,0.,0.0523359562429437));
#377=DIRECTION('',(-0.0523359562429437,0.,0.998629534754574));
#378=DIRECTION('',(0.998629534754574,0.,0.0523359562429437));
#379=DIRECTION('',(0.,0.,-1.));
#380=DIRECTION('',(1.,0.,0.));
#381=DIRECTION('',(0.,0.,-1.));
#382=DIRECTION('',(-1.,0.,0.));
#383=DIRECTION('',(0.,0.,1.));
#384=DIRECTION('',(1.,0.,0.));
#385=DIRECTION('',(-1.,0.,0.));
#386=DIRECTION('',(0.,0.,1.));
#387=DIRECTION('',(1.,0.,0.));
#388=DIRECTION('',(0.,0.,-1.));
#389=DIRECTION('',(-1.,0.,0.));
#390=DIRECTION('',(0.,0.,1.));
#391=DIRECTION('',(-1.,0.,0.));
#392=DIRECTION('',(0.,0.,1.));
#393=DIRECTION('',(-1.,0.,0.));
#394=DIRECTION('',(0.,0.,1.));
#395=DIRECTION('',(-1.,0.,0.));
#396=DIRECTION('',(0.,0.,1.));
#397=DIRECTION('',(-1.,0.,0.));
#398=DIRECTION('',(0.,0.,1.));
#399=DIRECTION('',(-1.,0.,0.));
#400=DIRECTION('',(7.46177329763592E-17,0.,1.));
#401=DIRECTION('',(-1.,0.,0.));
#402=DIRECTION('',(0.,0.,1.));
#403=CARTESIAN_POINT('',(0.,0.,0.));
#404=CARTESIAN_POINT('',(44.9871557427461,0.,0.));
#405=CARTESIAN_POINT('',(44.9871557427461,0.,13.5));
#406=CARTESIAN_POINT('',(2.99999999999931,0.,0.));
#407=CARTESIAN_POINT('',(2.99999999999931,-12.4760990475202,5.15722333784909));
#408=CARTESIAN_POINT('',(2.99999999999931,12.4760990475202,5.15722333784909));
#409=CARTESIAN_POINT('',(-95.4056834386413,0.,0.));
#410=CARTESIAN_POINT('',(17.1448675724248,12.1432042510594,5.89852443557261));
#411=CARTESIAN_POINT('',(17.1448675724248,12.1432042510596,5.89852443557273));
#412=CARTESIAN_POINT('',(18.3776790058696,11.7229738053961,6.76364658433099));
#413=CARTESIAN_POINT('',(19.5729936243346,11.1970367631518,7.61593879227829));
#414=CARTESIAN_POINT('',(21.8765442044496,9.86951867690165,9.27193383547312));
#415=CARTESIAN_POINT('',(23.0001296686962,9.05563726507608,10.087107588955));
#416=CARTESIAN_POINT('',(25.0125370256808,7.08950701464859,11.5539255699973));
#417=CARTESIAN_POINT('',(25.9178355992728,5.91857990728368,12.2175991049991));
#418=CARTESIAN_POINT('',(27.2379558465686,3.22465425728422,13.1871498410519));
#419=CARTESIAN_POINT('',(27.6547424159712,1.64780478923134,13.4943003857345));
#420=CARTESIAN_POINT('',(27.6699971419968,-1.55305258275455,13.505533354853));
#421=CARTESIAN_POINT('',(27.2756511421931,-3.12038356232773,13.2148829642386));
#422=CARTESIAN_POINT('',(25.9560915086139,-5.86634232441993,12.2456503733892));
#423=CARTESIAN_POINT('',(25.066695612768,-7.02690636873058,11.5935280784232));
#424=CARTESIAN_POINT('',(22.0340220375863,-10.0182112630053,9.38267918934522));
#425=CARTESIAN_POINT('',(19.6459759807504,-11.2906473452995,7.6536706175333));
#426=CARTESIAN_POINT('',(17.1448675724248,-12.1432042510596,5.89852443557268));
#427=CARTESIAN_POINT('',(17.1448675724248,-12.1432042510595,5.89852443557261));
#428=CARTESIAN_POINT('',(-95.4056834386413,0.,0.));
#429=CARTESIAN_POINT('',(0.,0.,0.));
#430=CARTESIAN_POINT('',(2.99999999999931,12.4760990475202,5.15722333784909));
#431=CARTESIAN_POINT('',(2.84402243574877,12.4794781006225,5.14904890008874));
#432=CARTESIAN_POINT('',(2.68528739349286,12.4557237968052,5.14072994902971));
#433=CARTESIAN_POINT('',(2.53708712702633,12.4069017004626,5.13296310217504));
#434=CARTESIAN_POINT('',(2.43704962916125,12.373946021805,5.1277203590669));
#435=CARTESIAN_POINT('',(2.34019079615308,12.32927102945,5.122644202725));
#436=CARTESIAN_POINT('',(2.24999999999928,12.274825251903,5.11791750338681));
#437=CARTESIAN_POINT('',(2.24999999999928,12.274825251903,5.11791750338681));
#438=CARTESIAN_POINT('',(2.24999999999928,-12.274825251903,5.11791750338681));
#439=CARTESIAN_POINT('',(2.38364452592723,-12.3555028868652,5.12492151620403));
#440=CARTESIAN_POINT('',(2.53278301132556,-12.4147097696538,5.1327375330294));
#441=CARTESIAN_POINT('',(2.68550076458427,-12.4468349395821,5.14074113133478));
#442=CARTESIAN_POINT('',(2.78853659025065,-12.4685091938033,5.14614101014455));
#443=CARTESIAN_POINT('',(2.89473993017758,-12.4783793714064,5.15170689134256));
#444=CARTESIAN_POINT('',(2.99999999999931,-12.4760990475202,5.15722333784909));
#445=CARTESIAN_POINT('',(2.24999999999928,-12.274825251903,5.11791750338681));
#446=CARTESIAN_POINT('',(2.24999999999928,0.,0.));
#447=CARTESIAN_POINT('',(2.99999999999931,0.,0.));
#448=CARTESIAN_POINT('',(2.24999999999928,12.274825251903,5.11791750338681));
#449=CARTESIAN_POINT('',(1.74950649497722,11.9726906749816,5.09168775024302));
#450=CARTESIAN_POINT('',(1.24946663261804,11.6698005721313,5.06548177150377));
#451=CARTESIAN_POINT('',(0.749999999999982,11.3659668111502,5.03930583446228));
#452=CARTESIAN_POINT('',(0.749999999999982,11.3659668111502,5.03930583446228));
#453=CARTESIAN_POINT('',(0.749999999999982,-11.3659668111502,5.03930583446228));
#454=CARTESIAN_POINT('',(1.24946663261804,-11.6698005721313,5.06548177150377));
#455=CARTESIAN_POINT('',(1.74950649497722,-11.9726906749816,5.09168775024302));
#456=CARTESIAN_POINT('',(2.24999999999928,-12.274825251903,5.11791750338681));
#457=CARTESIAN_POINT('',(0.749999999999982,-11.3659668111502,5.03930583446228));
#458=CARTESIAN_POINT('',(0.75,0.,0.));
#459=CARTESIAN_POINT('',(-20.7846096908256,0.,0.));
#460=CARTESIAN_POINT('',(2.80230623711808E-16,0.,0.));
#461=CARTESIAN_POINT('',(2.80230623711808E-16,9.94813501663369,5.));
#462=CARTESIAN_POINT('',(2.80230623711808E-16,-9.94813501663369,5.));
#463=CARTESIAN_POINT('',(2.80230623711808E-16,9.94813501663369,5.));
#464=CARTESIAN_POINT('',(2.61760572019659E-16,9.964105906474,5.));
#465=CARTESIAN_POINT('',(0.000203655903390126,9.98007811118494,5.00001067315364));
#466=CARTESIAN_POINT('',(0.000611914740548491,9.99604376773978,5.00003206909267));
#467=CARTESIAN_POINT('',(0.00608195423158947,10.2099589703187,5.00031874171499));
#468=CARTESIAN_POINT('',(0.0494588668517191,10.4266346181196,5.00259202937756));
#469=CARTESIAN_POINT('',(0.130250031334541,10.6247370604795,5.00682611489379));
#470=CARTESIAN_POINT('',(0.205846322594327,10.8101015124932,5.01078794864075));
#471=CARTESIAN_POINT('',(0.317016080704089,10.9850747827849,5.01661410878672));
#472=CARTESIAN_POINT('',(0.455669834465856,11.1293412358548,5.02388064411063));
#473=CARTESIAN_POINT('',(0.542915701307945,11.2201188124645,5.02845300624345));
#474=CARTESIAN_POINT('',(0.642469685346167,11.3005543535662,5.03367040946567));
#475=CARTESIAN_POINT('',(0.749999999999982,11.3659668111502,5.03930583446228));
#476=CARTESIAN_POINT('',(0.749999999999982,-11.3659668111502,5.03930583446228));
#477=CARTESIAN_POINT('',(0.60527107852755,-11.2779258297072,5.03172091308988));
#478=CARTESIAN_POINT('',(0.474790764867527,-11.1620888231458,5.02488272961081));
#479=CARTESIAN_POINT('',(0.368344331633099,-11.0302053822078,5.01930410843239));
#480=CARTESIAN_POINT('',(0.262125854926011,-10.8986043715053,5.01373743394934));
#481=CARTESIAN_POINT('',(0.176808058305602,-10.7477325774947,5.00926611769515));
#482=CARTESIAN_POINT('',(0.116412666600547,-10.5896991730507,5.00610092933696));
#483=CARTESIAN_POINT('',(0.051780246026523,-10.4205789608556,5.00271368770499));
#484=CARTESIAN_POINT('',(0.0139430233183488,-10.2391695268759,5.00073072288861));
#485=CARTESIAN_POINT('',(0.00325144187247917,-10.0584049133769,5.00017040084801));
#486=CARTESIAN_POINT('',(0.00108027563416307,-10.0216965903006,5.00005661484701));
#487=CARTESIAN_POINT('',(2.37703702572612E-16,-9.98490766806326,5.));
#488=CARTESIAN_POINT('',(2.80230623711808E-16,-9.94813501663369,5.));
#489=CARTESIAN_POINT('',(1.5,0.,0.));
#490=CARTESIAN_POINT('',(0.,0.,5.));
#491=CARTESIAN_POINT('',(0.,0.,0.));
#492=CARTESIAN_POINT('',(45.9999999999986,0.,0.));
#493=CARTESIAN_POINT('',(45.9999999999986,0.,-7.99999999997036));
#494=CARTESIAN_POINT('',(45.9999999999986,0.,0.));
#495=CARTESIAN_POINT('',(45.9999999999986,0.,12.4950564355557));
#496=CARTESIAN_POINT('',(45.9999999999986,12.4950564355557,0.));
#497=CARTESIAN_POINT('',(45.0871557427462,0.,0.));
#498=CARTESIAN_POINT('',(45.0871557427462,0.,13.4912511336474));
#499=CARTESIAN_POINT('',(44.9999999999986,0.,0.));
#500=CARTESIAN_POINT('',(44.9871557427461,0.,0.));
#501=CARTESIAN_POINT('',(-5.87608728300702E-17,0.,5.));
#502=CARTESIAN_POINT('',(11.,0.,5.57648557211346));
#503=CARTESIAN_POINT('',(18.,0.,5.94334002709475));
#504=CARTESIAN_POINT('',(-1.49736258751957E-16,0.,5.));
#505=CARTESIAN_POINT('',(-5.87608728300702E-17,0.,5.));
#506=CARTESIAN_POINT('',(11.,0.,3.));
#507=CARTESIAN_POINT('',(18.,0.,3.));
#508=CARTESIAN_POINT('',(18.,0.,3.));
#509=CARTESIAN_POINT('',(11.,0.,15.));
#510=CARTESIAN_POINT('',(85.9999999999985,0.,0.));
#511=CARTESIAN_POINT('',(85.9999999999985,0.,6.74999999997035));
#512=CARTESIAN_POINT('',(85.9999999999985,6.74999999997035,0.));
#513=CARTESIAN_POINT('',(84.9999999999985,0.,0.));
#514=CARTESIAN_POINT('',(84.9999999999985,0.,7.74999999997035));
#515=CARTESIAN_POINT('',(84.9999999999985,0.,0.));
#516=CARTESIAN_POINT('',(83.6868693548622,0.,0.));
#517=CARTESIAN_POINT('',(83.6868693548622,0.,7.74999999997035));
#518=CARTESIAN_POINT('',(0.,0.,0.));
#519=CARTESIAN_POINT('',(82.9999999999985,0.,0.));
#520=CARTESIAN_POINT('',(82.9999999999985,0.,7.99999999997036));
#521=CARTESIAN_POINT('',(82.9999999999985,0.,0.));
#522=CARTESIAN_POINT('',(0.,0.,0.));
#523=(
GEOMETRIC_REPRESENTATION_CONTEXT(3)
GLOBAL_UNCERTAINTY_ASSIGNED_CONTEXT((#524))
GLOBAL_UNIT_ASSIGNED_CONTEXT((#530,#526,#525))
REPRESENTATION_CONTEXT('ABHF-D29X40-WA16','TOP_LEVEL_ASSEMBLY_PART')
);
#524=UNCERTAINTY_MEASURE_WITH_UNIT(LENGTH_MEASURE(0.0508),#530,
'DISTANCE_ACCURACY_VALUE','Maximum Tolerance applied to model');
#525=(
NAMED_UNIT(*)
SI_UNIT($,.STERADIAN.)
SOLID_ANGLE_UNIT()
);
#526=(
CONVERSION_BASED_UNIT('DEGREE',#528)
NAMED_UNIT(#527)
PLANE_ANGLE_UNIT()
);
#527=DIMENSIONAL_EXPONENTS(0.,0.,0.,0.,0.,0.,0.);
#528=PLANE_ANGLE_MEASURE_WITH_UNIT(PLANE_ANGLE_MEASURE(0.0174532925),#529);
#529=(
NAMED_UNIT(*)
PLANE_ANGLE_UNIT()
SI_UNIT($,.RADIAN.)
);
#530=(
LENGTH_UNIT()
NAMED_UNIT(*)
SI_UNIT(.MILLI.,.METRE.)
);
ENDSEC;
END-ISO-10303-21;
