ISO-10303-21;
HEADER;
/* Generated by software containing ST-Developer
 * from STEP Tools, Inc. (www.steptools.com) 
 */
/* OPTION: using custom schema-name function */

FILE_DESCRIPTION(
/* description */ (''),
/* implementation_level */ '2;1');

FILE_NAME(
/* name */ 'ABHF-D39X54-WA20.stp',
/* time_stamp */ '2023-10-18T15:34:46+03:00',
/* author */ (''),
/* organization */ (''),
/* preprocessor_version */ 'ST-DEVELOPER v19.4',
/* originating_system */ 'SIEMENS PLM Software NX2306.3001',
/* authorisation */ '');

FILE_SCHEMA (('AP203_CONFIGURATION_CONTROLLED_3D_DESIGN_OF_MECHANICAL_PARTS_AND_ASSEMBLIES_MIM_LF { 1 0 10303 403 2 1 2}'));
ENDSEC;

DATA;
#10=SHAPE_REPRESENTATION_RELATIONSHIP('None',
'relationship between ABHF-D39X54-WA20-None and ABHF-D39X54-WA20-None',
#76,#11);
#11=ADVANCED_BREP_SHAPE_REPRESENTATION('ABHF-D39X54-WA20-None',(#86),#521);
#12=APPLIED_APPROVAL_ASSIGNMENT(#24,(#66));
#13=APPLIED_APPROVAL_ASSIGNMENT(#25,(#68));
#14=APPLIED_APPROVAL_ASSIGNMENT(#26,(#38));
#15=APPROVAL_PERSON_ORGANIZATION(#30,#24,#18);
#16=APPROVAL_PERSON_ORGANIZATION(#31,#25,#19);
#17=APPROVAL_PERSON_ORGANIZATION(#32,#26,#20);
#18=APPROVAL_ROLE('approver');
#19=APPROVAL_ROLE('approver');
#20=APPROVAL_ROLE('approver');
#21=APPROVAL_DATE_TIME(#46,#24);
#22=APPROVAL_DATE_TIME(#47,#25);
#23=APPROVAL_DATE_TIME(#48,#26);
#24=APPROVAL(#27,' ');
#25=APPROVAL(#28,' ');
#26=APPROVAL(#29,' ');
#27=APPROVAL_STATUS('not_yet_approved');
#28=APPROVAL_STATUS('not_yet_approved');
#29=APPROVAL_STATUS('not_yet_approved');
#30=PERSON_AND_ORGANIZATION(#36,#33);
#31=PERSON_AND_ORGANIZATION(#36,#34);
#32=PERSON_AND_ORGANIZATION(#36,#35);
#33=ORGANIZATION(' ',' ',' ');
#34=ORGANIZATION(' ',' ',' ');
#35=ORGANIZATION(' ',' ',' ');
#36=PERSON(' ',' ',' ',(' '),$,$);
#37=APPLIED_SECURITY_CLASSIFICATION_ASSIGNMENT(#38,(#68));
#38=SECURITY_CLASSIFICATION(' ',' ',#39);
#39=SECURITY_CLASSIFICATION_LEVEL('confidential');
#40=APPLIED_DATE_AND_TIME_ASSIGNMENT(#44,#42,(#66));
#41=APPLIED_DATE_AND_TIME_ASSIGNMENT(#45,#43,(#38));
#42=DATE_TIME_ROLE('creation_date');
#43=DATE_TIME_ROLE('classification_date');
#44=DATE_AND_TIME(#59,#49);
#45=DATE_AND_TIME(#60,#50);
#46=DATE_AND_TIME(#61,#51);
#47=DATE_AND_TIME(#62,#52);
#48=DATE_AND_TIME(#63,#53);
#49=LOCAL_TIME(0,0,0.,#54);
#50=LOCAL_TIME(0,0,0.,#55);
#51=LOCAL_TIME(0,0,0.,#56);
#52=LOCAL_TIME(0,0,0.,#57);
#53=LOCAL_TIME(0,0,0.,#58);
#54=COORDINATED_UNIVERSAL_TIME_OFFSET(0,0,.BEHIND.);
#55=COORDINATED_UNIVERSAL_TIME_OFFSET(0,0,.BEHIND.);
#56=COORDINATED_UNIVERSAL_TIME_OFFSET(0,0,.BEHIND.);
#57=COORDINATED_UNIVERSAL_TIME_OFFSET(0,0,.BEHIND.);
#58=COORDINATED_UNIVERSAL_TIME_OFFSET(0,0,.BEHIND.);
#59=CALENDAR_DATE(0,1,1);
#60=CALENDAR_DATE(0,1,1);
#61=CALENDAR_DATE(0,1,1);
#62=CALENDAR_DATE(0,1,1);
#63=CALENDAR_DATE(0,1,1);
#64=SHAPE_DEFINITION_REPRESENTATION(#65,#76);
#65=PRODUCT_DEFINITION_SHAPE('','',#66);
#66=PRODUCT_DEFINITION(' ','',#68,#67);
#67=PRODUCT_DEFINITION_CONTEXT('part definition',#75,'design');
#68=PRODUCT_DEFINITION_FORMATION_WITH_SPECIFIED_SOURCE(' ',' ',#70,
 .NOT_KNOWN.);
#69=PRODUCT_RELATED_PRODUCT_CATEGORY('detail','',(#70));
#70=PRODUCT('ABHF-D39X54-WA20','ABHF-D39X54-WA20',' ',(#73));
#71=PRODUCT_CATEGORY('part',' ');
#72=PRODUCT_CATEGORY(' ','');
#73=PRODUCT_CONTEXT(' ',#75,'mechanical');
#74=APPLICATION_PROTOCOL_DEFINITION('international standard',
'config_control_design',2010,#75);
#75=APPLICATION_CONTEXT(
'configuration controlled 3D designs of mechanical parts and assemblie
s');
#76=SHAPE_REPRESENTATION('ABHF-D39X54-WA20-None',(#297),#521);
#77=PRESENTATION_LAYER_ASSIGNMENT('1','Layer 1',(#86));
#78=STYLED_ITEM('',(#79),#86);
#79=PRESENTATION_STYLE_ASSIGNMENT((#80));
#80=SURFACE_STYLE_USAGE(.BOTH.,#81);
#81=SURFACE_SIDE_STYLE('',(#82));
#82=SURFACE_STYLE_FILL_AREA(#83);
#83=FILL_AREA_STYLE('',(#84));
#84=FILL_AREA_STYLE_COLOUR('',#85);
#85=COLOUR_RGB('medium steel',0.611764705882353,0.658823529411765,0.670588235294118);
#86=MANIFOLD_SOLID_BREP('',#87);
#87=CLOSED_SHELL('',(#110,#111,#112,#113,#114,#115,#116,#117,#118,#119,
#120,#121,#122,#123,#124,#125,#126));
#88=PLANE('',#309);
#89=PLANE('',#312);
#90=PLANE('',#318);
#91=PLANE('',#322);
#92=PLANE('',#324);
#93=LINE('',#488,#94);
#94=VECTOR('',#356,1.);
#95=CONICAL_SURFACE('',#306,3.5527136788005E-15,30.0000000000009);
#96=CONICAL_SURFACE('',#315,18.,4.99999999999781);
#97=CONICAL_SURFACE('',#319,25.0954959385836,45.0000000000002);
#98=CONICAL_SURFACE('',#330,9.99999999999941,20.0000000000015);
#99=TOROIDAL_SURFACE('',#304,16.4999999999996,1.5);
#100=TOROIDAL_SURFACE('',#308,13.6339745962156,1.5);
#101=TOROIDAL_SURFACE('',#314,16.9950564355557,1.);
#102=TOROIDAL_SURFACE('',#326,8.75,1.);
#103=FACE_OUTER_BOUND('',#163,.T.);
#104=FACE_OUTER_BOUND('',#164,.T.);
#105=FACE_OUTER_BOUND('',#165,.T.);
#106=FACE_OUTER_BOUND('',#166,.T.);
#107=FACE_OUTER_BOUND('',#175,.T.);
#108=FACE_OUTER_BOUND('',#178,.T.);
#109=FACE_OUTER_BOUND('',#179,.T.);
#110=ADVANCED_FACE('',(#141,#142),#127,.T.);
#111=ADVANCED_FACE('',(#103),#99,.T.);
#112=ADVANCED_FACE('',(#104),#95,.T.);
#113=ADVANCED_FACE('',(#105),#100,.T.);
#114=ADVANCED_FACE('',(#106),#88,.T.);
#115=ADVANCED_FACE('',(#143,#144),#89,.T.);
#116=ADVANCED_FACE('',(#145,#146),#101,.T.);
#117=ADVANCED_FACE('',(#147,#148),#96,.T.);
#118=ADVANCED_FACE('',(#149,#150),#90,.T.);
#119=ADVANCED_FACE('',(#107),#97,.F.);
#120=ADVANCED_FACE('',(#151,#152),#128,.F.);
#121=ADVANCED_FACE('',(#108),#91,.F.);
#122=ADVANCED_FACE('',(#109),#92,.T.);
#123=ADVANCED_FACE('',(#153,#154),#102,.T.);
#124=ADVANCED_FACE('',(#155,#156),#129,.T.);
#125=ADVANCED_FACE('',(#157,#158),#98,.T.);
#126=ADVANCED_FACE('',(#159,#160),#130,.T.);
#127=CYLINDRICAL_SURFACE('',#302,18.);
#128=CYLINDRICAL_SURFACE('',#321,9.00000000000002);
#129=CYLINDRICAL_SURFACE('',#328,9.75);
#130=CYLINDRICAL_SURFACE('',#331,9.99999999999969);
#131=B_SPLINE_CURVE_WITH_KNOTS('',3,(#411,#412,#413,#414,#415,#416,#417,
#418,#419,#420,#421,#422,#423,#424),.UNSPECIFIED.,.F.,.F.,(4,2,2,2,2,2,
4),(0.,0.25,0.375,0.5,0.625,0.75,1.),.UNSPECIFIED.);
#132=B_SPLINE_CURVE_WITH_KNOTS('',3,(#428,#429,#430,#431,#432,#433,#434),
 .UNSPECIFIED.,.F.,.F.,(4,3,4),(0.,0.569663965650701,1.),.UNSPECIFIED.);
#133=B_SPLINE_CURVE_WITH_KNOTS('',3,(#436,#437,#438,#439,#440,#441,#442),
 .UNSPECIFIED.,.F.,.F.,(4,3,4),(0.,0.569733886797564,1.),.UNSPECIFIED.);
#134=B_SPLINE_CURVE_WITH_KNOTS('',3,(#446,#447,#448,#449),.UNSPECIFIED.,
 .F.,.F.,(4,4),(0.,1.),.UNSPECIFIED.);
#135=B_SPLINE_CURVE_WITH_KNOTS('',3,(#451,#452,#453,#454),.UNSPECIFIED.,
 .F.,.F.,(4,4),(0.,1.),.UNSPECIFIED.);
#136=B_SPLINE_CURVE_WITH_KNOTS('',3,(#461,#462,#463,#464,#465,#466,#467,
#468,#469,#470,#471,#472,#473),.UNSPECIFIED.,.F.,.F.,(4,3,3,3,4),(0.,0.176775032546375,
0.537567306263005,0.836153107336951,1.),.UNSPECIFIED.);
#137=B_SPLINE_CURVE_WITH_KNOTS('',3,(#474,#475,#476,#477,#478,#479,#480,
#481,#482,#483,#484,#485,#486),.UNSPECIFIED.,.F.,.F.,(4,3,3,3,4),(0.,0.288467276741176,
0.57478164342031,0.899699594023998,1.),.UNSPECIFIED.);
#138=ELLIPSE('',#300,206.526838422058,18.);
#139=ELLIPSE('',#301,206.526838422058,18.);
#140=ELLIPSE('',#317,9.03437853789014,9.00000000000002);
#141=FACE_BOUND('',#161,.T.);
#142=FACE_BOUND('',#162,.T.);
#143=FACE_BOUND('',#167,.T.);
#144=FACE_BOUND('',#168,.T.);
#145=FACE_BOUND('',#169,.T.);
#146=FACE_BOUND('',#170,.T.);
#147=FACE_BOUND('',#171,.T.);
#148=FACE_BOUND('',#172,.T.);
#149=FACE_BOUND('',#173,.T.);
#150=FACE_BOUND('',#174,.T.);
#151=FACE_BOUND('',#176,.T.);
#152=FACE_BOUND('',#177,.T.);
#153=FACE_BOUND('',#180,.T.);
#154=FACE_BOUND('',#181,.T.);
#155=FACE_BOUND('',#182,.T.);
#156=FACE_BOUND('',#183,.T.);
#157=FACE_BOUND('',#184,.T.);
#158=FACE_BOUND('',#185,.T.);
#159=FACE_BOUND('',#186,.T.);
#160=FACE_BOUND('',#187,.T.);
#161=EDGE_LOOP('',(#188));
#162=EDGE_LOOP('',(#189,#190,#191,#192));
#163=EDGE_LOOP('',(#193,#194,#195,#196));
#164=EDGE_LOOP('',(#197,#198,#199,#200));
#165=EDGE_LOOP('',(#201,#202,#203,#204));
#166=EDGE_LOOP('',(#205,#206));
#167=EDGE_LOOP('',(#207));
#168=EDGE_LOOP('',(#208));
#169=EDGE_LOOP('',(#209));
#170=EDGE_LOOP('',(#210));
#171=EDGE_LOOP('',(#211));
#172=EDGE_LOOP('',(#212));
#173=EDGE_LOOP('',(#213,#214,#215,#216,#217,#218,#219,#220,#221,#222));
#174=EDGE_LOOP('',(#223));
#175=EDGE_LOOP('',(#224,#225));
#176=EDGE_LOOP('',(#226));
#177=EDGE_LOOP('',(#227));
#178=EDGE_LOOP('',(#228));
#179=EDGE_LOOP('',(#229));
#180=EDGE_LOOP('',(#230));
#181=EDGE_LOOP('',(#231));
#182=EDGE_LOOP('',(#232));
#183=EDGE_LOOP('',(#233));
#184=EDGE_LOOP('',(#234));
#185=EDGE_LOOP('',(#235));
#186=EDGE_LOOP('',(#236));
#187=EDGE_LOOP('',(#237));
#188=ORIENTED_EDGE('',*,*,#258,.T.);
#189=ORIENTED_EDGE('',*,*,#259,.T.);
#190=ORIENTED_EDGE('',*,*,#260,.T.);
#191=ORIENTED_EDGE('',*,*,#261,.T.);
#192=ORIENTED_EDGE('',*,*,#262,.T.);
#193=ORIENTED_EDGE('',*,*,#263,.F.);
#194=ORIENTED_EDGE('',*,*,#259,.F.);
#195=ORIENTED_EDGE('',*,*,#264,.F.);
#196=ORIENTED_EDGE('',*,*,#265,.T.);
#197=ORIENTED_EDGE('',*,*,#266,.F.);
#198=ORIENTED_EDGE('',*,*,#265,.F.);
#199=ORIENTED_EDGE('',*,*,#267,.F.);
#200=ORIENTED_EDGE('',*,*,#268,.T.);
#201=ORIENTED_EDGE('',*,*,#269,.F.);
#202=ORIENTED_EDGE('',*,*,#270,.T.);
#203=ORIENTED_EDGE('',*,*,#268,.F.);
#204=ORIENTED_EDGE('',*,*,#271,.T.);
#205=ORIENTED_EDGE('',*,*,#269,.T.);
#206=ORIENTED_EDGE('',*,*,#272,.T.);
#207=ORIENTED_EDGE('',*,*,#273,.F.);
#208=ORIENTED_EDGE('',*,*,#274,.F.);
#209=ORIENTED_EDGE('',*,*,#274,.T.);
#210=ORIENTED_EDGE('',*,*,#275,.F.);
#211=ORIENTED_EDGE('',*,*,#275,.T.);
#212=ORIENTED_EDGE('',*,*,#258,.F.);
#213=ORIENTED_EDGE('',*,*,#263,.T.);
#214=ORIENTED_EDGE('',*,*,#266,.T.);
#215=ORIENTED_EDGE('',*,*,#270,.F.);
#216=ORIENTED_EDGE('',*,*,#272,.F.);
#217=ORIENTED_EDGE('',*,*,#271,.F.);
#218=ORIENTED_EDGE('',*,*,#267,.T.);
#219=ORIENTED_EDGE('',*,*,#264,.T.);
#220=ORIENTED_EDGE('',*,*,#262,.F.);
#221=ORIENTED_EDGE('',*,*,#276,.F.);
#222=ORIENTED_EDGE('',*,*,#260,.F.);
#223=ORIENTED_EDGE('',*,*,#277,.T.);
#224=ORIENTED_EDGE('',*,*,#276,.T.);
#225=ORIENTED_EDGE('',*,*,#261,.F.);
#226=ORIENTED_EDGE('',*,*,#278,.T.);
#227=ORIENTED_EDGE('',*,*,#277,.F.);
#228=ORIENTED_EDGE('',*,*,#278,.F.);
#229=ORIENTED_EDGE('',*,*,#279,.F.);
#230=ORIENTED_EDGE('',*,*,#279,.T.);
#231=ORIENTED_EDGE('',*,*,#280,.F.);
#232=ORIENTED_EDGE('',*,*,#280,.T.);
#233=ORIENTED_EDGE('',*,*,#281,.F.);
#234=ORIENTED_EDGE('',*,*,#281,.T.);
#235=ORIENTED_EDGE('',*,*,#282,.F.);
#236=ORIENTED_EDGE('',*,*,#282,.T.);
#237=ORIENTED_EDGE('',*,*,#273,.T.);
#238=VERTEX_POINT('',#405);
#239=VERTEX_POINT('',#407);
#240=VERTEX_POINT('',#408);
#241=VERTEX_POINT('',#410);
#242=VERTEX_POINT('',#425);
#243=VERTEX_POINT('',#435);
#244=VERTEX_POINT('',#443);
#245=VERTEX_POINT('',#450);
#246=VERTEX_POINT('',#455);
#247=VERTEX_POINT('',#459);
#248=VERTEX_POINT('',#460);
#249=VERTEX_POINT('',#491);
#250=VERTEX_POINT('',#493);
#251=VERTEX_POINT('',#496);
#252=VERTEX_POINT('',#501);
#253=VERTEX_POINT('',#505);
#254=VERTEX_POINT('',#509);
#255=VERTEX_POINT('',#512);
#256=VERTEX_POINT('',#515);
#257=VERTEX_POINT('',#518);
#258=EDGE_CURVE('',#238,#238,#283,.T.);
#259=EDGE_CURVE('',#239,#240,#284,.T.);
#260=EDGE_CURVE('',#240,#241,#138,.T.);
#261=EDGE_CURVE('',#241,#242,#131,.T.);
#262=EDGE_CURVE('',#242,#239,#139,.T.);
#263=EDGE_CURVE('',#240,#243,#132,.T.);
#264=EDGE_CURVE('',#244,#239,#133,.T.);
#265=EDGE_CURVE('',#244,#243,#285,.T.);
#266=EDGE_CURVE('',#243,#245,#134,.T.);
#267=EDGE_CURVE('',#246,#244,#135,.T.);
#268=EDGE_CURVE('',#246,#245,#286,.T.);
#269=EDGE_CURVE('',#247,#248,#287,.T.);
#270=EDGE_CURVE('',#247,#245,#136,.T.);
#271=EDGE_CURVE('',#246,#248,#137,.T.);
#272=EDGE_CURVE('',#248,#247,#93,.T.);
#273=EDGE_CURVE('',#249,#249,#288,.T.);
#274=EDGE_CURVE('',#250,#250,#289,.T.);
#275=EDGE_CURVE('',#251,#251,#290,.T.);
#276=EDGE_CURVE('',#241,#242,#291,.T.);
#277=EDGE_CURVE('',#252,#252,#140,.T.);
#278=EDGE_CURVE('',#253,#253,#292,.T.);
#279=EDGE_CURVE('',#254,#254,#293,.T.);
#280=EDGE_CURVE('',#255,#255,#294,.T.);
#281=EDGE_CURVE('',#256,#256,#295,.T.);
#282=EDGE_CURVE('',#257,#257,#296,.T.);
#283=CIRCLE('',#298,18.);
#284=CIRCLE('',#299,17.9999999999996);
#285=CIRCLE('',#303,17.7990381056762);
#286=CIRCLE('',#305,14.9330127018921);
#287=CIRCLE('',#307,13.6339745962156);
#288=CIRCLE('',#310,9.99999999999969);
#289=CIRCLE('',#311,16.9950564355557);
#290=CIRCLE('',#313,17.9912511336474);
#291=CIRCLE('',#316,25.0954959385836);
#292=CIRCLE('',#320,9.00000000000002);
#293=CIRCLE('',#323,8.75);
#294=CIRCLE('',#325,9.75);
#295=CIRCLE('',#327,9.75);
#296=CIRCLE('',#329,9.99999999999941);
#297=AXIS2_PLACEMENT_3D('',#403,#332,#333);
#298=AXIS2_PLACEMENT_3D('',#404,#334,#335);
#299=AXIS2_PLACEMENT_3D('',#406,#336,#337);
#300=AXIS2_PLACEMENT_3D('',#409,#338,#339);
#301=AXIS2_PLACEMENT_3D('',#426,#340,#341);
#302=AXIS2_PLACEMENT_3D('',#427,#342,#343);
#303=AXIS2_PLACEMENT_3D('',#444,#344,#345);
#304=AXIS2_PLACEMENT_3D('',#445,#346,#347);
#305=AXIS2_PLACEMENT_3D('',#456,#348,#349);
#306=AXIS2_PLACEMENT_3D('',#457,#350,#351);
#307=AXIS2_PLACEMENT_3D('',#458,#352,#353);
#308=AXIS2_PLACEMENT_3D('',#487,#354,#355);
#309=AXIS2_PLACEMENT_3D('',#489,#357,#358);
#310=AXIS2_PLACEMENT_3D('',#490,#359,#360);
#311=AXIS2_PLACEMENT_3D('',#492,#361,#362);
#312=AXIS2_PLACEMENT_3D('',#494,#363,#364);
#313=AXIS2_PLACEMENT_3D('',#495,#365,#366);
#314=AXIS2_PLACEMENT_3D('',#497,#367,#368);
#315=AXIS2_PLACEMENT_3D('',#498,#369,#370);
#316=AXIS2_PLACEMENT_3D('',#499,#371,#372);
#317=AXIS2_PLACEMENT_3D('',#500,#373,#374);
#318=AXIS2_PLACEMENT_3D('',#502,#375,#376);
#319=AXIS2_PLACEMENT_3D('',#503,#377,#378);
#320=AXIS2_PLACEMENT_3D('',#504,#379,#380);
#321=AXIS2_PLACEMENT_3D('',#506,#381,#382);
#322=AXIS2_PLACEMENT_3D('',#507,#383,#384);
#323=AXIS2_PLACEMENT_3D('',#508,#385,#386);
#324=AXIS2_PLACEMENT_3D('',#510,#387,#388);
#325=AXIS2_PLACEMENT_3D('',#511,#389,#390);
#326=AXIS2_PLACEMENT_3D('',#513,#391,#392);
#327=AXIS2_PLACEMENT_3D('',#514,#393,#394);
#328=AXIS2_PLACEMENT_3D('',#516,#395,#396);
#329=AXIS2_PLACEMENT_3D('',#517,#397,#398);
#330=AXIS2_PLACEMENT_3D('',#519,#399,#400);
#331=AXIS2_PLACEMENT_3D('',#520,#401,#402);
#332=DIRECTION('',(0.,0.,1.));
#333=DIRECTION('',(1.,0.,0.));
#334=DIRECTION('',(-1.,0.,0.));
#335=DIRECTION('',(0.,0.,1.));
#336=DIRECTION('',(1.,0.,0.));
#337=DIRECTION('',(0.,0.,-1.));
#338=DIRECTION('',(0.087155742747658,0.,-0.996194698091746));
#339=DIRECTION('',(-0.996194698091746,0.,-0.087155742747658));
#340=DIRECTION('',(0.087155742747658,0.,-0.996194698091746));
#341=DIRECTION('',(-0.996194698091746,0.,-0.087155742747658));
#342=DIRECTION('',(-1.,0.,0.));
#343=DIRECTION('',(0.,0.,1.));
#344=DIRECTION('',(1.,0.,0.));
#345=DIRECTION('',(0.,0.,-1.));
#346=DIRECTION('',(1.,0.,0.));
#347=DIRECTION('',(0.,0.,-1.));
#348=DIRECTION('',(1.,0.,0.));
#349=DIRECTION('',(0.,0.,1.));
#350=DIRECTION('',(1.,0.,0.));
#351=DIRECTION('',(-2.40370335797937E-17,0.,-1.));
#352=DIRECTION('',(-1.,0.,0.));
#353=DIRECTION('',(0.,0.,1.));
#354=DIRECTION('',(-1.,0.,0.));
#355=DIRECTION('',(0.,0.,1.));
#356=DIRECTION('',(0.,1.,0.));
#357=DIRECTION('',(-1.,0.,0.));
#358=DIRECTION('',(0.,0.,1.));
#359=DIRECTION('',(1.,0.,0.));
#360=DIRECTION('',(0.,0.,-1.));
#361=DIRECTION('',(-1.,0.,0.));
#362=DIRECTION('',(0.,0.,1.));
#363=DIRECTION('',(1.,0.,0.));
#364=DIRECTION('',(0.,0.,-1.));
#365=DIRECTION('',(-1.,0.,0.));
#366=DIRECTION('',(0.,0.,1.));
#367=DIRECTION('',(-1.,0.,0.));
#368=DIRECTION('',(0.,0.,1.));
#369=DIRECTION('',(-1.,0.,0.));
#370=DIRECTION('',(0.,0.,1.));
#371=DIRECTION('',(0.087155742747658,0.,-0.996194698091746));
#372=DIRECTION('',(0.996194698091746,0.,0.087155742747658));
#373=DIRECTION('',(0.087155742747658,0.,-0.996194698091746));
#374=DIRECTION('',(0.996194698091746,0.,0.087155742747658));
#375=DIRECTION('',(-0.087155742747658,0.,0.996194698091746));
#376=DIRECTION('',(0.996194698091746,0.,0.087155742747658));
#377=DIRECTION('',(-0.087155742747658,0.,0.996194698091746));
#378=DIRECTION('',(0.996194698091746,0.,0.087155742747658));
#379=DIRECTION('',(0.,0.,-1.));
#380=DIRECTION('',(-1.,0.,0.));
#381=DIRECTION('',(0.,0.,1.));
#382=DIRECTION('',(1.,0.,0.));
#383=DIRECTION('',(0.,0.,-1.));
#384=DIRECTION('',(-1.,0.,0.));
#385=DIRECTION('',(-1.,0.,0.));
#386=DIRECTION('',(0.,0.,1.));
#387=DIRECTION('',(1.,0.,0.));
#388=DIRECTION('',(0.,0.,-1.));
#389=DIRECTION('',(-1.,0.,0.));
#390=DIRECTION('',(0.,0.,1.));
#391=DIRECTION('',(-1.,0.,0.));
#392=DIRECTION('',(0.,0.,1.));
#393=DIRECTION('',(-1.,0.,0.));
#394=DIRECTION('',(0.,0.,1.));
#395=DIRECTION('',(-1.,0.,0.));
#396=DIRECTION('',(0.,0.,1.));
#397=DIRECTION('',(-1.,0.,0.));
#398=DIRECTION('',(0.,0.,1.));
#399=DIRECTION('',(-1.,0.,0.));
#400=DIRECTION('',(-1.11328013859532E-16,0.,1.));
#401=DIRECTION('',(-1.,0.,0.));
#402=DIRECTION('',(0.,0.,1.));
#403=CARTESIAN_POINT('',(0.,0.,0.));
#404=CARTESIAN_POINT('',(53.987155742748,0.,0.));
#405=CARTESIAN_POINT('',(53.987155742748,0.,18.));
#406=CARTESIAN_POINT('',(6.46410161513695,0.,0.));
#407=CARTESIAN_POINT('',(6.46410161513695,-15.8313486378507,8.5655356112041));
#408=CARTESIAN_POINT('',(6.46410161513695,15.8313486378507,8.5655356112041));
#409=CARTESIAN_POINT('',(-91.4404184220909,0.,0.));
#410=CARTESIAN_POINT('',(19.9424088714965,15.1340723413543,9.74473469965476));
#411=CARTESIAN_POINT('',(19.9424088714965,15.1340723413543,9.74473469965476));
#412=CARTESIAN_POINT('',(22.790906151542,13.9041147219946,11.6549219096615));
#413=CARTESIAN_POINT('',(25.5103328894056,12.1685378256345,13.5938708565752));
#414=CARTESIAN_POINT('',(28.8205938899391,8.39899207418822,15.9897964826795));
#415=CARTESIAN_POINT('',(29.7679805317183,6.97431639934811,16.6837694117534));
#416=CARTESIAN_POINT('',(31.1590065037328,3.67106558203482,17.7062850003939));
#417=CARTESIAN_POINT('',(31.5555065751457,1.8384741545687,17.9998543620944));
#418=CARTESIAN_POINT('',(31.5559006305695,-1.83562124562567,18.0001455248627));
#419=CARTESIAN_POINT('',(31.1576741299601,-3.67308146364543,17.7053091656838));
#420=CARTESIAN_POINT('',(29.7721336149529,-6.96559988242175,16.6868187012692));
#421=CARTESIAN_POINT('',(28.823769200342,-8.39500843197466,15.9921034160109));
#422=CARTESIAN_POINT('',(25.5090758541924,-12.1707039639762,13.5929436836363));
#423=CARTESIAN_POINT('',(22.8114721751049,-13.8952344827336,11.668713376287));
#424=CARTESIAN_POINT('',(19.9424088714965,-15.1340723413543,9.74473469965476));
#425=CARTESIAN_POINT('',(19.9424088714965,-15.1340723413543,9.74473469965476));
#426=CARTESIAN_POINT('',(-91.4404184220909,0.,0.));
#427=CARTESIAN_POINT('',(0.,0.,0.));
#428=CARTESIAN_POINT('',(6.46410161513695,15.8313486378507,8.5655356112041));
#429=CARTESIAN_POINT('',(6.31604413335656,15.8383570357818,8.55258225999812));
#430=CARTESIAN_POINT('',(6.16468716990008,15.8196988524552,8.53934024154997));
#431=CARTESIAN_POINT('',(6.02277465807127,15.776749890346,8.52692450555246));
#432=CARTESIAN_POINT('',(5.91487960427931,15.7440961058604,8.51748491149514));
#433=CARTESIAN_POINT('',(5.81042488508485,15.6970382180408,8.50834630771384));
#434=CARTESIAN_POINT('',(5.71410161513694,15.6383225619072,8.49991911355965));
#435=CARTESIAN_POINT('',(5.71410161513694,15.6383225619072,8.49991911355965));
#436=CARTESIAN_POINT('',(5.71410161513694,-15.6383225619072,8.49991911355965));
#437=CARTESIAN_POINT('',(5.84083939451582,-15.715577952813,8.51100723249576));
#438=CARTESIAN_POINT('',(5.98228258098621,-15.7726120021377,8.5233819078449));
#439=CARTESIAN_POINT('',(6.12728005925456,-15.803734541767,8.53606754343322));
#440=CARTESIAN_POINT('',(6.23743762015898,-15.8273789740402,8.54570508121403));
#441=CARTESIAN_POINT('',(6.35157896677835,-15.8366749711536,8.55569115508281));
#442=CARTESIAN_POINT('',(6.46410161513695,-15.8313486378507,8.5655356112041));
#443=CARTESIAN_POINT('',(5.71410161513694,-15.6383225619072,8.49991911355965));
#444=CARTESIAN_POINT('',(5.71410161513694,0.,0.));
#445=CARTESIAN_POINT('',(6.46410161513696,0.,0.));
#446=CARTESIAN_POINT('',(5.71410161513694,15.6383225619072,8.49991911355965));
#447=CARTESIAN_POINT('',(4.0527483644915,14.6256135225018,8.35456953801624));
#448=CARTESIAN_POINT('',(2.39639872652409,13.6044725532822,8.20965772185882));
#449=CARTESIAN_POINT('',(0.749999999999977,12.5674459962158,8.06561649764444));
#450=CARTESIAN_POINT('',(0.749999999999977,12.5674459962158,8.06561649764444));
#451=CARTESIAN_POINT('',(0.749999999999977,-12.5674459962158,8.06561649764444));
#452=CARTESIAN_POINT('',(2.39639872652409,-13.6044725532822,8.20965772185882));
#453=CARTESIAN_POINT('',(4.0527483644915,-14.6256135225018,8.35456953801624));
#454=CARTESIAN_POINT('',(5.71410161513694,-15.6383225619072,8.49991911355965));
#455=CARTESIAN_POINT('',(0.749999999999977,-12.5674459962158,8.06561649764444));
#456=CARTESIAN_POINT('',(0.750000000000029,0.,0.));
#457=CARTESIAN_POINT('',(-25.1147367097476,0.,0.));
#458=CARTESIAN_POINT('',(-5.57065123844463E-17,0.,0.));
#459=CARTESIAN_POINT('',(-5.57065123844463E-17,11.0401659086379,8.));
#460=CARTESIAN_POINT('',(-5.57065123844463E-17,-11.0401659086379,8.));
#461=CARTESIAN_POINT('',(-5.57065123844463E-17,11.0401659086379,8.));
#462=CARTESIAN_POINT('',(-5.57065123844463E-17,11.1444703045781,8.));
#463=CARTESIAN_POINT('',(0.00715442048967945,11.2490531696701,8.00062593068695));
#464=CARTESIAN_POINT('',(0.0218457382936908,11.3523097439715,8.00191125444705));
#465=CARTESIAN_POINT('',(0.0517550404241395,11.5625245197277,8.00452797931744));
#466=CARTESIAN_POINT('',(0.114107937270667,11.7714689043551,8.00998315092951));
#467=CARTESIAN_POINT('',(0.210178354056577,11.9606553080058,8.01838822329849));
#468=CARTESIAN_POINT('',(0.289812999178296,12.1174756135755,8.02535535197055));
#469=CARTESIAN_POINT('',(0.394826988755391,12.2644094272875,8.03454288557018));
#470=CARTESIAN_POINT('',(0.520886922795124,12.3867617222835,8.04557170072348));
#471=CARTESIAN_POINT('',(0.59070750923614,12.4545287654292,8.0516802105178));
#472=CARTESIAN_POINT('',(0.667733716184583,12.5156284627755,8.05841913042019));
#473=CARTESIAN_POINT('',(0.749999999999977,12.5674459962158,8.06561649764444));
#474=CARTESIAN_POINT('',(0.749999999999977,-12.5674459962158,8.06561649764444));
#475=CARTESIAN_POINT('',(0.606743589557044,-12.477212263824,8.05308318575327));
#476=CARTESIAN_POINT('',(0.479130203298868,-12.3579501921147,8.04191846114152));
#477=CARTESIAN_POINT('',(0.375644807531036,-12.22367282586,8.03286466217134));
#478=CARTESIAN_POINT('',(0.272606723705717,-12.0899758687451,8.02384999792519));
#479=CARTESIAN_POINT('',(0.190400930165872,-11.938227868563,8.01665792291431));
#480=CARTESIAN_POINT('',(0.130654263885844,-11.7801898986305,8.01143076693134));
#481=CARTESIAN_POINT('',(0.0628687441160101,-11.6008880797635,8.00550030240026));
#482=CARTESIAN_POINT('',(0.0222316132854947,-11.4095663027932,8.00194501413437));
#483=CARTESIAN_POINT('',(0.00703216302613334,-11.2183951811584,8.00061523454485));
#484=CARTESIAN_POINT('',(0.00231994963512515,-11.1591273060729,8.00020296929303));
#485=CARTESIAN_POINT('',(-5.57065123844463E-17,-11.0996222450104,8.));
#486=CARTESIAN_POINT('',(-5.57065123844463E-17,-11.0401659086379,8.));
#487=CARTESIAN_POINT('',(1.50000000000001,0.,0.));
#488=CARTESIAN_POINT('',(0.,0.,8.));
#489=CARTESIAN_POINT('',(0.,0.,0.));
#490=CARTESIAN_POINT('',(55.0000000000004,0.,0.));
#491=CARTESIAN_POINT('',(55.0000000000004,0.,-9.99999999999969));
#492=CARTESIAN_POINT('',(55.0000000000004,0.,0.));
#493=CARTESIAN_POINT('',(55.0000000000004,0.,16.9950564355557));
#494=CARTESIAN_POINT('',(55.0000000000004,16.9950564355557,0.));
#495=CARTESIAN_POINT('',(54.0871557427481,0.,0.));
#496=CARTESIAN_POINT('',(54.0871557427481,0.,17.9912511336474));
#497=CARTESIAN_POINT('',(54.0000000000004,0.,0.));
#498=CARTESIAN_POINT('',(53.987155742748,0.,0.));
#499=CARTESIAN_POINT('',(-7.82130114689523E-16,0.,8.));
#500=CARTESIAN_POINT('',(13.,0.,9.13735262583701));
#501=CARTESIAN_POINT('',(22.,0.,9.92475059757033));
#502=CARTESIAN_POINT('',(-2.49351695352606E-16,0.,8.));
#503=CARTESIAN_POINT('',(-7.82130114689523E-16,0.,8.));
#504=CARTESIAN_POINT('',(13.,0.,4.));
#505=CARTESIAN_POINT('',(3.99999999999999,0.,4.));
#506=CARTESIAN_POINT('',(13.,0.,12.));
#507=CARTESIAN_POINT('',(22.,0.,4.));
#508=CARTESIAN_POINT('',(105.,0.,0.));
#509=CARTESIAN_POINT('',(105.,0.,8.75));
#510=CARTESIAN_POINT('',(105.,8.75,0.));
#511=CARTESIAN_POINT('',(104.,0.,0.));
#512=CARTESIAN_POINT('',(104.,0.,9.75));
#513=CARTESIAN_POINT('',(104.,0.,0.));
#514=CARTESIAN_POINT('',(102.686869354863,0.,0.));
#515=CARTESIAN_POINT('',(102.686869354863,0.,9.75));
#516=CARTESIAN_POINT('',(0.,0.,0.));
#517=CARTESIAN_POINT('',(102.000000000001,0.,0.));
#518=CARTESIAN_POINT('',(102.000000000001,0.,9.99999999999941));
#519=CARTESIAN_POINT('',(102.000000000001,0.,0.));
#520=CARTESIAN_POINT('',(0.,0.,0.));
#521=(
GEOMETRIC_REPRESENTATION_CONTEXT(3)
GLOBAL_UNCERTAINTY_ASSIGNED_CONTEXT((#522))
GLOBAL_UNIT_ASSIGNED_CONTEXT((#528,#524,#523))
REPRESENTATION_CONTEXT('ABHF-D39X54-WA20','TOP_LEVEL_ASSEMBLY_PART')
);
#522=UNCERTAINTY_MEASURE_WITH_UNIT(LENGTH_MEASURE(0.0508),#528,
'DISTANCE_ACCURACY_VALUE','Maximum Tolerance applied to model');
#523=(
NAMED_UNIT(*)
SI_UNIT($,.STERADIAN.)
SOLID_ANGLE_UNIT()
);
#524=(
CONVERSION_BASED_UNIT('DEGREE',#526)
NAMED_UNIT(#525)
PLANE_ANGLE_UNIT()
);
#525=DIMENSIONAL_EXPONENTS(0.,0.,0.,0.,0.,0.,0.);
#526=PLANE_ANGLE_MEASURE_WITH_UNIT(PLANE_ANGLE_MEASURE(0.0174532925),#527);
#527=(
NAMED_UNIT(*)
PLANE_ANGLE_UNIT()
SI_UNIT($,.RADIAN.)
);
#528=(
LENGTH_UNIT()
NAMED_UNIT(*)
SI_UNIT(.MILLI.,.METRE.)
);
ENDSEC;
END-ISO-10303-21;
