ISO-10303-21;
HEADER;
/* Generated by software containing ST-Developer
 * from STEP Tools, Inc. (www.steptools.com) 
 */
/* OPTION: using custom schema-name function */

FILE_DESCRIPTION(
/* description */ (''),
/* implementation_level */ '2;1');

FILE_NAME(
/* name */ 'ABHF-D78X170-WA32.stp',
/* time_stamp */ '2023-10-18T17:20:38+03:00',
/* author */ (''),
/* organization */ (''),
/* preprocessor_version */ 'ST-DEVELOPER v19.4',
/* originating_system */ 'SIEMENS PLM Software NX2306.3001',
/* authorisation */ '');

FILE_SCHEMA (('AP203_CONFIGURATION_CONTROLLED_3D_DESIGN_OF_MECHANICAL_PARTS_AND_ASSEMBLIES_MIM_LF { 1 0 10303 403 2 1 2}'));
ENDSEC;

DATA;
#10=SHAPE_REPRESENTATION_RELATIONSHIP('None',
'relationship between model1-None and model1-None',#76,#11);
#11=ADVANCED_BREP_SHAPE_REPRESENTATION('model1-None',(#86),#525);
#12=APPLIED_APPROVAL_ASSIGNMENT(#24,(#66));
#13=APPLIED_APPROVAL_ASSIGNMENT(#25,(#68));
#14=APPLIED_APPROVAL_ASSIGNMENT(#26,(#38));
#15=APPROVAL_PERSON_ORGANIZATION(#30,#24,#18);
#16=APPROVAL_PERSON_ORGANIZATION(#31,#25,#19);
#17=APPROVAL_PERSON_ORGANIZATION(#32,#26,#20);
#18=APPROVAL_ROLE('approver');
#19=APPROVAL_ROLE('approver');
#20=APPROVAL_ROLE('approver');
#21=APPROVAL_DATE_TIME(#46,#24);
#22=APPROVAL_DATE_TIME(#47,#25);
#23=APPROVAL_DATE_TIME(#48,#26);
#24=APPROVAL(#27,' ');
#25=APPROVAL(#28,' ');
#26=APPROVAL(#29,' ');
#27=APPROVAL_STATUS('not_yet_approved');
#28=APPROVAL_STATUS('not_yet_approved');
#29=APPROVAL_STATUS('not_yet_approved');
#30=PERSON_AND_ORGANIZATION(#36,#33);
#31=PERSON_AND_ORGANIZATION(#36,#34);
#32=PERSON_AND_ORGANIZATION(#36,#35);
#33=ORGANIZATION(' ',' ',' ');
#34=ORGANIZATION(' ',' ',' ');
#35=ORGANIZATION(' ',' ',' ');
#36=PERSON(' ',' ',' ',(' '),$,$);
#37=APPLIED_SECURITY_CLASSIFICATION_ASSIGNMENT(#38,(#68));
#38=SECURITY_CLASSIFICATION(' ',' ',#39);
#39=SECURITY_CLASSIFICATION_LEVEL('confidential');
#40=APPLIED_DATE_AND_TIME_ASSIGNMENT(#44,#42,(#66));
#41=APPLIED_DATE_AND_TIME_ASSIGNMENT(#45,#43,(#38));
#42=DATE_TIME_ROLE('creation_date');
#43=DATE_TIME_ROLE('classification_date');
#44=DATE_AND_TIME(#59,#49);
#45=DATE_AND_TIME(#60,#50);
#46=DATE_AND_TIME(#61,#51);
#47=DATE_AND_TIME(#62,#52);
#48=DATE_AND_TIME(#63,#53);
#49=LOCAL_TIME(0,0,0.,#54);
#50=LOCAL_TIME(0,0,0.,#55);
#51=LOCAL_TIME(0,0,0.,#56);
#52=LOCAL_TIME(0,0,0.,#57);
#53=LOCAL_TIME(0,0,0.,#58);
#54=COORDINATED_UNIVERSAL_TIME_OFFSET(0,0,.BEHIND.);
#55=COORDINATED_UNIVERSAL_TIME_OFFSET(0,0,.BEHIND.);
#56=COORDINATED_UNIVERSAL_TIME_OFFSET(0,0,.BEHIND.);
#57=COORDINATED_UNIVERSAL_TIME_OFFSET(0,0,.BEHIND.);
#58=COORDINATED_UNIVERSAL_TIME_OFFSET(0,0,.BEHIND.);
#59=CALENDAR_DATE(0,1,1);
#60=CALENDAR_DATE(0,1,1);
#61=CALENDAR_DATE(0,1,1);
#62=CALENDAR_DATE(0,1,1);
#63=CALENDAR_DATE(0,1,1);
#64=SHAPE_DEFINITION_REPRESENTATION(#65,#76);
#65=PRODUCT_DEFINITION_SHAPE('','',#66);
#66=PRODUCT_DEFINITION(' ','',#68,#67);
#67=PRODUCT_DEFINITION_CONTEXT('part definition',#75,'design');
#68=PRODUCT_DEFINITION_FORMATION_WITH_SPECIFIED_SOURCE(' ',' ',#70,
 .NOT_KNOWN.);
#69=PRODUCT_RELATED_PRODUCT_CATEGORY('detail','',(#70));
#70=PRODUCT('model1','model1',' ',(#73));
#71=PRODUCT_CATEGORY('part',' ');
#72=PRODUCT_CATEGORY(' ','');
#73=PRODUCT_CONTEXT(' ',#75,'mechanical');
#74=APPLICATION_PROTOCOL_DEFINITION('international standard',
'config_control_design',2010,#75);
#75=APPLICATION_CONTEXT(
'configuration controlled 3D designs of mechanical parts and assemblie
s');
#76=SHAPE_REPRESENTATION('model1-None',(#297),#525);
#77=PRESENTATION_LAYER_ASSIGNMENT('1','Layer 1',(#86));
#78=STYLED_ITEM('',(#79),#86);
#79=PRESENTATION_STYLE_ASSIGNMENT((#80));
#80=SURFACE_STYLE_USAGE(.BOTH.,#81);
#81=SURFACE_SIDE_STYLE('',(#82));
#82=SURFACE_STYLE_FILL_AREA(#83);
#83=FILL_AREA_STYLE('',(#84));
#84=FILL_AREA_STYLE_COLOUR('',#85);
#85=COLOUR_RGB('medium steel',0.611764705882353,0.658823529411765,0.670588235294118);
#86=MANIFOLD_SOLID_BREP('',#87);
#87=CLOSED_SHELL('',(#110,#111,#112,#113,#114,#115,#116,#117,#118,#119,
#120,#121,#122,#123,#124,#125,#126));
#88=PLANE('',#309);
#89=PLANE('',#312);
#90=PLANE('',#318);
#91=PLANE('',#322);
#92=PLANE('',#324);
#93=LINE('',#492,#94);
#94=VECTOR('',#356,1.);
#95=CONICAL_SURFACE('',#306,7.105427357601E-15,30.000000000002);
#96=CONICAL_SURFACE('',#315,36.,5.0000000000021);
#97=CONICAL_SURFACE('',#319,49.4815510534123,44.9999999999997);
#98=CONICAL_SURFACE('',#330,15.9999999999702,19.9999999999993);
#99=TOROIDAL_SURFACE('',#304,34.4999999999996,1.5);
#100=TOROIDAL_SURFACE('',#308,31.6339745962156,1.5);
#101=TOROIDAL_SURFACE('',#314,34.9950564355557,1.);
#102=TOROIDAL_SURFACE('',#326,14.7499999999702,1.);
#103=FACE_OUTER_BOUND('',#163,.T.);
#104=FACE_OUTER_BOUND('',#164,.T.);
#105=FACE_OUTER_BOUND('',#165,.T.);
#106=FACE_OUTER_BOUND('',#166,.T.);
#107=FACE_OUTER_BOUND('',#175,.T.);
#108=FACE_OUTER_BOUND('',#178,.T.);
#109=FACE_OUTER_BOUND('',#179,.T.);
#110=ADVANCED_FACE('',(#141,#142),#127,.T.);
#111=ADVANCED_FACE('',(#103),#99,.T.);
#112=ADVANCED_FACE('',(#104),#95,.T.);
#113=ADVANCED_FACE('',(#105),#100,.T.);
#114=ADVANCED_FACE('',(#106),#88,.T.);
#115=ADVANCED_FACE('',(#143,#144),#89,.T.);
#116=ADVANCED_FACE('',(#145,#146),#101,.T.);
#117=ADVANCED_FACE('',(#147,#148),#96,.T.);
#118=ADVANCED_FACE('',(#149,#150),#90,.T.);
#119=ADVANCED_FACE('',(#107),#97,.F.);
#120=ADVANCED_FACE('',(#151,#152),#128,.F.);
#121=ADVANCED_FACE('',(#108),#91,.F.);
#122=ADVANCED_FACE('',(#109),#92,.T.);
#123=ADVANCED_FACE('',(#153,#154),#102,.T.);
#124=ADVANCED_FACE('',(#155,#156),#129,.T.);
#125=ADVANCED_FACE('',(#157,#158),#98,.T.);
#126=ADVANCED_FACE('',(#159,#160),#130,.T.);
#127=CYLINDRICAL_SURFACE('',#302,36.);
#128=CYLINDRICAL_SURFACE('',#321,16.);
#129=CYLINDRICAL_SURFACE('',#328,15.7499999999702);
#130=CYLINDRICAL_SURFACE('',#331,16.);
#131=B_SPLINE_CURVE_WITH_KNOTS('',3,(#411,#412,#413,#414,#415,#416,#417,
#418,#419,#420,#421,#422,#423,#424,#425,#426,#427,#428),.UNSPECIFIED.,.F.,
 .F.,(4,2,2,2,2,2,2,2,4),(0.,0.125,0.25,0.375,0.5,0.625,0.75,0.875,1.),
 .UNSPECIFIED.);
#132=B_SPLINE_CURVE_WITH_KNOTS('',3,(#432,#433,#434,#435,#436,#437,#438),
 .UNSPECIFIED.,.F.,.F.,(4,3,4),(0.,0.489785511704322,1.),.UNSPECIFIED.);
#133=B_SPLINE_CURVE_WITH_KNOTS('',3,(#440,#441,#442,#443,#444,#445,#446),
 .UNSPECIFIED.,.F.,.F.,(4,3,4),(0.,0.481735876295921,1.),.UNSPECIFIED.);
#134=B_SPLINE_CURVE_WITH_KNOTS('',3,(#450,#451,#452,#453),.UNSPECIFIED.,
 .F.,.F.,(4,4),(0.,1.),.UNSPECIFIED.);
#135=B_SPLINE_CURVE_WITH_KNOTS('',3,(#455,#456,#457,#458),.UNSPECIFIED.,
 .F.,.F.,(4,4),(0.,1.),.UNSPECIFIED.);
#136=B_SPLINE_CURVE_WITH_KNOTS('',3,(#465,#466,#467,#468,#469,#470,#471,
#472,#473,#474,#475,#476,#477),.UNSPECIFIED.,.F.,.F.,(4,3,3,3,4),(0.,0.141662056066499,
0.508240286933928,0.802555827884255,1.),.UNSPECIFIED.);
#137=B_SPLINE_CURVE_WITH_KNOTS('',3,(#478,#479,#480,#481,#482,#483,#484,
#485,#486,#487,#488,#489,#490),.UNSPECIFIED.,.F.,.F.,(4,3,3,3,4),(0.,0.248924444787406,
0.519916475756764,0.82895718605327,1.),.UNSPECIFIED.);
#138=ELLIPSE('',#300,258.670675235799,36.);
#139=ELLIPSE('',#301,258.670675235799,36.);
#140=ELLIPSE('',#317,16.1572411602979,16.);
#141=FACE_BOUND('',#161,.T.);
#142=FACE_BOUND('',#162,.T.);
#143=FACE_BOUND('',#167,.T.);
#144=FACE_BOUND('',#168,.T.);
#145=FACE_BOUND('',#169,.T.);
#146=FACE_BOUND('',#170,.T.);
#147=FACE_BOUND('',#171,.T.);
#148=FACE_BOUND('',#172,.T.);
#149=FACE_BOUND('',#173,.T.);
#150=FACE_BOUND('',#174,.T.);
#151=FACE_BOUND('',#176,.T.);
#152=FACE_BOUND('',#177,.T.);
#153=FACE_BOUND('',#180,.T.);
#154=FACE_BOUND('',#181,.T.);
#155=FACE_BOUND('',#182,.T.);
#156=FACE_BOUND('',#183,.T.);
#157=FACE_BOUND('',#184,.T.);
#158=FACE_BOUND('',#185,.T.);
#159=FACE_BOUND('',#186,.T.);
#160=FACE_BOUND('',#187,.T.);
#161=EDGE_LOOP('',(#188));
#162=EDGE_LOOP('',(#189,#190,#191,#192));
#163=EDGE_LOOP('',(#193,#194,#195,#196));
#164=EDGE_LOOP('',(#197,#198,#199,#200));
#165=EDGE_LOOP('',(#201,#202,#203,#204));
#166=EDGE_LOOP('',(#205,#206));
#167=EDGE_LOOP('',(#207));
#168=EDGE_LOOP('',(#208));
#169=EDGE_LOOP('',(#209));
#170=EDGE_LOOP('',(#210));
#171=EDGE_LOOP('',(#211));
#172=EDGE_LOOP('',(#212));
#173=EDGE_LOOP('',(#213,#214,#215,#216,#217,#218,#219,#220,#221,#222));
#174=EDGE_LOOP('',(#223));
#175=EDGE_LOOP('',(#224,#225));
#176=EDGE_LOOP('',(#226));
#177=EDGE_LOOP('',(#227));
#178=EDGE_LOOP('',(#228));
#179=EDGE_LOOP('',(#229));
#180=EDGE_LOOP('',(#230));
#181=EDGE_LOOP('',(#231));
#182=EDGE_LOOP('',(#232));
#183=EDGE_LOOP('',(#233));
#184=EDGE_LOOP('',(#234));
#185=EDGE_LOOP('',(#235));
#186=EDGE_LOOP('',(#236));
#187=EDGE_LOOP('',(#237));
#188=ORIENTED_EDGE('',*,*,#258,.T.);
#189=ORIENTED_EDGE('',*,*,#259,.T.);
#190=ORIENTED_EDGE('',*,*,#260,.T.);
#191=ORIENTED_EDGE('',*,*,#261,.T.);
#192=ORIENTED_EDGE('',*,*,#262,.T.);
#193=ORIENTED_EDGE('',*,*,#263,.F.);
#194=ORIENTED_EDGE('',*,*,#259,.F.);
#195=ORIENTED_EDGE('',*,*,#264,.F.);
#196=ORIENTED_EDGE('',*,*,#265,.T.);
#197=ORIENTED_EDGE('',*,*,#266,.F.);
#198=ORIENTED_EDGE('',*,*,#265,.F.);
#199=ORIENTED_EDGE('',*,*,#267,.F.);
#200=ORIENTED_EDGE('',*,*,#268,.T.);
#201=ORIENTED_EDGE('',*,*,#269,.F.);
#202=ORIENTED_EDGE('',*,*,#270,.T.);
#203=ORIENTED_EDGE('',*,*,#268,.F.);
#204=ORIENTED_EDGE('',*,*,#271,.T.);
#205=ORIENTED_EDGE('',*,*,#269,.T.);
#206=ORIENTED_EDGE('',*,*,#272,.T.);
#207=ORIENTED_EDGE('',*,*,#273,.F.);
#208=ORIENTED_EDGE('',*,*,#274,.F.);
#209=ORIENTED_EDGE('',*,*,#274,.T.);
#210=ORIENTED_EDGE('',*,*,#275,.F.);
#211=ORIENTED_EDGE('',*,*,#275,.T.);
#212=ORIENTED_EDGE('',*,*,#258,.F.);
#213=ORIENTED_EDGE('',*,*,#263,.T.);
#214=ORIENTED_EDGE('',*,*,#266,.T.);
#215=ORIENTED_EDGE('',*,*,#270,.F.);
#216=ORIENTED_EDGE('',*,*,#272,.F.);
#217=ORIENTED_EDGE('',*,*,#271,.F.);
#218=ORIENTED_EDGE('',*,*,#267,.T.);
#219=ORIENTED_EDGE('',*,*,#264,.T.);
#220=ORIENTED_EDGE('',*,*,#262,.F.);
#221=ORIENTED_EDGE('',*,*,#276,.F.);
#222=ORIENTED_EDGE('',*,*,#260,.F.);
#223=ORIENTED_EDGE('',*,*,#277,.T.);
#224=ORIENTED_EDGE('',*,*,#276,.T.);
#225=ORIENTED_EDGE('',*,*,#261,.F.);
#226=ORIENTED_EDGE('',*,*,#278,.T.);
#227=ORIENTED_EDGE('',*,*,#277,.F.);
#228=ORIENTED_EDGE('',*,*,#278,.F.);
#229=ORIENTED_EDGE('',*,*,#279,.F.);
#230=ORIENTED_EDGE('',*,*,#279,.T.);
#231=ORIENTED_EDGE('',*,*,#280,.F.);
#232=ORIENTED_EDGE('',*,*,#280,.T.);
#233=ORIENTED_EDGE('',*,*,#281,.F.);
#234=ORIENTED_EDGE('',*,*,#281,.T.);
#235=ORIENTED_EDGE('',*,*,#282,.F.);
#236=ORIENTED_EDGE('',*,*,#282,.T.);
#237=ORIENTED_EDGE('',*,*,#273,.T.);
#238=VERTEX_POINT('',#405);
#239=VERTEX_POINT('',#407);
#240=VERTEX_POINT('',#408);
#241=VERTEX_POINT('',#410);
#242=VERTEX_POINT('',#429);
#243=VERTEX_POINT('',#439);
#244=VERTEX_POINT('',#447);
#245=VERTEX_POINT('',#454);
#246=VERTEX_POINT('',#459);
#247=VERTEX_POINT('',#463);
#248=VERTEX_POINT('',#464);
#249=VERTEX_POINT('',#495);
#250=VERTEX_POINT('',#497);
#251=VERTEX_POINT('',#500);
#252=VERTEX_POINT('',#505);
#253=VERTEX_POINT('',#509);
#254=VERTEX_POINT('',#513);
#255=VERTEX_POINT('',#516);
#256=VERTEX_POINT('',#519);
#257=VERTEX_POINT('',#522);
#258=EDGE_CURVE('',#238,#238,#283,.T.);
#259=EDGE_CURVE('',#239,#240,#284,.T.);
#260=EDGE_CURVE('',#240,#241,#138,.T.);
#261=EDGE_CURVE('',#241,#242,#131,.T.);
#262=EDGE_CURVE('',#242,#239,#139,.T.);
#263=EDGE_CURVE('',#240,#243,#132,.T.);
#264=EDGE_CURVE('',#244,#239,#133,.T.);
#265=EDGE_CURVE('',#244,#243,#285,.T.);
#266=EDGE_CURVE('',#243,#245,#134,.T.);
#267=EDGE_CURVE('',#246,#244,#135,.T.);
#268=EDGE_CURVE('',#246,#245,#286,.T.);
#269=EDGE_CURVE('',#247,#248,#287,.T.);
#270=EDGE_CURVE('',#247,#245,#136,.T.);
#271=EDGE_CURVE('',#246,#248,#137,.T.);
#272=EDGE_CURVE('',#248,#247,#93,.T.);
#273=EDGE_CURVE('',#249,#249,#288,.T.);
#274=EDGE_CURVE('',#250,#250,#289,.T.);
#275=EDGE_CURVE('',#251,#251,#290,.T.);
#276=EDGE_CURVE('',#241,#242,#291,.T.);
#277=EDGE_CURVE('',#252,#252,#140,.T.);
#278=EDGE_CURVE('',#253,#253,#292,.T.);
#279=EDGE_CURVE('',#254,#254,#293,.T.);
#280=EDGE_CURVE('',#255,#255,#294,.T.);
#281=EDGE_CURVE('',#256,#256,#295,.T.);
#282=EDGE_CURVE('',#257,#257,#296,.T.);
#283=CIRCLE('',#298,36.);
#284=CIRCLE('',#299,35.9999999999996);
#285=CIRCLE('',#303,35.7990381056761);
#286=CIRCLE('',#305,32.933012701892);
#287=CIRCLE('',#307,31.6339745962156);
#288=CIRCLE('',#310,16.);
#289=CIRCLE('',#311,34.9950564355557);
#290=CIRCLE('',#313,35.9912511336474);
#291=CIRCLE('',#316,49.4815510534123);
#292=CIRCLE('',#320,16.);
#293=CIRCLE('',#323,14.7499999999702);
#294=CIRCLE('',#325,15.7499999999702);
#295=CIRCLE('',#327,15.7499999999702);
#296=CIRCLE('',#329,15.9999999999702);
#297=AXIS2_PLACEMENT_3D('',#403,#332,#333);
#298=AXIS2_PLACEMENT_3D('',#404,#334,#335);
#299=AXIS2_PLACEMENT_3D('',#406,#336,#337);
#300=AXIS2_PLACEMENT_3D('',#409,#338,#339);
#301=AXIS2_PLACEMENT_3D('',#430,#340,#341);
#302=AXIS2_PLACEMENT_3D('',#431,#342,#343);
#303=AXIS2_PLACEMENT_3D('',#448,#344,#345);
#304=AXIS2_PLACEMENT_3D('',#449,#346,#347);
#305=AXIS2_PLACEMENT_3D('',#460,#348,#349);
#306=AXIS2_PLACEMENT_3D('',#461,#350,#351);
#307=AXIS2_PLACEMENT_3D('',#462,#352,#353);
#308=AXIS2_PLACEMENT_3D('',#491,#354,#355);
#309=AXIS2_PLACEMENT_3D('',#493,#357,#358);
#310=AXIS2_PLACEMENT_3D('',#494,#359,#360);
#311=AXIS2_PLACEMENT_3D('',#496,#361,#362);
#312=AXIS2_PLACEMENT_3D('',#498,#363,#364);
#313=AXIS2_PLACEMENT_3D('',#499,#365,#366);
#314=AXIS2_PLACEMENT_3D('',#501,#367,#368);
#315=AXIS2_PLACEMENT_3D('',#502,#369,#370);
#316=AXIS2_PLACEMENT_3D('',#503,#371,#372);
#317=AXIS2_PLACEMENT_3D('',#504,#373,#374);
#318=AXIS2_PLACEMENT_3D('',#506,#375,#376);
#319=AXIS2_PLACEMENT_3D('',#507,#377,#378);
#320=AXIS2_PLACEMENT_3D('',#508,#379,#380);
#321=AXIS2_PLACEMENT_3D('',#510,#381,#382);
#322=AXIS2_PLACEMENT_3D('',#511,#383,#384);
#323=AXIS2_PLACEMENT_3D('',#512,#385,#386);
#324=AXIS2_PLACEMENT_3D('',#514,#387,#388);
#325=AXIS2_PLACEMENT_3D('',#515,#389,#390);
#326=AXIS2_PLACEMENT_3D('',#517,#391,#392);
#327=AXIS2_PLACEMENT_3D('',#518,#393,#394);
#328=AXIS2_PLACEMENT_3D('',#520,#395,#396);
#329=AXIS2_PLACEMENT_3D('',#521,#397,#398);
#330=AXIS2_PLACEMENT_3D('',#523,#399,#400);
#331=AXIS2_PLACEMENT_3D('',#524,#401,#402);
#332=DIRECTION('',(0.,0.,1.));
#333=DIRECTION('',(1.,0.,0.));
#334=DIRECTION('',(-1.,0.,0.));
#335=DIRECTION('',(0.,0.,1.));
#336=DIRECTION('',(1.,0.,0.));
#337=DIRECTION('',(0.,0.,-1.));
#338=DIRECTION('',(0.139173100960065,0.,-0.990268068741569));
#339=DIRECTION('',(-0.99026806874157,0.,-0.139173100960065));
#340=DIRECTION('',(0.139173100960065,0.,-0.990268068741569));
#341=DIRECTION('',(-0.99026806874157,0.,-0.139173100960065));
#342=DIRECTION('',(-1.,0.,0.));
#343=DIRECTION('',(0.,0.,1.));
#344=DIRECTION('',(1.,0.,0.));
#345=DIRECTION('',(0.,0.,-1.));
#346=DIRECTION('',(1.,0.,0.));
#347=DIRECTION('',(0.,0.,-1.));
#348=DIRECTION('',(1.,0.,0.));
#349=DIRECTION('',(0.,0.,1.));
#350=DIRECTION('',(1.,0.,0.));
#351=DIRECTION('',(8.41296175292742E-17,0.,-1.));
#352=DIRECTION('',(-1.,0.,0.));
#353=DIRECTION('',(0.,0.,1.));
#354=DIRECTION('',(-1.,0.,0.));
#355=DIRECTION('',(0.,0.,1.));
#356=DIRECTION('',(0.,1.,0.));
#357=DIRECTION('',(-1.,0.,0.));
#358=DIRECTION('',(0.,0.,1.));
#359=DIRECTION('',(1.,0.,0.));
#360=DIRECTION('',(0.,0.,-1.));
#361=DIRECTION('',(-1.,0.,0.));
#362=DIRECTION('',(0.,0.,1.));
#363=DIRECTION('',(1.,0.,0.));
#364=DIRECTION('',(0.,0.,-1.));
#365=DIRECTION('',(-1.,0.,0.));
#366=DIRECTION('',(0.,0.,1.));
#367=DIRECTION('',(-1.,0.,0.));
#368=DIRECTION('',(0.,0.,1.));
#369=DIRECTION('',(-1.,0.,0.));
#370=DIRECTION('',(1.1238106731066E-16,0.,1.));
#371=DIRECTION('',(0.139173100960065,0.,-0.99026806874157));
#372=DIRECTION('',(0.99026806874157,0.,0.139173100960065));
#373=DIRECTION('',(0.139173100960065,0.,-0.990268068741569));
#374=DIRECTION('',(0.99026806874157,0.,0.139173100960065));
#375=DIRECTION('',(-0.139173100960065,0.,0.99026806874157));
#376=DIRECTION('',(0.99026806874157,0.,0.139173100960065));
#377=DIRECTION('',(-0.139173100960065,0.,0.99026806874157));
#378=DIRECTION('',(0.99026806874157,0.,0.139173100960065));
#379=DIRECTION('',(0.,0.,-1.));
#380=DIRECTION('',(-1.,0.,0.));
#381=DIRECTION('',(0.,0.,1.));
#382=DIRECTION('',(1.,0.,0.));
#383=DIRECTION('',(0.,0.,-1.));
#384=DIRECTION('',(-1.,0.,0.));
#385=DIRECTION('',(-1.,0.,0.));
#386=DIRECTION('',(0.,0.,1.));
#387=DIRECTION('',(1.,0.,0.));
#388=DIRECTION('',(0.,0.,-1.));
#389=DIRECTION('',(-1.,0.,0.));
#390=DIRECTION('',(0.,0.,1.));
#391=DIRECTION('',(-1.,0.,0.));
#392=DIRECTION('',(0.,0.,1.));
#393=DIRECTION('',(-1.,0.,0.));
#394=DIRECTION('',(0.,0.,1.));
#395=DIRECTION('',(-1.,0.,0.));
#396=DIRECTION('',(0.,0.,1.));
#397=DIRECTION('',(-1.,0.,0.));
#398=DIRECTION('',(0.,0.,1.));
#399=DIRECTION('',(-1.,0.,0.));
#400=DIRECTION('',(0.,0.,1.));
#401=DIRECTION('',(-1.,0.,0.));
#402=DIRECTION('',(0.,0.,1.));
#403=CARTESIAN_POINT('',(0.,0.,0.));
#404=CARTESIAN_POINT('',(75.9871557427476,0.,0.));
#405=CARTESIAN_POINT('',(75.9871557427476,0.,36.));
#406=CARTESIAN_POINT('',(6.46410161513696,0.,0.));
#407=CARTESIAN_POINT('',(6.46410161513696,-29.9942129891531,19.9084702365924));
#408=CARTESIAN_POINT('',(6.46410161513696,29.9942129891531,19.9084702365924));
#409=CARTESIAN_POINT('',(-135.1920247253,0.,0.));
#410=CARTESIAN_POINT('',(41.6645609254478,26.0422835424116,24.8555721699711));
#411=CARTESIAN_POINT('',(41.6645609254477,26.0422835424116,24.855572169971));
#412=CARTESIAN_POINT('',(43.661374273112,24.6815534392623,26.2812693508116));
#413=CARTESIAN_POINT('',(45.5454469860175,23.1481829467761,27.6571314643211));
#414=CARTESIAN_POINT('',(49.0494409247161,19.6405762137125,30.2490175140534));
#415=CARTESIAN_POINT('',(50.6726791173183,17.6533478037207,31.4681133211921));
#416=CARTESIAN_POINT('',(53.4264800317735,13.2727130555476,33.5517202661744));
#417=CARTESIAN_POINT('',(54.5902614631319,10.815515390519,34.4412995171234));
#418=CARTESIAN_POINT('',(56.1839245712533,5.59807200363292,35.6628668986791));
#419=CARTESIAN_POINT('',(56.622486107815,2.77387147229061,36.0010915251839));
#420=CARTESIAN_POINT('',(56.6196431021544,-2.80213166686552,35.9989029287145));
#421=CARTESIAN_POINT('',(56.1790831598013,-5.62368617797548,35.6591364577268));
#422=CARTESIAN_POINT('',(54.5773607978598,-10.8478774914796,34.4314305986403));
#423=CARTESIAN_POINT('',(53.4106782137368,-13.30280036516,33.5396877889499));
#424=CARTESIAN_POINT('',(50.6535332403201,-17.6787906637202,31.4537043160881));
#425=CARTESIAN_POINT('',(49.0293387225947,-19.6633962782078,30.2340099995439));
#426=CARTESIAN_POINT('',(45.5256817751821,-23.1652405201022,27.642650840543));
#427=CARTESIAN_POINT('',(43.6480859823082,-24.6906087559935,26.271781694512));
#428=CARTESIAN_POINT('',(41.6645609254478,-26.0422835424116,24.8555721699711));
#429=CARTESIAN_POINT('',(41.6645609254478,-26.0422835424115,24.8555721699711));
#430=CARTESIAN_POINT('',(-135.1920247253,0.,0.));
#431=CARTESIAN_POINT('',(0.,0.,0.));
#432=CARTESIAN_POINT('',(6.46410161513696,29.9942129891531,19.9084702365924));
#433=CARTESIAN_POINT('',(6.33742435830991,30.0060298357571,19.8906669091802));
#434=CARTESIAN_POINT('',(6.20741571399036,29.9982728713687,19.872395385789));
#435=CARTESIAN_POINT('',(6.0831623689711,29.9707068564786,19.8549327169654));
#436=CARTESIAN_POINT('',(5.953911797032,29.9420321902949,19.8367677336993));
#437=CARTESIAN_POINT('',(5.82788207553156,29.8912101776071,19.8190554114423));
#438=CARTESIAN_POINT('',(5.7141016151369,29.8229737169421,19.8030646105657));
#439=CARTESIAN_POINT('',(5.7141016151369,29.8229737169421,19.8030646105657));
#440=CARTESIAN_POINT('',(5.7141016151369,-29.8229737169421,19.8030646105657));
#441=CARTESIAN_POINT('',(5.82170181125336,-29.8875037471809,19.818186831942));
#442=CARTESIAN_POINT('',(5.94014966886217,-29.9364750975091,19.834833592719));
#443=CARTESIAN_POINT('',(6.06188234807427,-29.9657849188166,19.8519420050661));
#444=CARTESIAN_POINT('',(6.19261871576074,-29.997262576255,19.8703158033067));
#445=CARTESIAN_POINT('',(6.3302703310927,-30.0066971855588,19.8896614762236));
#446=CARTESIAN_POINT('',(6.46410161513696,-29.9942129891531,19.9084702365924));
#447=CARTESIAN_POINT('',(5.7141016151369,-29.8229737169421,19.8030646105657));
#448=CARTESIAN_POINT('',(5.71410161513691,0.,0.));
#449=CARTESIAN_POINT('',(6.46410161513696,0.,0.));
#450=CARTESIAN_POINT('',(5.7141016151369,29.8229737169421,19.8030646105657));
#451=CARTESIAN_POINT('',(4.05632672140285,28.828772331789,19.5700795432516));
#452=CARTESIAN_POINT('',(2.40127722606565,27.8299100847035,19.3374775057031));
#453=CARTESIAN_POINT('',(0.74999999999994,26.8247423377742,19.1054056260268));
#454=CARTESIAN_POINT('',(0.74999999999994,26.8247423377742,19.1054056260268));
#455=CARTESIAN_POINT('',(0.74999999999994,-26.8247423377742,19.1054056260268));
#456=CARTESIAN_POINT('',(2.40127722606565,-27.8299100847035,19.3374775057031));
#457=CARTESIAN_POINT('',(4.05632672140285,-28.828772331789,19.5700795432516));
#458=CARTESIAN_POINT('',(5.7141016151369,-29.8229737169421,19.8030646105657));
#459=CARTESIAN_POINT('',(0.74999999999994,-26.8247423377742,19.1054056260268));
#460=CARTESIAN_POINT('',(0.750000000000064,0.,0.));
#461=CARTESIAN_POINT('',(-56.2916512459835,0.,0.));
#462=CARTESIAN_POINT('',(-2.47445389227747E-15,0.,0.));
#463=CARTESIAN_POINT('',(-2.47445389227747E-15,25.2924563606229,19.));
#464=CARTESIAN_POINT('',(-2.47445389227747E-15,-25.2924563606229,19.));
#465=CARTESIAN_POINT('',(-2.47445389227747E-15,25.2924563606229,19.));
#466=CARTESIAN_POINT('',(-2.27974670806548E-15,25.3766371480401,19.));
#467=CARTESIAN_POINT('',(0.00453662441856733,25.4609554909931,19.0006375809825));
#468=CARTESIAN_POINT('',(0.0138171839310746,25.5446129771682,19.0019418785629));
#469=CARTESIAN_POINT('',(0.0377292932609579,25.7601632306835,19.0053025063676));
#470=CARTESIAN_POINT('',(0.0941327622114818,25.9755046616299,19.013229496974));
#471=CARTESIAN_POINT('',(0.185567892109354,26.1717684626916,19.026079866451));
#472=CARTESIAN_POINT('',(0.259119377350642,26.3296453540277,19.0364168535804));
#473=CARTESIAN_POINT('',(0.357404187527591,26.478827099644,19.0502298828413));
#474=CARTESIAN_POINT('',(0.477428546351243,26.6043316814363,19.0670982064149));
#475=CARTESIAN_POINT('',(0.558286851612122,26.6888819167857,19.0784621001289));
#476=CARTESIAN_POINT('',(0.650313333129467,26.764060932644,19.0913955786561));
#477=CARTESIAN_POINT('',(0.74999999999994,26.8247423377742,19.1054056260268));
#478=CARTESIAN_POINT('',(0.74999999999994,-26.8247423377742,19.1054056260268));
#479=CARTESIAN_POINT('',(0.625077637140905,-26.7486994250313,19.0878489328776));
#480=CARTESIAN_POINT('',(0.512120685615309,-26.6495954924717,19.0719738686247));
#481=CARTESIAN_POINT('',(0.417410248241619,-26.5375726486361,19.0586631847012));
#482=CARTESIAN_POINT('',(0.313956094016625,-26.4152077975778,19.044123651513));
#483=CARTESIAN_POINT('',(0.229469964868448,-26.2747035313761,19.0322499004017));
#484=CARTESIAN_POINT('',(0.165582915354804,-26.1273090132559,19.0232711611364));
#485=CARTESIAN_POINT('',(0.0927294697771138,-25.9592280236646,19.013032277084));
#486=CARTESIAN_POINT('',(0.0448000803402382,-25.778601188023,19.0062962406858));
#487=CARTESIAN_POINT('',(0.0202363785727906,-25.5968090397051,19.002844037536));
#488=CARTESIAN_POINT('',(0.00662363527237217,-25.4960632371174,19.00093089123));
#489=CARTESIAN_POINT('',(-2.23927322636308E-15,-25.394135678323,19.));
#490=CARTESIAN_POINT('',(-2.47445389227747E-15,-25.2924563606229,19.));
#491=CARTESIAN_POINT('',(1.5,0.,0.));
#492=CARTESIAN_POINT('',(-1.4210854715202E-14,0.,19.));
#493=CARTESIAN_POINT('',(-1.4210854715202E-14,0.,0.));
#494=CARTESIAN_POINT('',(77.,0.,0.));
#495=CARTESIAN_POINT('',(77.,0.,-16.));
#496=CARTESIAN_POINT('',(77.,0.,0.));
#497=CARTESIAN_POINT('',(77.,0.,34.9950564355557));
#498=CARTESIAN_POINT('',(77.,34.9950564355557,0.));
#499=CARTESIAN_POINT('',(76.0871557427477,0.,0.));
#500=CARTESIAN_POINT('',(76.0871557427477,0.,35.9912511336474));
#501=CARTESIAN_POINT('',(76.,0.,0.));
#502=CARTESIAN_POINT('',(75.9871557427476,0.,0.));
#503=CARTESIAN_POINT('',(-4.92628253051915E-16,0.,19.));
#504=CARTESIAN_POINT('',(23.,0.,22.232439198155));
#505=CARTESIAN_POINT('',(39.,0.,24.4810925533933));
#506=CARTESIAN_POINT('',(-5.28398553454079E-16,0.,19.));
#507=CARTESIAN_POINT('',(-4.92628253051915E-16,0.,19.));
#508=CARTESIAN_POINT('',(23.,0.,15.5));
#509=CARTESIAN_POINT('',(7.,0.,15.5));
#510=CARTESIAN_POINT('',(23.,0.,26.5));
#511=CARTESIAN_POINT('',(39.,0.,15.5));
#512=CARTESIAN_POINT('',(137.,0.,0.));
#513=CARTESIAN_POINT('',(137.,0.,14.7499999999702));
#514=CARTESIAN_POINT('',(137.,14.7499999999702,0.));
#515=CARTESIAN_POINT('',(136.,0.,0.));
#516=CARTESIAN_POINT('',(136.,0.,15.7499999999702));
#517=CARTESIAN_POINT('',(136.,0.,0.));
#518=CARTESIAN_POINT('',(134.686869354864,0.,0.));
#519=CARTESIAN_POINT('',(134.686869354864,0.,15.7499999999702));
#520=CARTESIAN_POINT('',(0.,0.,0.));
#521=CARTESIAN_POINT('',(134.,0.,0.));
#522=CARTESIAN_POINT('',(134.,0.,15.9999999999702));
#523=CARTESIAN_POINT('',(134.,0.,0.));
#524=CARTESIAN_POINT('',(0.,0.,0.));
#525=(
GEOMETRIC_REPRESENTATION_CONTEXT(3)
GLOBAL_UNCERTAINTY_ASSIGNED_CONTEXT((#526))
GLOBAL_UNIT_ASSIGNED_CONTEXT((#532,#528,#527))
REPRESENTATION_CONTEXT('ABHF-D78X170-WA32','TOP_LEVEL_ASSEMBLY_PART')
);
#526=UNCERTAINTY_MEASURE_WITH_UNIT(LENGTH_MEASURE(0.0508),#532,
'DISTANCE_ACCURACY_VALUE','Maximum Tolerance applied to model');
#527=(
NAMED_UNIT(*)
SI_UNIT($,.STERADIAN.)
SOLID_ANGLE_UNIT()
);
#528=(
CONVERSION_BASED_UNIT('DEGREE',#530)
NAMED_UNIT(#529)
PLANE_ANGLE_UNIT()
);
#529=DIMENSIONAL_EXPONENTS(0.,0.,0.,0.,0.,0.,0.);
#530=PLANE_ANGLE_MEASURE_WITH_UNIT(PLANE_ANGLE_MEASURE(0.0174532925),#531);
#531=(
NAMED_UNIT(*)
PLANE_ANGLE_UNIT()
SI_UNIT($,.RADIAN.)
);
#532=(
LENGTH_UNIT()
NAMED_UNIT(*)
SI_UNIT(.MILLI.,.METRE.)
);
ENDSEC;
END-ISO-10303-21;
