ISO-10303-21;
HEADER;
/* Generated by software containing ST-Developer
 * from STEP Tools, Inc. (www.steptools.com) 
 */
/* OPTION: using custom schema-name function */

FILE_DESCRIPTION(
/* description */ (''),
/* implementation_level */ '2;1');

FILE_NAME(
/* name */ 'ACM15-TC16-D22X29-W16-L100-Z01.stp',
/* time_stamp */ '2023-10-09T04:43:41+03:00',
/* author */ (''),
/* organization */ (''),
/* preprocessor_version */ 'ST-DEVELOPER v19.4',
/* originating_system */ 'SIEMENS PLM Software NX2306.3001',
/* authorisation */ '');

FILE_SCHEMA (('AUTOMOTIVE_DESIGN { 1 0 10303 214 3 1 1 1 }'));
ENDSEC;

DATA;
#10=SHAPE_REPRESENTATION_RELATIONSHIP('None',
'relationship between ACM15-TC16-D22X29-W16-L100-Z01-None and ACM15-TC
16-D22X29-W16-L100-Z01-None',#22,#11);
#11=ADVANCED_BREP_SHAPE_REPRESENTATION(
'ACM15-TC16-D22X29-W16-L100-Z01-None',(#151,#152),#589);
#12=SHAPE_DEFINITION_REPRESENTATION(#13,#22);
#13=PRODUCT_DEFINITION_SHAPE('','',#14);
#14=PRODUCT_DEFINITION(' ','',#16,#15);
#15=PRODUCT_DEFINITION_CONTEXT('part definition',#21,'design');
#16=PRODUCT_DEFINITION_FORMATION_WITH_SPECIFIED_SOURCE(' ',' ',#18,
 .NOT_KNOWN.);
#17=PRODUCT_RELATED_PRODUCT_CATEGORY('part','',(#18));
#18=PRODUCT('ACM15-TC16-D22X29-W16-L100-Z01',
'ACM15-TC16-D22X29-W16-L100-Z01',' ',(#19));
#19=PRODUCT_CONTEXT(' ',#21,'mechanical');
#20=APPLICATION_PROTOCOL_DEFINITION('international standard',
'automotive_design',2010,#21);
#21=APPLICATION_CONTEXT(
'core data for automotive mechanical design processes');
#22=SHAPE_REPRESENTATION('ACM15-TC16-D22X29-W16-L100-Z01-None',(#386),#589);
#23=DRAUGHTING_PRE_DEFINED_COLOUR('yellow');
#24=(
BOUNDED_CURVE()
B_SPLINE_CURVE(3,(#579,#580,#581,#582,#583,#584,#585),.UNSPECIFIED.,.F.,
 .F.)
B_SPLINE_CURVE_WITH_KNOTS((4,3,4),(0.,0.5,1.),.UNSPECIFIED.)
CURVE()
GEOMETRIC_REPRESENTATION_ITEM()
RATIONAL_B_SPLINE_CURVE((1.,0.602728705739322,0.602728705739322,1.,0.602728705739322,
0.602728705739322,1.))
REPRESENTATION_ITEM('')
);
#25=LINE('',#575,#27);
#26=LINE('',#587,#28);
#27=VECTOR('',#501,15.1121432960385);
#28=VECTOR('',#506,15.1121432960385);
#29=OVER_RIDING_STYLED_ITEM('',(#48),#219,#45);
#30=OVER_RIDING_STYLED_ITEM('',(#49),#220,#45);
#31=OVER_RIDING_STYLED_ITEM('',(#50),#221,#45);
#32=OVER_RIDING_STYLED_ITEM('',(#51),#222,#45);
#33=OVER_RIDING_STYLED_ITEM('',(#52),#223,#45);
#34=OVER_RIDING_STYLED_ITEM('',(#53),#224,#45);
#35=OVER_RIDING_STYLED_ITEM('',(#54),#225,#45);
#36=OVER_RIDING_STYLED_ITEM('',(#55),#226,#45);
#37=OVER_RIDING_STYLED_ITEM('',(#56),#227,#45);
#38=OVER_RIDING_STYLED_ITEM('',(#57),#228,#45);
#39=OVER_RIDING_STYLED_ITEM('',(#58),#229,#45);
#40=OVER_RIDING_STYLED_ITEM('',(#59),#230,#45);
#41=OVER_RIDING_STYLED_ITEM('',(#60),#231,#45);
#42=OVER_RIDING_STYLED_ITEM('',(#61),#232,#45);
#43=OVER_RIDING_STYLED_ITEM('',(#62),#233,#45);
#44=PRESENTATION_LAYER_ASSIGNMENT('1','Layer 1',(#151,#152));
#45=STYLED_ITEM('',(#47),#151);
#46=STYLED_ITEM('',(#63),#152);
#47=PRESENTATION_STYLE_ASSIGNMENT((#64));
#48=PRESENTATION_STYLE_ASSIGNMENT((#65));
#49=PRESENTATION_STYLE_ASSIGNMENT((#66));
#50=PRESENTATION_STYLE_ASSIGNMENT((#67));
#51=PRESENTATION_STYLE_ASSIGNMENT((#68));
#52=PRESENTATION_STYLE_ASSIGNMENT((#69));
#53=PRESENTATION_STYLE_ASSIGNMENT((#70));
#54=PRESENTATION_STYLE_ASSIGNMENT((#71));
#55=PRESENTATION_STYLE_ASSIGNMENT((#72));
#56=PRESENTATION_STYLE_ASSIGNMENT((#73));
#57=PRESENTATION_STYLE_ASSIGNMENT((#74));
#58=PRESENTATION_STYLE_ASSIGNMENT((#75));
#59=PRESENTATION_STYLE_ASSIGNMENT((#76));
#60=PRESENTATION_STYLE_ASSIGNMENT((#77));
#61=PRESENTATION_STYLE_ASSIGNMENT((#78));
#62=PRESENTATION_STYLE_ASSIGNMENT((#79));
#63=PRESENTATION_STYLE_ASSIGNMENT((#80));
#64=SURFACE_STYLE_USAGE(.BOTH.,#81);
#65=SURFACE_STYLE_USAGE(.BOTH.,#82);
#66=SURFACE_STYLE_USAGE(.BOTH.,#83);
#67=SURFACE_STYLE_USAGE(.BOTH.,#84);
#68=SURFACE_STYLE_USAGE(.BOTH.,#85);
#69=SURFACE_STYLE_USAGE(.BOTH.,#86);
#70=SURFACE_STYLE_USAGE(.BOTH.,#87);
#71=SURFACE_STYLE_USAGE(.BOTH.,#88);
#72=SURFACE_STYLE_USAGE(.BOTH.,#89);
#73=SURFACE_STYLE_USAGE(.BOTH.,#90);
#74=SURFACE_STYLE_USAGE(.BOTH.,#91);
#75=SURFACE_STYLE_USAGE(.BOTH.,#92);
#76=SURFACE_STYLE_USAGE(.BOTH.,#93);
#77=SURFACE_STYLE_USAGE(.BOTH.,#94);
#78=SURFACE_STYLE_USAGE(.BOTH.,#95);
#79=SURFACE_STYLE_USAGE(.BOTH.,#96);
#80=SURFACE_STYLE_USAGE(.BOTH.,#97);
#81=SURFACE_SIDE_STYLE('',(#98));
#82=SURFACE_SIDE_STYLE('',(#99));
#83=SURFACE_SIDE_STYLE('',(#100));
#84=SURFACE_SIDE_STYLE('',(#101));
#85=SURFACE_SIDE_STYLE('',(#102));
#86=SURFACE_SIDE_STYLE('',(#103));
#87=SURFACE_SIDE_STYLE('',(#104));
#88=SURFACE_SIDE_STYLE('',(#105));
#89=SURFACE_SIDE_STYLE('',(#106));
#90=SURFACE_SIDE_STYLE('',(#107));
#91=SURFACE_SIDE_STYLE('',(#108));
#92=SURFACE_SIDE_STYLE('',(#109));
#93=SURFACE_SIDE_STYLE('',(#110));
#94=SURFACE_SIDE_STYLE('',(#111));
#95=SURFACE_SIDE_STYLE('',(#112));
#96=SURFACE_SIDE_STYLE('',(#113));
#97=SURFACE_SIDE_STYLE('',(#114));
#98=SURFACE_STYLE_FILL_AREA(#115);
#99=SURFACE_STYLE_FILL_AREA(#116);
#100=SURFACE_STYLE_FILL_AREA(#117);
#101=SURFACE_STYLE_FILL_AREA(#118);
#102=SURFACE_STYLE_FILL_AREA(#119);
#103=SURFACE_STYLE_FILL_AREA(#120);
#104=SURFACE_STYLE_FILL_AREA(#121);
#105=SURFACE_STYLE_FILL_AREA(#122);
#106=SURFACE_STYLE_FILL_AREA(#123);
#107=SURFACE_STYLE_FILL_AREA(#124);
#108=SURFACE_STYLE_FILL_AREA(#125);
#109=SURFACE_STYLE_FILL_AREA(#126);
#110=SURFACE_STYLE_FILL_AREA(#127);
#111=SURFACE_STYLE_FILL_AREA(#128);
#112=SURFACE_STYLE_FILL_AREA(#129);
#113=SURFACE_STYLE_FILL_AREA(#130);
#114=SURFACE_STYLE_FILL_AREA(#131);
#115=FILL_AREA_STYLE('',(#132));
#116=FILL_AREA_STYLE('',(#133));
#117=FILL_AREA_STYLE('',(#134));
#118=FILL_AREA_STYLE('',(#135));
#119=FILL_AREA_STYLE('',(#136));
#120=FILL_AREA_STYLE('',(#137));
#121=FILL_AREA_STYLE('',(#138));
#122=FILL_AREA_STYLE('',(#139));
#123=FILL_AREA_STYLE('',(#140));
#124=FILL_AREA_STYLE('',(#141));
#125=FILL_AREA_STYLE('',(#142));
#126=FILL_AREA_STYLE('',(#143));
#127=FILL_AREA_STYLE('',(#144));
#128=FILL_AREA_STYLE('',(#145));
#129=FILL_AREA_STYLE('',(#146));
#130=FILL_AREA_STYLE('',(#147));
#131=FILL_AREA_STYLE('',(#148));
#132=FILL_AREA_STYLE_COLOUR('',#149);
#133=FILL_AREA_STYLE_COLOUR('',#150);
#134=FILL_AREA_STYLE_COLOUR('',#150);
#135=FILL_AREA_STYLE_COLOUR('',#150);
#136=FILL_AREA_STYLE_COLOUR('',#150);
#137=FILL_AREA_STYLE_COLOUR('',#150);
#138=FILL_AREA_STYLE_COLOUR('',#150);
#139=FILL_AREA_STYLE_COLOUR('',#150);
#140=FILL_AREA_STYLE_COLOUR('',#150);
#141=FILL_AREA_STYLE_COLOUR('',#150);
#142=FILL_AREA_STYLE_COLOUR('',#150);
#143=FILL_AREA_STYLE_COLOUR('',#150);
#144=FILL_AREA_STYLE_COLOUR('',#150);
#145=FILL_AREA_STYLE_COLOUR('',#150);
#146=FILL_AREA_STYLE_COLOUR('',#150);
#147=FILL_AREA_STYLE_COLOUR('',#150);
#148=FILL_AREA_STYLE_COLOUR('',#23);
#149=COLOUR_RGB('Medium Steel',0.611764705882353,0.658823529411765,0.670588235294118);
#150=COLOUR_RGB('silver gray',0.6,0.6,0.6);
#151=MANIFOLD_SOLID_BREP('',#153);
#152=MANIFOLD_SOLID_BREP('',#154);
#153=CLOSED_SHELL('',(#219,#220,#221,#222,#223,#224,#225,#226,#227,#228,
#229,#230,#231,#232,#233));
#154=CLOSED_SHELL('',(#234,#235,#236,#237,#238,#239));
#155=CONICAL_SURFACE('',#399,8.15192378864669,30.);
#156=CONICAL_SURFACE('',#405,8.,30.);
#157=CONICAL_SURFACE('',#409,7.75,14.9999999999998);
#158=CONICAL_SURFACE('',#419,10.9999999944336,15.);
#159=CYLINDRICAL_SURFACE('',#395,13.7500000000004);
#160=CYLINDRICAL_SURFACE('',#403,7.75);
#161=CYLINDRICAL_SURFACE('',#407,8.);
#162=CYLINDRICAL_SURFACE('',#411,7.75);
#163=SURFACE_OF_REVOLUTION('',#175,#169);
#164=SURFACE_OF_REVOLUTION('',#380,#170);
#165=SURFACE_OF_REVOLUTION('',#383,#171);
#166=SURFACE_OF_REVOLUTION('',#25,#172);
#167=SURFACE_OF_REVOLUTION('',#24,#173);
#168=SURFACE_OF_REVOLUTION('',#26,#174);
#169=AXIS1_PLACEMENT('',#525,#436);
#170=AXIS1_PLACEMENT('',#565,#489);
#171=AXIS1_PLACEMENT('',#572,#498);
#172=AXIS1_PLACEMENT('',#576,#502);
#173=AXIS1_PLACEMENT('',#586,#505);
#174=AXIS1_PLACEMENT('',#588,#507);
#175=B_SPLINE_CURVE_WITH_KNOTS('',3,(#517,#518,#519,#520,#521,#522,#523,
#524),.UNSPECIFIED.,.F.,.F.,(4,2,2,4),(0.,0.405360885953796,0.702679496486067,
1.),.UNSPECIFIED.);
#176=TOROIDAL_SURFACE('',#390,9.9333505141605,0.799999999997369);
#177=TOROIDAL_SURFACE('',#393,10.7500000000017,2.99999999999914);
#178=TOROIDAL_SURFACE('',#397,12.25,1.5);
#179=TOROIDAL_SURFACE('',#401,10.75,3.);
#180=TOROIDAL_SURFACE('',#413,6.75,1.);
#181=FACE_BOUND('',#245,.T.);
#182=FACE_BOUND('',#246,.T.);
#183=FACE_BOUND('',#247,.T.);
#184=FACE_BOUND('',#248,.T.);
#185=FACE_BOUND('',#249,.T.);
#186=FACE_BOUND('',#250,.T.);
#187=FACE_BOUND('',#251,.T.);
#188=FACE_BOUND('',#252,.T.);
#189=FACE_BOUND('',#253,.T.);
#190=FACE_BOUND('',#254,.T.);
#191=FACE_BOUND('',#255,.T.);
#192=FACE_BOUND('',#256,.T.);
#193=FACE_BOUND('',#257,.T.);
#194=FACE_BOUND('',#258,.T.);
#195=FACE_BOUND('',#259,.T.);
#196=FACE_BOUND('',#260,.T.);
#197=FACE_BOUND('',#261,.T.);
#198=FACE_BOUND('',#262,.T.);
#199=FACE_BOUND('',#263,.T.);
#200=FACE_BOUND('',#264,.T.);
#201=FACE_BOUND('',#265,.T.);
#202=FACE_BOUND('',#266,.T.);
#203=FACE_BOUND('',#267,.T.);
#204=FACE_BOUND('',#268,.T.);
#205=FACE_BOUND('',#269,.T.);
#206=FACE_BOUND('',#270,.T.);
#207=FACE_BOUND('',#272,.T.);
#208=FACE_BOUND('',#273,.T.);
#209=FACE_BOUND('',#274,.T.);
#210=FACE_BOUND('',#275,.T.);
#211=FACE_BOUND('',#276,.T.);
#212=FACE_BOUND('',#277,.T.);
#213=FACE_BOUND('',#278,.T.);
#214=FACE_BOUND('',#279,.T.);
#215=FACE_BOUND('',#280,.T.);
#216=FACE_BOUND('',#281,.T.);
#217=FACE_BOUND('',#282,.T.);
#218=FACE_BOUND('',#283,.T.);
#219=ADVANCED_FACE('',(#242),#240,.F.);
#220=ADVANCED_FACE('',(#181,#182),#176,.T.);
#221=ADVANCED_FACE('',(#183,#184),#163,.T.);
#222=ADVANCED_FACE('',(#185,#186),#177,.T.);
#223=ADVANCED_FACE('',(#187,#188),#159,.T.);
#224=ADVANCED_FACE('',(#189,#190),#178,.T.);
#225=ADVANCED_FACE('',(#191,#192),#155,.T.);
#226=ADVANCED_FACE('',(#193,#194),#179,.F.);
#227=ADVANCED_FACE('',(#195,#196),#160,.T.);
#228=ADVANCED_FACE('',(#197,#198),#156,.T.);
#229=ADVANCED_FACE('',(#199,#200),#161,.T.);
#230=ADVANCED_FACE('',(#201,#202),#157,.T.);
#231=ADVANCED_FACE('',(#203,#204),#162,.T.);
#232=ADVANCED_FACE('',(#205,#206),#180,.T.);
#233=ADVANCED_FACE('',(#243),#241,.F.);
#234=ADVANCED_FACE('',(#207,#208),#164,.T.);
#235=ADVANCED_FACE('',(#209,#210),#158,.T.);
#236=ADVANCED_FACE('',(#211,#212),#165,.T.);
#237=ADVANCED_FACE('',(#213,#214),#166,.T.);
#238=ADVANCED_FACE('',(#215,#216),#167,.T.);
#239=ADVANCED_FACE('',(#217,#218),#168,.T.);
#240=PLANE('',#388);
#241=PLANE('',#414);
#242=FACE_OUTER_BOUND('',#244,.T.);
#243=FACE_OUTER_BOUND('',#271,.T.);
#244=EDGE_LOOP('',(#284));
#245=EDGE_LOOP('',(#285));
#246=EDGE_LOOP('',(#286));
#247=EDGE_LOOP('',(#287));
#248=EDGE_LOOP('',(#288));
#249=EDGE_LOOP('',(#289));
#250=EDGE_LOOP('',(#290));
#251=EDGE_LOOP('',(#291));
#252=EDGE_LOOP('',(#292));
#253=EDGE_LOOP('',(#293));
#254=EDGE_LOOP('',(#294));
#255=EDGE_LOOP('',(#295));
#256=EDGE_LOOP('',(#296));
#257=EDGE_LOOP('',(#297));
#258=EDGE_LOOP('',(#298));
#259=EDGE_LOOP('',(#299));
#260=EDGE_LOOP('',(#300));
#261=EDGE_LOOP('',(#301));
#262=EDGE_LOOP('',(#302));
#263=EDGE_LOOP('',(#303));
#264=EDGE_LOOP('',(#304));
#265=EDGE_LOOP('',(#305));
#266=EDGE_LOOP('',(#306));
#267=EDGE_LOOP('',(#307));
#268=EDGE_LOOP('',(#308));
#269=EDGE_LOOP('',(#309));
#270=EDGE_LOOP('',(#310));
#271=EDGE_LOOP('',(#311));
#272=EDGE_LOOP('',(#312));
#273=EDGE_LOOP('',(#313));
#274=EDGE_LOOP('',(#314));
#275=EDGE_LOOP('',(#315));
#276=EDGE_LOOP('',(#316));
#277=EDGE_LOOP('',(#317));
#278=EDGE_LOOP('',(#318));
#279=EDGE_LOOP('',(#319));
#280=EDGE_LOOP('',(#320));
#281=EDGE_LOOP('',(#321));
#282=EDGE_LOOP('',(#322));
#283=EDGE_LOOP('',(#323));
#284=ORIENTED_EDGE('',*,*,#344,.T.);
#285=ORIENTED_EDGE('',*,*,#344,.F.);
#286=ORIENTED_EDGE('',*,*,#345,.T.);
#287=ORIENTED_EDGE('',*,*,#345,.F.);
#288=ORIENTED_EDGE('',*,*,#346,.T.);
#289=ORIENTED_EDGE('',*,*,#346,.F.);
#290=ORIENTED_EDGE('',*,*,#347,.T.);
#291=ORIENTED_EDGE('',*,*,#347,.F.);
#292=ORIENTED_EDGE('',*,*,#348,.T.);
#293=ORIENTED_EDGE('',*,*,#348,.F.);
#294=ORIENTED_EDGE('',*,*,#349,.T.);
#295=ORIENTED_EDGE('',*,*,#349,.F.);
#296=ORIENTED_EDGE('',*,*,#350,.T.);
#297=ORIENTED_EDGE('',*,*,#350,.F.);
#298=ORIENTED_EDGE('',*,*,#351,.T.);
#299=ORIENTED_EDGE('',*,*,#351,.F.);
#300=ORIENTED_EDGE('',*,*,#352,.T.);
#301=ORIENTED_EDGE('',*,*,#352,.F.);
#302=ORIENTED_EDGE('',*,*,#353,.T.);
#303=ORIENTED_EDGE('',*,*,#353,.F.);
#304=ORIENTED_EDGE('',*,*,#354,.T.);
#305=ORIENTED_EDGE('',*,*,#354,.F.);
#306=ORIENTED_EDGE('',*,*,#355,.T.);
#307=ORIENTED_EDGE('',*,*,#355,.F.);
#308=ORIENTED_EDGE('',*,*,#356,.T.);
#309=ORIENTED_EDGE('',*,*,#356,.F.);
#310=ORIENTED_EDGE('',*,*,#357,.T.);
#311=ORIENTED_EDGE('',*,*,#357,.F.);
#312=ORIENTED_EDGE('',*,*,#358,.F.);
#313=ORIENTED_EDGE('',*,*,#359,.T.);
#314=ORIENTED_EDGE('',*,*,#360,.F.);
#315=ORIENTED_EDGE('',*,*,#358,.T.);
#316=ORIENTED_EDGE('',*,*,#361,.F.);
#317=ORIENTED_EDGE('',*,*,#360,.T.);
#318=ORIENTED_EDGE('',*,*,#362,.F.);
#319=ORIENTED_EDGE('',*,*,#361,.T.);
#320=ORIENTED_EDGE('',*,*,#363,.F.);
#321=ORIENTED_EDGE('',*,*,#362,.T.);
#322=ORIENTED_EDGE('',*,*,#359,.F.);
#323=ORIENTED_EDGE('',*,*,#363,.T.);
#324=VERTEX_POINT('',#510);
#325=VERTEX_POINT('',#513);
#326=VERTEX_POINT('',#516);
#327=VERTEX_POINT('',#527);
#328=VERTEX_POINT('',#530);
#329=VERTEX_POINT('',#533);
#330=VERTEX_POINT('',#536);
#331=VERTEX_POINT('',#539);
#332=VERTEX_POINT('',#542);
#333=VERTEX_POINT('',#545);
#334=VERTEX_POINT('',#548);
#335=VERTEX_POINT('',#551);
#336=VERTEX_POINT('',#554);
#337=VERTEX_POINT('',#557);
#338=VERTEX_POINT('',#561);
#339=VERTEX_POINT('',#563);
#340=VERTEX_POINT('',#567);
#341=VERTEX_POINT('',#570);
#342=VERTEX_POINT('',#574);
#343=VERTEX_POINT('',#578);
#344=EDGE_CURVE('',#324,#324,#364,.T.);
#345=EDGE_CURVE('',#325,#325,#365,.T.);
#346=EDGE_CURVE('',#326,#326,#366,.T.);
#347=EDGE_CURVE('',#327,#327,#367,.T.);
#348=EDGE_CURVE('',#328,#328,#368,.T.);
#349=EDGE_CURVE('',#329,#329,#369,.T.);
#350=EDGE_CURVE('',#330,#330,#370,.T.);
#351=EDGE_CURVE('',#331,#331,#371,.T.);
#352=EDGE_CURVE('',#332,#332,#372,.T.);
#353=EDGE_CURVE('',#333,#333,#373,.T.);
#354=EDGE_CURVE('',#334,#334,#374,.T.);
#355=EDGE_CURVE('',#335,#335,#375,.T.);
#356=EDGE_CURVE('',#336,#336,#376,.T.);
#357=EDGE_CURVE('',#337,#337,#377,.T.);
#358=EDGE_CURVE('',#338,#338,#378,.T.);
#359=EDGE_CURVE('',#339,#339,#379,.T.);
#360=EDGE_CURVE('',#340,#340,#381,.T.);
#361=EDGE_CURVE('',#341,#341,#382,.T.);
#362=EDGE_CURVE('',#342,#342,#384,.T.);
#363=EDGE_CURVE('',#343,#343,#385,.T.);
#364=CIRCLE('',#387,9.9333505141605);
#365=CIRCLE('',#389,10.7093597148382);
#366=CIRCLE('',#391,13.6553124391448);
#367=CIRCLE('',#392,13.7500000000009);
#368=CIRCLE('',#394,13.75);
#369=CIRCLE('',#396,13.5490381056767);
#370=CIRCLE('',#398,8.15192378864669);
#371=CIRCLE('',#400,7.75);
#372=CIRCLE('',#402,7.75);
#373=CIRCLE('',#404,8.);
#374=CIRCLE('',#406,8.);
#375=CIRCLE('',#408,7.75);
#376=CIRCLE('',#410,7.75);
#377=CIRCLE('',#412,6.75);
#378=CIRCLE('',#415,10.9999999944336);
#379=CIRCLE('',#416,10.3401166282433);
#380=CIRCLE('',#417,0.4);
#381=CIRCLE('',#418,14.9113104917667);
#382=CIRCLE('',#420,14.4305934203795);
#383=CIRCLE('',#421,0.4);
#384=CIRCLE('',#422,2.37694155362031);
#385=CIRCLE('',#423,2.38180966389738);
#386=AXIS2_PLACEMENT_3D('',#508,#424,#425);
#387=AXIS2_PLACEMENT_3D('',#509,#426,#427);
#388=AXIS2_PLACEMENT_3D('',#511,#428,#429);
#389=AXIS2_PLACEMENT_3D('',#512,#430,#431);
#390=AXIS2_PLACEMENT_3D('',#514,#432,#433);
#391=AXIS2_PLACEMENT_3D('',#515,#434,#435);
#392=AXIS2_PLACEMENT_3D('',#526,#437,#438);
#393=AXIS2_PLACEMENT_3D('',#528,#439,#440);
#394=AXIS2_PLACEMENT_3D('',#529,#441,#442);
#395=AXIS2_PLACEMENT_3D('',#531,#443,#444);
#396=AXIS2_PLACEMENT_3D('',#532,#445,#446);
#397=AXIS2_PLACEMENT_3D('',#534,#447,#448);
#398=AXIS2_PLACEMENT_3D('',#535,#449,#450);
#399=AXIS2_PLACEMENT_3D('',#537,#451,#452);
#400=AXIS2_PLACEMENT_3D('',#538,#453,#454);
#401=AXIS2_PLACEMENT_3D('',#540,#455,#456);
#402=AXIS2_PLACEMENT_3D('',#541,#457,#458);
#403=AXIS2_PLACEMENT_3D('',#543,#459,#460);
#404=AXIS2_PLACEMENT_3D('',#544,#461,#462);
#405=AXIS2_PLACEMENT_3D('',#546,#463,#464);
#406=AXIS2_PLACEMENT_3D('',#547,#465,#466);
#407=AXIS2_PLACEMENT_3D('',#549,#467,#468);
#408=AXIS2_PLACEMENT_3D('',#550,#469,#470);
#409=AXIS2_PLACEMENT_3D('',#552,#471,#472);
#410=AXIS2_PLACEMENT_3D('',#553,#473,#474);
#411=AXIS2_PLACEMENT_3D('',#555,#475,#476);
#412=AXIS2_PLACEMENT_3D('',#556,#477,#478);
#413=AXIS2_PLACEMENT_3D('',#558,#479,#480);
#414=AXIS2_PLACEMENT_3D('',#559,#481,#482);
#415=AXIS2_PLACEMENT_3D('',#560,#483,#484);
#416=AXIS2_PLACEMENT_3D('',#562,#485,#486);
#417=AXIS2_PLACEMENT_3D('',#564,#487,#488);
#418=AXIS2_PLACEMENT_3D('',#566,#490,#491);
#419=AXIS2_PLACEMENT_3D('',#568,#492,#493);
#420=AXIS2_PLACEMENT_3D('',#569,#494,#495);
#421=AXIS2_PLACEMENT_3D('',#571,#496,#497);
#422=AXIS2_PLACEMENT_3D('',#573,#499,#500);
#423=AXIS2_PLACEMENT_3D('',#577,#503,#504);
#424=DIRECTION('',(0.,0.,1.));
#425=DIRECTION('',(1.,0.,0.));
#426=DIRECTION('',(-1.,0.,0.));
#427=DIRECTION('',(0.,0.,1.));
#428=DIRECTION('',(1.,0.,0.));
#429=DIRECTION('',(0.,0.,-1.));
#430=DIRECTION('',(-1.,0.,0.));
#431=DIRECTION('',(0.,0.,1.));
#432=DIRECTION('',(-1.,0.,0.));
#433=DIRECTION('',(0.,0.,1.));
#434=DIRECTION('',(-1.,0.,0.));
#435=DIRECTION('',(0.,0.,1.));
#436=DIRECTION('',(-1.,0.,0.));
#437=DIRECTION('',(-1.,0.,0.));
#438=DIRECTION('',(0.,0.,1.));
#439=DIRECTION('',(-1.,0.,0.));
#440=DIRECTION('',(0.,0.,1.));
#441=DIRECTION('',(-1.,0.,0.));
#442=DIRECTION('',(0.,0.,1.));
#443=DIRECTION('',(-1.,0.,0.));
#444=DIRECTION('',(0.,0.,1.));
#445=DIRECTION('',(-1.,0.,0.));
#446=DIRECTION('',(0.,0.,1.));
#447=DIRECTION('',(-1.,0.,0.));
#448=DIRECTION('',(0.,0.,1.));
#449=DIRECTION('',(-1.,0.,0.));
#450=DIRECTION('',(0.,0.,1.));
#451=DIRECTION('',(-1.,0.,0.));
#452=DIRECTION('',(-8.88838759332117E-17,0.,1.));
#453=DIRECTION('',(-1.,0.,0.));
#454=DIRECTION('',(0.,0.,1.));
#455=DIRECTION('',(-1.,0.,0.));
#456=DIRECTION('',(0.,0.,1.));
#457=DIRECTION('',(-1.,0.,0.));
#458=DIRECTION('',(0.,0.,1.));
#459=DIRECTION('',(-1.,0.,0.));
#460=DIRECTION('',(0.,0.,1.));
#461=DIRECTION('',(-1.,0.,0.));
#462=DIRECTION('',(0.,0.,1.));
#463=DIRECTION('',(1.,0.,0.));
#464=DIRECTION('',(4.74170374159979E-17,0.,-1.));
#465=DIRECTION('',(-1.,0.,0.));
#466=DIRECTION('',(0.,0.,1.));
#467=DIRECTION('',(-1.,0.,0.));
#468=DIRECTION('',(0.,0.,1.));
#469=DIRECTION('',(-1.,0.,0.));
#470=DIRECTION('',(0.,0.,1.));
#471=DIRECTION('',(-1.,0.,0.));
#472=DIRECTION('',(-1.00673401945359E-16,0.,1.));
#473=DIRECTION('',(-1.,0.,0.));
#474=DIRECTION('',(0.,0.,1.));
#475=DIRECTION('',(-1.,0.,0.));
#476=DIRECTION('',(0.,0.,1.));
#477=DIRECTION('',(-1.,0.,0.));
#478=DIRECTION('',(0.,0.,1.));
#479=DIRECTION('',(-1.,0.,0.));
#480=DIRECTION('',(0.,0.,1.));
#481=DIRECTION('',(-1.,0.,0.));
#482=DIRECTION('',(0.,0.,1.));
#483=DIRECTION('',(1.,0.,0.));
#484=DIRECTION('',(0.,0.,-1.));
#485=DIRECTION('',(1.,0.,0.));
#486=DIRECTION('',(0.,0.,-1.));
#487=DIRECTION('',(-0.0449434555275478,-0.167731259496521,0.984807753012208));
#488=DIRECTION('',(-0.965925826289068,0.25881904510252,-2.77555756156289E-17));
#489=DIRECTION('',(1.,0.,0.));
#490=DIRECTION('',(1.,0.,0.));
#491=DIRECTION('',(0.,0.,-1.));
#492=DIRECTION('',(1.,0.,0.));
#493=DIRECTION('',(-3.88673709021347E-17,0.,-1.));
#494=DIRECTION('',(1.,0.,0.));
#495=DIRECTION('',(0.,0.,-1.));
#496=DIRECTION('',(-0.0449434555275478,-0.167731259496521,0.984807753012208));
#497=DIRECTION('',(0.965925826289068,-0.25881904510252,0.));
#498=DIRECTION('',(1.,0.,0.));
#499=DIRECTION('',(1.,0.,0.));
#500=DIRECTION('',(0.,0.,-1.));
#501=DIRECTION('',(-0.262224294106614,0.953217263993369,0.150383733180436));
#502=DIRECTION('',(1.,0.,0.));
#503=DIRECTION('',(1.,0.,0.));
#504=DIRECTION('',(0.,0.,-1.));
#505=DIRECTION('',(1.,0.,0.));
#506=DIRECTION('',(-0.703701532182454,-0.694398218890848,-0.150383733180436));
#507=DIRECTION('',(1.,0.,0.));
#508=CARTESIAN_POINT('',(0.,0.,0.));
#509=CARTESIAN_POINT('',(1.3,0.,0.));
#510=CARTESIAN_POINT('',(1.3,0.,9.9333505141605));
#511=CARTESIAN_POINT('',(1.3,0.,0.));
#512=CARTESIAN_POINT('',(1.90555278232527,0.,0.));
#513=CARTESIAN_POINT('',(1.90555278232527,0.,10.7093597148382));
#514=CARTESIAN_POINT('',(2.09999999999474,0.,0.));
#515=CARTESIAN_POINT('',(13.4863627794644,0.,0.));
#516=CARTESIAN_POINT('',(13.4863627794644,0.,13.6553124391448));
#517=CARTESIAN_POINT('',(14.7675782034274,13.9853964472051,0.));
#518=CARTESIAN_POINT('',(12.9266766612692,13.5106650624963,0.));
#519=CARTESIAN_POINT('',(11.085314294803,13.0377140393869,0.));
#520=CARTESIAN_POINT('',(7.89228693899496,12.2221318354707,0.));
#521=CARTESIAN_POINT('',(6.54090945531183,11.878367188592,0.));
#522=CARTESIAN_POINT('',(3.83728013237456,11.1942642001209,0.));
#523=CARTESIAN_POINT('',(2.48502688782244,10.8539210029554,0.));
#524=CARTESIAN_POINT('',(1.13221089844843,10.515834008839,0.));
#525=CARTESIAN_POINT('',(0.,0.,0.));
#526=CARTESIAN_POINT('',(14.2341325508248,0.,0.));
#527=CARTESIAN_POINT('',(14.2341325508248,0.,13.7500000000009));
#528=CARTESIAN_POINT('',(14.2341325508248,0.,0.));
#529=CARTESIAN_POINT('',(16.9689110867545,0.,0.));
#530=CARTESIAN_POINT('',(16.9689110867545,0.,13.75));
#531=CARTESIAN_POINT('',(0.,0.,0.));
#532=CARTESIAN_POINT('',(17.7189110867545,0.,0.));
#533=CARTESIAN_POINT('',(17.7189110867545,0.,13.5490381056767));
#534=CARTESIAN_POINT('',(16.9689110867545,0.,0.));
#535=CARTESIAN_POINT('',(27.0669872981078,0.,0.));
#536=CARTESIAN_POINT('',(27.0669872981078,0.,8.15192378864669));
#537=CARTESIAN_POINT('',(27.0669872981078,0.,0.));
#538=CARTESIAN_POINT('',(28.5669872981078,0.,0.));
#539=CARTESIAN_POINT('',(28.5669872981078,0.,7.75));
#540=CARTESIAN_POINT('',(28.5669872981078,0.,0.));
#541=CARTESIAN_POINT('',(29.5669872981078,0.,0.));
#542=CARTESIAN_POINT('',(29.5669872981078,0.,7.75));
#543=CARTESIAN_POINT('',(0.,0.,0.));
#544=CARTESIAN_POINT('',(30.,0.,0.));
#545=CARTESIAN_POINT('',(30.,0.,8.));
#546=CARTESIAN_POINT('',(30.,0.,0.));
#547=CARTESIAN_POINT('',(95.0669872981078,0.,0.));
#548=CARTESIAN_POINT('',(95.0669872981078,0.,8.));
#549=CARTESIAN_POINT('',(0.,0.,0.));
#550=CARTESIAN_POINT('',(96.,0.,0.));
#551=CARTESIAN_POINT('',(96.,0.,7.75));
#552=CARTESIAN_POINT('',(96.,0.,0.));
#553=CARTESIAN_POINT('',(99.,0.,0.));
#554=CARTESIAN_POINT('',(99.,0.,7.75));
#555=CARTESIAN_POINT('',(0.,0.,0.));
#556=CARTESIAN_POINT('',(100.,0.,0.));
#557=CARTESIAN_POINT('',(100.,0.,6.75));
#558=CARTESIAN_POINT('',(99.,0.,0.));
#559=CARTESIAN_POINT('',(100.,6.75,0.));
#560=CARTESIAN_POINT('',(0.297641012990246,0.,0.));
#561=CARTESIAN_POINT('',(0.297641012990246,0.,-10.9999999944336));
#562=CARTESIAN_POINT('',(0.115966692841619,0.,0.));
#563=CARTESIAN_POINT('',(0.115966692841619,0.,-10.3401166282433));
#564=CARTESIAN_POINT('',(0.399595813887918,-10.6194994974079,0.0694592710667726));
#565=CARTESIAN_POINT('',(0.,0.,0.));
#566=CARTESIAN_POINT('',(14.894850513215,0.,0.));
#567=CARTESIAN_POINT('',(14.894850513215,0.,-14.9113104917667));
#568=CARTESIAN_POINT('',(0.297641012990246,0.,0.));
#569=CARTESIAN_POINT('',(15.3823892360566,0.,0.));
#570=CARTESIAN_POINT('',(15.3823892360566,0.,-14.4305934203795));
#571=CARTESIAN_POINT('',(14.9968053141127,-14.5308099947411,0.0694592710667732));
#572=CARTESIAN_POINT('',(0.,0.,0.));
#573=CARTESIAN_POINT('',(11.4196181278149,0.,0.));
#574=CARTESIAN_POINT('',(11.4196181278149,0.,-2.37694155362031));
#575=CARTESIAN_POINT('',(15.3823892360566,-14.430217293445,0.104188906600159));
#576=CARTESIAN_POINT('',(0.,0.,0.));
#577=CARTESIAN_POINT('',(10.7504050848247,0.,0.));
#578=CARTESIAN_POINT('',(10.7504050848247,0.,-2.38180966389738));
#579=CARTESIAN_POINT('',(11.3294403223411,-0.393428584406192,2.30995415728022));
#580=CARTESIAN_POINT('',(11.6016975544907,-0.10055231042938,2.37226143190134));
#581=CARTESIAN_POINT('',(11.4383260333529,0.265613550180495,2.427170605925));
#582=CARTESIAN_POINT('',(11.034034205871,0.268667441347752,2.40924016345771));
#583=CARTESIAN_POINT('',(10.6297423783891,0.271721332515009,2.39130972099041));
#584=CARTESIAN_POINT('',(10.4663708572513,-0.0919764156499943,2.3219094122891));
#585=CARTESIAN_POINT('',(10.7386280894009,-0.388965777747642,2.28375148873336));
#586=CARTESIAN_POINT('',(0.,0.,0.));
#587=CARTESIAN_POINT('',(10.7504050848247,0.154253686714095,2.37680943181613));
#588=CARTESIAN_POINT('',(0.,0.,0.));
#589=(
GEOMETRIC_REPRESENTATION_CONTEXT(3)
GLOBAL_UNCERTAINTY_ASSIGNED_CONTEXT((#590))
GLOBAL_UNIT_ASSIGNED_CONTEXT((#596,#592,#591))
REPRESENTATION_CONTEXT('ACM15-TC16-D22X29-W16-L100-Z01',
'TOP_LEVEL_ASSEMBLY_PART')
);
#590=UNCERTAINTY_MEASURE_WITH_UNIT(LENGTH_MEASURE(2.E-5),#596,
'DISTANCE_ACCURACY_VALUE','Maximum Tolerance applied to model');
#591=(
NAMED_UNIT(*)
SI_UNIT($,.STERADIAN.)
SOLID_ANGLE_UNIT()
);
#592=(
CONVERSION_BASED_UNIT('DEGREE',#594)
NAMED_UNIT(#593)
PLANE_ANGLE_UNIT()
);
#593=DIMENSIONAL_EXPONENTS(0.,0.,0.,0.,0.,0.,0.);
#594=PLANE_ANGLE_MEASURE_WITH_UNIT(PLANE_ANGLE_MEASURE(0.0174532925),#595);
#595=(
NAMED_UNIT(*)
PLANE_ANGLE_UNIT()
SI_UNIT($,.RADIAN.)
);
#596=(
LENGTH_UNIT()
NAMED_UNIT(*)
SI_UNIT(.MILLI.,.METRE.)
);
ENDSEC;
END-ISO-10303-21;
