ISO-10303-21;
HEADER;
/* Generated by software containing ST-Developer
 * from STEP Tools, Inc. (www.steptools.com) 
 */
/* OPTION: using custom schema-name function */

FILE_DESCRIPTION(
/* description */ (''),
/* implementation_level */ '2;1');

FILE_NAME(
/* name */ 'ACM45-SP1104-D12x26-W20-L150-Z01.stp',
/* time_stamp */ '2023-10-09T05:44:26+03:00',
/* author */ (''),
/* organization */ (''),
/* preprocessor_version */ 'ST-DEVELOPER v19.4',
/* originating_system */ 'SIEMENS PLM Software NX2306.3001',
/* authorisation */ '');

FILE_SCHEMA (('AUTOMOTIVE_DESIGN { 1 0 10303 214 3 1 1 1 }'));
ENDSEC;

DATA;
#10=SHAPE_REPRESENTATION_RELATIONSHIP('None',
'relationship between ACM45-SP1104-D12x26-W20-L150-Z01-None and ACM45-
SP1104-D12x26-W20-L150-Z01-None',#22,#11);
#11=ADVANCED_BREP_SHAPE_REPRESENTATION(
'ACM45-SP1104-D12x26-W20-L150-Z01-None',(#147,#148),#617);
#12=SHAPE_DEFINITION_REPRESENTATION(#13,#22);
#13=PRODUCT_DEFINITION_SHAPE('','',#14);
#14=PRODUCT_DEFINITION(' ','',#16,#15);
#15=PRODUCT_DEFINITION_CONTEXT('part definition',#21,'design');
#16=PRODUCT_DEFINITION_FORMATION_WITH_SPECIFIED_SOURCE(' ',' ',#18,
 .NOT_KNOWN.);
#17=PRODUCT_RELATED_PRODUCT_CATEGORY('part','',(#18));
#18=PRODUCT('ACM45-SP1104-D12x26-W20-L150-Z01',
'ACM45-SP1104-D12x26-W20-L150-Z01',' ',(#19));
#19=PRODUCT_CONTEXT(' ',#21,'mechanical');
#20=APPLICATION_PROTOCOL_DEFINITION('international standard',
'automotive_design',2010,#21);
#21=APPLICATION_CONTEXT(
'core data for automotive mechanical design processes');
#22=SHAPE_REPRESENTATION('ACM45-SP1104-D12x26-W20-L150-Z01-None',(#400),
#617);
#23=DRAUGHTING_PRE_DEFINED_COLOUR('yellow');
#24=LINE('',#593,#28);
#25=LINE('',#601,#29);
#26=LINE('',#609,#30);
#27=LINE('',#615,#31);
#28=VECTOR('',#501,9.90000000000001);
#29=VECTOR('',#510,9.90000000000003);
#30=VECTOR('',#519,9.90000000000001);
#31=VECTOR('',#526,9.90000000000001);
#32=OVER_RIDING_STYLED_ITEM('',(#50),#184,#47);
#33=OVER_RIDING_STYLED_ITEM('',(#51),#185,#47);
#34=OVER_RIDING_STYLED_ITEM('',(#52),#186,#47);
#35=OVER_RIDING_STYLED_ITEM('',(#53),#187,#47);
#36=OVER_RIDING_STYLED_ITEM('',(#54),#188,#47);
#37=OVER_RIDING_STYLED_ITEM('',(#55),#189,#47);
#38=OVER_RIDING_STYLED_ITEM('',(#56),#190,#47);
#39=OVER_RIDING_STYLED_ITEM('',(#57),#191,#47);
#40=OVER_RIDING_STYLED_ITEM('',(#58),#192,#47);
#41=OVER_RIDING_STYLED_ITEM('',(#59),#193,#47);
#42=OVER_RIDING_STYLED_ITEM('',(#60),#194,#47);
#43=OVER_RIDING_STYLED_ITEM('',(#61),#195,#47);
#44=OVER_RIDING_STYLED_ITEM('',(#62),#196,#47);
#45=OVER_RIDING_STYLED_ITEM('',(#63),#197,#47);
#46=PRESENTATION_LAYER_ASSIGNMENT('1','Layer 1',(#147,#148));
#47=STYLED_ITEM('',(#49),#147);
#48=STYLED_ITEM('',(#64),#148);
#49=PRESENTATION_STYLE_ASSIGNMENT((#65));
#50=PRESENTATION_STYLE_ASSIGNMENT((#66));
#51=PRESENTATION_STYLE_ASSIGNMENT((#67));
#52=PRESENTATION_STYLE_ASSIGNMENT((#68));
#53=PRESENTATION_STYLE_ASSIGNMENT((#69));
#54=PRESENTATION_STYLE_ASSIGNMENT((#70));
#55=PRESENTATION_STYLE_ASSIGNMENT((#71));
#56=PRESENTATION_STYLE_ASSIGNMENT((#72));
#57=PRESENTATION_STYLE_ASSIGNMENT((#73));
#58=PRESENTATION_STYLE_ASSIGNMENT((#74));
#59=PRESENTATION_STYLE_ASSIGNMENT((#75));
#60=PRESENTATION_STYLE_ASSIGNMENT((#76));
#61=PRESENTATION_STYLE_ASSIGNMENT((#77));
#62=PRESENTATION_STYLE_ASSIGNMENT((#78));
#63=PRESENTATION_STYLE_ASSIGNMENT((#79));
#64=PRESENTATION_STYLE_ASSIGNMENT((#80));
#65=SURFACE_STYLE_USAGE(.BOTH.,#81);
#66=SURFACE_STYLE_USAGE(.BOTH.,#82);
#67=SURFACE_STYLE_USAGE(.BOTH.,#83);
#68=SURFACE_STYLE_USAGE(.BOTH.,#84);
#69=SURFACE_STYLE_USAGE(.BOTH.,#85);
#70=SURFACE_STYLE_USAGE(.BOTH.,#86);
#71=SURFACE_STYLE_USAGE(.BOTH.,#87);
#72=SURFACE_STYLE_USAGE(.BOTH.,#88);
#73=SURFACE_STYLE_USAGE(.BOTH.,#89);
#74=SURFACE_STYLE_USAGE(.BOTH.,#90);
#75=SURFACE_STYLE_USAGE(.BOTH.,#91);
#76=SURFACE_STYLE_USAGE(.BOTH.,#92);
#77=SURFACE_STYLE_USAGE(.BOTH.,#93);
#78=SURFACE_STYLE_USAGE(.BOTH.,#94);
#79=SURFACE_STYLE_USAGE(.BOTH.,#95);
#80=SURFACE_STYLE_USAGE(.BOTH.,#96);
#81=SURFACE_SIDE_STYLE('',(#97));
#82=SURFACE_SIDE_STYLE('',(#98));
#83=SURFACE_SIDE_STYLE('',(#99));
#84=SURFACE_SIDE_STYLE('',(#100));
#85=SURFACE_SIDE_STYLE('',(#101));
#86=SURFACE_SIDE_STYLE('',(#102));
#87=SURFACE_SIDE_STYLE('',(#103));
#88=SURFACE_SIDE_STYLE('',(#104));
#89=SURFACE_SIDE_STYLE('',(#105));
#90=SURFACE_SIDE_STYLE('',(#106));
#91=SURFACE_SIDE_STYLE('',(#107));
#92=SURFACE_SIDE_STYLE('',(#108));
#93=SURFACE_SIDE_STYLE('',(#109));
#94=SURFACE_SIDE_STYLE('',(#110));
#95=SURFACE_SIDE_STYLE('',(#111));
#96=SURFACE_SIDE_STYLE('',(#112));
#97=SURFACE_STYLE_FILL_AREA(#113);
#98=SURFACE_STYLE_FILL_AREA(#114);
#99=SURFACE_STYLE_FILL_AREA(#115);
#100=SURFACE_STYLE_FILL_AREA(#116);
#101=SURFACE_STYLE_FILL_AREA(#117);
#102=SURFACE_STYLE_FILL_AREA(#118);
#103=SURFACE_STYLE_FILL_AREA(#119);
#104=SURFACE_STYLE_FILL_AREA(#120);
#105=SURFACE_STYLE_FILL_AREA(#121);
#106=SURFACE_STYLE_FILL_AREA(#122);
#107=SURFACE_STYLE_FILL_AREA(#123);
#108=SURFACE_STYLE_FILL_AREA(#124);
#109=SURFACE_STYLE_FILL_AREA(#125);
#110=SURFACE_STYLE_FILL_AREA(#126);
#111=SURFACE_STYLE_FILL_AREA(#127);
#112=SURFACE_STYLE_FILL_AREA(#128);
#113=FILL_AREA_STYLE('',(#129));
#114=FILL_AREA_STYLE('',(#130));
#115=FILL_AREA_STYLE('',(#131));
#116=FILL_AREA_STYLE('',(#132));
#117=FILL_AREA_STYLE('',(#133));
#118=FILL_AREA_STYLE('',(#134));
#119=FILL_AREA_STYLE('',(#135));
#120=FILL_AREA_STYLE('',(#136));
#121=FILL_AREA_STYLE('',(#137));
#122=FILL_AREA_STYLE('',(#138));
#123=FILL_AREA_STYLE('',(#139));
#124=FILL_AREA_STYLE('',(#140));
#125=FILL_AREA_STYLE('',(#141));
#126=FILL_AREA_STYLE('',(#142));
#127=FILL_AREA_STYLE('',(#143));
#128=FILL_AREA_STYLE('',(#144));
#129=FILL_AREA_STYLE_COLOUR('',#145);
#130=FILL_AREA_STYLE_COLOUR('',#146);
#131=FILL_AREA_STYLE_COLOUR('',#146);
#132=FILL_AREA_STYLE_COLOUR('',#146);
#133=FILL_AREA_STYLE_COLOUR('',#146);
#134=FILL_AREA_STYLE_COLOUR('',#146);
#135=FILL_AREA_STYLE_COLOUR('',#146);
#136=FILL_AREA_STYLE_COLOUR('',#146);
#137=FILL_AREA_STYLE_COLOUR('',#146);
#138=FILL_AREA_STYLE_COLOUR('',#146);
#139=FILL_AREA_STYLE_COLOUR('',#146);
#140=FILL_AREA_STYLE_COLOUR('',#146);
#141=FILL_AREA_STYLE_COLOUR('',#146);
#142=FILL_AREA_STYLE_COLOUR('',#146);
#143=FILL_AREA_STYLE_COLOUR('',#146);
#144=FILL_AREA_STYLE_COLOUR('',#23);
#145=COLOUR_RGB('Medium Steel',0.611764705882353,0.658823529411765,0.670588235294118);
#146=COLOUR_RGB('silver gray',0.6,0.6,0.6);
#147=MANIFOLD_SOLID_BREP('',#149);
#148=MANIFOLD_SOLID_BREP('',#150);
#149=CLOSED_SHELL('',(#184,#185,#186,#187,#188,#189,#190,#191,#192,#193,
#194,#195,#196,#197));
#150=CLOSED_SHELL('',(#198,#199,#200,#201,#202,#203,#204,#205));
#151=SURFACE_OF_REVOLUTION('',#171,#161);
#152=SURFACE_OF_REVOLUTION('',#172,#162);
#153=SURFACE_OF_REVOLUTION('',#390,#163);
#154=SURFACE_OF_REVOLUTION('',#24,#164);
#155=SURFACE_OF_REVOLUTION('',#393,#165);
#156=SURFACE_OF_REVOLUTION('',#25,#166);
#157=SURFACE_OF_REVOLUTION('',#396,#167);
#158=SURFACE_OF_REVOLUTION('',#26,#168);
#159=SURFACE_OF_REVOLUTION('',#399,#169);
#160=SURFACE_OF_REVOLUTION('',#27,#170);
#161=AXIS1_PLACEMENT('',#560,#470);
#162=AXIS1_PLACEMENT('',#574,#477);
#163=AXIS1_PLACEMENT('',#590,#498);
#164=AXIS1_PLACEMENT('',#594,#502);
#165=AXIS1_PLACEMENT('',#598,#507);
#166=AXIS1_PLACEMENT('',#602,#511);
#167=AXIS1_PLACEMENT('',#606,#516);
#168=AXIS1_PLACEMENT('',#610,#520);
#169=AXIS1_PLACEMENT('',#614,#525);
#170=AXIS1_PLACEMENT('',#616,#527);
#171=B_SPLINE_CURVE_WITH_KNOTS('',3,(#552,#553,#554,#555,#556,#557,#558,
#559),.UNSPECIFIED.,.F.,.F.,(4,2,2,4),(0.,0.435168593710789,0.7002324122301,
1.),.UNSPECIFIED.);
#172=B_SPLINE_CURVE_WITH_KNOTS('',3,(#566,#567,#568,#569,#570,#571,#572,
#573),.UNSPECIFIED.,.F.,.F.,(4,2,2,4),(0.,0.25,0.5,1.),.UNSPECIFIED.);
#173=PLANE('',#410);
#174=PLANE('',#412);
#175=FACE_OUTER_BOUND('',#257,.T.);
#176=FACE_OUTER_BOUND('',#258,.T.);
#177=TOROIDAL_SURFACE('',#409,8.25,1.5);
#178=TOROIDAL_SURFACE('',#414,5.35772824670506,0.8);
#179=TOROIDAL_SURFACE('',#417,10.8083880292958,0.800000000000036);
#180=TOROIDAL_SURFACE('',#420,6.8,0.8);
#181=TOROIDAL_SURFACE('',#424,9.,3.);
#182=CONICAL_SURFACE('',#405,9.75,19.9999999999996);
#183=CONICAL_SURFACE('',#425,10.,45.0000000000012);
#184=ADVANCED_FACE('',(#209,#210),#206,.T.);
#185=ADVANCED_FACE('',(#211,#212),#182,.T.);
#186=ADVANCED_FACE('',(#213,#214),#207,.T.);
#187=ADVANCED_FACE('',(#215,#216),#177,.T.);
#188=ADVANCED_FACE('',(#175),#173,.F.);
#189=ADVANCED_FACE('',(#176),#174,.F.);
#190=ADVANCED_FACE('',(#217,#218),#178,.T.);
#191=ADVANCED_FACE('',(#219,#220),#151,.T.);
#192=ADVANCED_FACE('',(#221,#222),#179,.T.);
#193=ADVANCED_FACE('',(#223,#224),#152,.T.);
#194=ADVANCED_FACE('',(#225,#226),#180,.F.);
#195=ADVANCED_FACE('',(#227,#228),#208,.T.);
#196=ADVANCED_FACE('',(#229,#230),#181,.F.);
#197=ADVANCED_FACE('',(#231,#232),#183,.T.);
#198=ADVANCED_FACE('',(#233,#234),#153,.T.);
#199=ADVANCED_FACE('',(#235,#236),#154,.T.);
#200=ADVANCED_FACE('',(#237,#238),#155,.T.);
#201=ADVANCED_FACE('',(#239,#240),#156,.T.);
#202=ADVANCED_FACE('',(#241,#242),#157,.T.);
#203=ADVANCED_FACE('',(#243,#244),#158,.T.);
#204=ADVANCED_FACE('',(#245,#246),#159,.T.);
#205=ADVANCED_FACE('',(#247,#248),#160,.T.);
#206=CYLINDRICAL_SURFACE('',#403,10.);
#207=CYLINDRICAL_SURFACE('',#407,9.75);
#208=CYLINDRICAL_SURFACE('',#422,6.);
#209=FACE_BOUND('',#249,.T.);
#210=FACE_BOUND('',#250,.T.);
#211=FACE_BOUND('',#251,.T.);
#212=FACE_BOUND('',#252,.T.);
#213=FACE_BOUND('',#253,.T.);
#214=FACE_BOUND('',#254,.T.);
#215=FACE_BOUND('',#255,.T.);
#216=FACE_BOUND('',#256,.T.);
#217=FACE_BOUND('',#259,.T.);
#218=FACE_BOUND('',#260,.T.);
#219=FACE_BOUND('',#261,.T.);
#220=FACE_BOUND('',#262,.T.);
#221=FACE_BOUND('',#263,.T.);
#222=FACE_BOUND('',#264,.T.);
#223=FACE_BOUND('',#265,.T.);
#224=FACE_BOUND('',#266,.T.);
#225=FACE_BOUND('',#267,.T.);
#226=FACE_BOUND('',#268,.T.);
#227=FACE_BOUND('',#269,.T.);
#228=FACE_BOUND('',#270,.T.);
#229=FACE_BOUND('',#271,.T.);
#230=FACE_BOUND('',#272,.T.);
#231=FACE_BOUND('',#273,.T.);
#232=FACE_BOUND('',#274,.T.);
#233=FACE_BOUND('',#275,.T.);
#234=FACE_BOUND('',#276,.T.);
#235=FACE_BOUND('',#277,.T.);
#236=FACE_BOUND('',#278,.T.);
#237=FACE_BOUND('',#279,.T.);
#238=FACE_BOUND('',#280,.T.);
#239=FACE_BOUND('',#281,.T.);
#240=FACE_BOUND('',#282,.T.);
#241=FACE_BOUND('',#283,.T.);
#242=FACE_BOUND('',#284,.T.);
#243=FACE_BOUND('',#285,.T.);
#244=FACE_BOUND('',#286,.T.);
#245=FACE_BOUND('',#287,.T.);
#246=FACE_BOUND('',#288,.T.);
#247=FACE_BOUND('',#289,.T.);
#248=FACE_BOUND('',#290,.T.);
#249=EDGE_LOOP('',(#291));
#250=EDGE_LOOP('',(#292));
#251=EDGE_LOOP('',(#293));
#252=EDGE_LOOP('',(#294));
#253=EDGE_LOOP('',(#295));
#254=EDGE_LOOP('',(#296));
#255=EDGE_LOOP('',(#297));
#256=EDGE_LOOP('',(#298));
#257=EDGE_LOOP('',(#299));
#258=EDGE_LOOP('',(#300));
#259=EDGE_LOOP('',(#301));
#260=EDGE_LOOP('',(#302));
#261=EDGE_LOOP('',(#303));
#262=EDGE_LOOP('',(#304));
#263=EDGE_LOOP('',(#305));
#264=EDGE_LOOP('',(#306));
#265=EDGE_LOOP('',(#307));
#266=EDGE_LOOP('',(#308));
#267=EDGE_LOOP('',(#309));
#268=EDGE_LOOP('',(#310));
#269=EDGE_LOOP('',(#311));
#270=EDGE_LOOP('',(#312));
#271=EDGE_LOOP('',(#313));
#272=EDGE_LOOP('',(#314));
#273=EDGE_LOOP('',(#315));
#274=EDGE_LOOP('',(#316));
#275=EDGE_LOOP('',(#317));
#276=EDGE_LOOP('',(#318));
#277=EDGE_LOOP('',(#319));
#278=EDGE_LOOP('',(#320));
#279=EDGE_LOOP('',(#321));
#280=EDGE_LOOP('',(#322));
#281=EDGE_LOOP('',(#323));
#282=EDGE_LOOP('',(#324));
#283=EDGE_LOOP('',(#325));
#284=EDGE_LOOP('',(#326));
#285=EDGE_LOOP('',(#327));
#286=EDGE_LOOP('',(#328));
#287=EDGE_LOOP('',(#329));
#288=EDGE_LOOP('',(#330));
#289=EDGE_LOOP('',(#331));
#290=EDGE_LOOP('',(#332));
#291=ORIENTED_EDGE('',*,*,#354,.F.);
#292=ORIENTED_EDGE('',*,*,#355,.T.);
#293=ORIENTED_EDGE('',*,*,#355,.F.);
#294=ORIENTED_EDGE('',*,*,#356,.T.);
#295=ORIENTED_EDGE('',*,*,#356,.F.);
#296=ORIENTED_EDGE('',*,*,#357,.T.);
#297=ORIENTED_EDGE('',*,*,#357,.F.);
#298=ORIENTED_EDGE('',*,*,#358,.T.);
#299=ORIENTED_EDGE('',*,*,#358,.F.);
#300=ORIENTED_EDGE('',*,*,#359,.T.);
#301=ORIENTED_EDGE('',*,*,#359,.F.);
#302=ORIENTED_EDGE('',*,*,#360,.T.);
#303=ORIENTED_EDGE('',*,*,#360,.F.);
#304=ORIENTED_EDGE('',*,*,#361,.T.);
#305=ORIENTED_EDGE('',*,*,#361,.F.);
#306=ORIENTED_EDGE('',*,*,#362,.T.);
#307=ORIENTED_EDGE('',*,*,#362,.F.);
#308=ORIENTED_EDGE('',*,*,#363,.T.);
#309=ORIENTED_EDGE('',*,*,#363,.F.);
#310=ORIENTED_EDGE('',*,*,#364,.T.);
#311=ORIENTED_EDGE('',*,*,#364,.F.);
#312=ORIENTED_EDGE('',*,*,#365,.T.);
#313=ORIENTED_EDGE('',*,*,#365,.F.);
#314=ORIENTED_EDGE('',*,*,#366,.T.);
#315=ORIENTED_EDGE('',*,*,#366,.F.);
#316=ORIENTED_EDGE('',*,*,#354,.T.);
#317=ORIENTED_EDGE('',*,*,#367,.F.);
#318=ORIENTED_EDGE('',*,*,#368,.T.);
#319=ORIENTED_EDGE('',*,*,#369,.F.);
#320=ORIENTED_EDGE('',*,*,#367,.T.);
#321=ORIENTED_EDGE('',*,*,#370,.F.);
#322=ORIENTED_EDGE('',*,*,#369,.T.);
#323=ORIENTED_EDGE('',*,*,#371,.F.);
#324=ORIENTED_EDGE('',*,*,#370,.T.);
#325=ORIENTED_EDGE('',*,*,#372,.F.);
#326=ORIENTED_EDGE('',*,*,#371,.T.);
#327=ORIENTED_EDGE('',*,*,#373,.F.);
#328=ORIENTED_EDGE('',*,*,#372,.T.);
#329=ORIENTED_EDGE('',*,*,#374,.F.);
#330=ORIENTED_EDGE('',*,*,#373,.T.);
#331=ORIENTED_EDGE('',*,*,#368,.F.);
#332=ORIENTED_EDGE('',*,*,#374,.T.);
#333=VERTEX_POINT('',#530);
#334=VERTEX_POINT('',#532);
#335=VERTEX_POINT('',#535);
#336=VERTEX_POINT('',#538);
#337=VERTEX_POINT('',#541);
#338=VERTEX_POINT('',#545);
#339=VERTEX_POINT('',#548);
#340=VERTEX_POINT('',#551);
#341=VERTEX_POINT('',#562);
#342=VERTEX_POINT('',#565);
#343=VERTEX_POINT('',#576);
#344=VERTEX_POINT('',#579);
#345=VERTEX_POINT('',#582);
#346=VERTEX_POINT('',#586);
#347=VERTEX_POINT('',#588);
#348=VERTEX_POINT('',#592);
#349=VERTEX_POINT('',#596);
#350=VERTEX_POINT('',#600);
#351=VERTEX_POINT('',#604);
#352=VERTEX_POINT('',#608);
#353=VERTEX_POINT('',#612);
#354=EDGE_CURVE('',#333,#333,#375,.T.);
#355=EDGE_CURVE('',#334,#334,#376,.T.);
#356=EDGE_CURVE('',#335,#335,#377,.T.);
#357=EDGE_CURVE('',#336,#336,#378,.T.);
#358=EDGE_CURVE('',#337,#337,#379,.T.);
#359=EDGE_CURVE('',#338,#338,#380,.T.);
#360=EDGE_CURVE('',#339,#339,#381,.T.);
#361=EDGE_CURVE('',#340,#340,#382,.T.);
#362=EDGE_CURVE('',#341,#341,#383,.T.);
#363=EDGE_CURVE('',#342,#342,#384,.T.);
#364=EDGE_CURVE('',#343,#343,#385,.T.);
#365=EDGE_CURVE('',#344,#344,#386,.T.);
#366=EDGE_CURVE('',#345,#345,#387,.T.);
#367=EDGE_CURVE('',#346,#346,#388,.T.);
#368=EDGE_CURVE('',#347,#347,#389,.T.);
#369=EDGE_CURVE('',#348,#348,#391,.T.);
#370=EDGE_CURVE('',#349,#349,#392,.T.);
#371=EDGE_CURVE('',#350,#350,#394,.T.);
#372=EDGE_CURVE('',#351,#351,#395,.T.);
#373=EDGE_CURVE('',#352,#352,#397,.T.);
#374=EDGE_CURVE('',#353,#353,#398,.T.);
#375=CIRCLE('',#401,10.);
#376=CIRCLE('',#402,10.);
#377=CIRCLE('',#404,9.75);
#378=CIRCLE('',#406,9.75);
#379=CIRCLE('',#408,8.25);
#380=CIRCLE('',#411,5.35772824670506);
#381=CIRCLE('',#413,5.97565589458286);
#382=CIRCLE('',#415,11.3870973060764);
#383=CIRCLE('',#416,11.3870973095552);
#384=CIRCLE('',#418,6.1858087498068);
#385=CIRCLE('',#419,6.);
#386=CIRCLE('',#421,6.);
#387=CIRCLE('',#423,6.8786796564404);
#388=CIRCLE('',#426,5.85854093483068);
#389=CIRCLE('',#427,4.76723100904945);
#390=CIRCLE('',#428,0.8);
#391=CIRCLE('',#429,12.7670598096095);
#392=CIRCLE('',#430,12.7670598096095);
#393=CIRCLE('',#431,0.8);
#394=CIRCLE('',#432,5.85854093483064);
#395=CIRCLE('',#433,4.76723100904942);
#396=CIRCLE('',#434,0.8);
#397=CIRCLE('',#435,2.81090327058445);
#398=CIRCLE('',#436,2.81090327058445);
#399=CIRCLE('',#437,0.8);
#400=AXIS2_PLACEMENT_3D('',#528,#438,#439);
#401=AXIS2_PLACEMENT_3D('',#529,#440,#441);
#402=AXIS2_PLACEMENT_3D('',#531,#442,#443);
#403=AXIS2_PLACEMENT_3D('',#533,#444,#445);
#404=AXIS2_PLACEMENT_3D('',#534,#446,#447);
#405=AXIS2_PLACEMENT_3D('',#536,#448,#449);
#406=AXIS2_PLACEMENT_3D('',#537,#450,#451);
#407=AXIS2_PLACEMENT_3D('',#539,#452,#453);
#408=AXIS2_PLACEMENT_3D('',#540,#454,#455);
#409=AXIS2_PLACEMENT_3D('',#542,#456,#457);
#410=AXIS2_PLACEMENT_3D('',#543,#458,#459);
#411=AXIS2_PLACEMENT_3D('',#544,#460,#461);
#412=AXIS2_PLACEMENT_3D('',#546,#462,#463);
#413=AXIS2_PLACEMENT_3D('',#547,#464,#465);
#414=AXIS2_PLACEMENT_3D('',#549,#466,#467);
#415=AXIS2_PLACEMENT_3D('',#550,#468,#469);
#416=AXIS2_PLACEMENT_3D('',#561,#471,#472);
#417=AXIS2_PLACEMENT_3D('',#563,#473,#474);
#418=AXIS2_PLACEMENT_3D('',#564,#475,#476);
#419=AXIS2_PLACEMENT_3D('',#575,#478,#479);
#420=AXIS2_PLACEMENT_3D('',#577,#480,#481);
#421=AXIS2_PLACEMENT_3D('',#578,#482,#483);
#422=AXIS2_PLACEMENT_3D('',#580,#484,#485);
#423=AXIS2_PLACEMENT_3D('',#581,#486,#487);
#424=AXIS2_PLACEMENT_3D('',#583,#488,#489);
#425=AXIS2_PLACEMENT_3D('',#584,#490,#491);
#426=AXIS2_PLACEMENT_3D('',#585,#492,#493);
#427=AXIS2_PLACEMENT_3D('',#587,#494,#495);
#428=AXIS2_PLACEMENT_3D('',#589,#496,#497);
#429=AXIS2_PLACEMENT_3D('',#591,#499,#500);
#430=AXIS2_PLACEMENT_3D('',#595,#503,#504);
#431=AXIS2_PLACEMENT_3D('',#597,#505,#506);
#432=AXIS2_PLACEMENT_3D('',#599,#508,#509);
#433=AXIS2_PLACEMENT_3D('',#603,#512,#513);
#434=AXIS2_PLACEMENT_3D('',#605,#514,#515);
#435=AXIS2_PLACEMENT_3D('',#607,#517,#518);
#436=AXIS2_PLACEMENT_3D('',#611,#521,#522);
#437=AXIS2_PLACEMENT_3D('',#613,#523,#524);
#438=DIRECTION('',(0.,0.,1.));
#439=DIRECTION('',(1.,0.,0.));
#440=DIRECTION('',(-1.,0.,0.));
#441=DIRECTION('',(0.,0.,1.));
#442=DIRECTION('',(-1.,0.,0.));
#443=DIRECTION('',(0.,0.,1.));
#444=DIRECTION('',(-1.,0.,0.));
#445=DIRECTION('',(0.,0.,1.));
#446=DIRECTION('',(-1.,0.,0.));
#447=DIRECTION('',(0.,0.,1.));
#448=DIRECTION('',(-1.,0.,0.));
#449=DIRECTION('',(7.4268324459679E-17,0.,1.));
#450=DIRECTION('',(-1.,0.,0.));
#451=DIRECTION('',(0.,0.,1.));
#452=DIRECTION('',(-1.,0.,0.));
#453=DIRECTION('',(0.,0.,1.));
#454=DIRECTION('',(-1.,0.,0.));
#455=DIRECTION('',(0.,0.,1.));
#456=DIRECTION('',(-1.,0.,0.));
#457=DIRECTION('',(0.,0.,1.));
#458=DIRECTION('',(-1.,0.,0.));
#459=DIRECTION('',(0.,0.,1.));
#460=DIRECTION('',(-1.,0.,0.));
#461=DIRECTION('',(0.,0.,1.));
#462=DIRECTION('',(1.,0.,0.));
#463=DIRECTION('',(0.,0.,-1.));
#464=DIRECTION('',(-1.,0.,0.));
#465=DIRECTION('',(0.,0.,1.));
#466=DIRECTION('',(-1.,0.,0.));
#467=DIRECTION('',(0.,0.,1.));
#468=DIRECTION('',(-1.,0.,0.));
#469=DIRECTION('',(0.,0.,1.));
#470=DIRECTION('',(-1.,0.,0.));
#471=DIRECTION('',(-1.,0.,0.));
#472=DIRECTION('',(0.,0.,1.));
#473=DIRECTION('',(-1.,0.,0.));
#474=DIRECTION('',(0.,0.,1.));
#475=DIRECTION('',(-1.,0.,0.));
#476=DIRECTION('',(0.,0.,1.));
#477=DIRECTION('',(-1.,0.,0.));
#478=DIRECTION('',(-1.,0.,0.));
#479=DIRECTION('',(0.,0.,1.));
#480=DIRECTION('',(-1.,0.,0.));
#481=DIRECTION('',(0.,0.,1.));
#482=DIRECTION('',(-1.,0.,0.));
#483=DIRECTION('',(0.,0.,1.));
#484=DIRECTION('',(-1.,0.,0.));
#485=DIRECTION('',(0.,0.,1.));
#486=DIRECTION('',(-1.,0.,0.));
#487=DIRECTION('',(0.,0.,1.));
#488=DIRECTION('',(-1.,0.,0.));
#489=DIRECTION('',(0.,0.,1.));
#490=DIRECTION('',(1.,0.,0.));
#491=DIRECTION('',(2.74807679362651E-17,0.,-1.));
#492=DIRECTION('',(1.,0.,0.));
#493=DIRECTION('',(0.,0.,-1.));
#494=DIRECTION('',(1.,0.,0.));
#495=DIRECTION('',(0.,0.,-1.));
#496=DIRECTION('',(-4.16333634234434E-17,-0.104528463267653,0.994521895368273));
#497=DIRECTION('',(-0.707106781186546,-0.703233176253406,-0.0739127852035669));
#498=DIRECTION('',(1.,0.,0.));
#499=DIRECTION('',(1.,0.,0.));
#500=DIRECTION('',(0.,0.,-1.));
#501=DIRECTION('',(0.707106781186549,-0.703233176253403,-0.0739127852035666));
#502=DIRECTION('',(1.,0.,0.));
#503=DIRECTION('',(1.,0.,0.));
#504=DIRECTION('',(0.,0.,-1.));
#505=DIRECTION('',(-4.16333634234434E-17,-0.104528463267653,0.994521895368273));
#506=DIRECTION('',(-0.707106781186546,-0.703233176253406,-0.0739127852035669));
#507=DIRECTION('',(1.,0.,0.));
#508=DIRECTION('',(1.,0.,0.));
#509=DIRECTION('',(0.,0.,-1.));
#510=DIRECTION('',(0.707106781186546,0.703233176253406,0.0739127852035669));
#511=DIRECTION('',(1.,0.,0.));
#512=DIRECTION('',(1.,0.,0.));
#513=DIRECTION('',(0.,0.,-1.));
#514=DIRECTION('',(-4.16333634234434E-17,-0.104528463267653,0.994521895368273));
#515=DIRECTION('',(-0.707106781186546,-0.703233176253406,-0.0739127852035669));
#516=DIRECTION('',(1.,0.,0.));
#517=DIRECTION('',(1.,0.,0.));
#518=DIRECTION('',(0.,0.,-1.));
#519=DIRECTION('',(-0.707106781186549,0.703233176253403,0.0739127852035666));
#520=DIRECTION('',(1.,0.,0.));
#521=DIRECTION('',(1.,0.,0.));
#522=DIRECTION('',(0.,0.,-1.));
#523=DIRECTION('',(-4.16333634234434E-17,-0.104528463267653,0.994521895368273));
#524=DIRECTION('',(-0.707106781186546,-0.703233176253406,-0.0739127852035669));
#525=DIRECTION('',(1.,0.,0.));
#526=DIRECTION('',(-0.707106781186546,-0.703233176253406,-0.0739127852035669));
#527=DIRECTION('',(1.,0.,0.));
#528=CARTESIAN_POINT('',(0.,0.,0.));
#529=CARTESIAN_POINT('',(34.,0.,0.));
#530=CARTESIAN_POINT('',(34.,0.,10.));
#531=CARTESIAN_POINT('',(146.313130645136,0.,0.));
#532=CARTESIAN_POINT('',(146.313130645136,0.,10.));
#533=CARTESIAN_POINT('',(0.,0.,0.));
#534=CARTESIAN_POINT('',(147.,0.,0.));
#535=CARTESIAN_POINT('',(147.,0.,9.75));
#536=CARTESIAN_POINT('',(147.,0.,0.));
#537=CARTESIAN_POINT('',(148.5,0.,0.));
#538=CARTESIAN_POINT('',(148.5,0.,9.75));
#539=CARTESIAN_POINT('',(0.,0.,0.));
#540=CARTESIAN_POINT('',(150.,0.,0.));
#541=CARTESIAN_POINT('',(150.,0.,8.25));
#542=CARTESIAN_POINT('',(148.5,0.,0.));
#543=CARTESIAN_POINT('',(150.,8.25,0.));
#544=CARTESIAN_POINT('',(1.,0.,0.));
#545=CARTESIAN_POINT('',(1.,0.,5.35772824670506));
#546=CARTESIAN_POINT('',(1.,0.,0.));
#547=CARTESIAN_POINT('',(1.29190018501458,0.,0.));
#548=CARTESIAN_POINT('',(1.29190018501458,0.,5.97565589458286));
#549=CARTESIAN_POINT('',(1.8,0.,0.));
#550=CARTESIAN_POINT('',(7.24800256035386,0.,0.));
#551=CARTESIAN_POINT('',(7.24800256035386,0.,11.3870973060764));
#552=CARTESIAN_POINT('',(7.24800256035388,11.3870973060764,0.));
#553=CARTESIAN_POINT('',(6.40340975026926,10.5809676678246,0.));
#554=CARTESIAN_POINT('',(5.5546926306311,9.77915745256417,0.));
#555=CARTESIAN_POINT('',(4.17577268798746,8.50316771912601,0.));
#556=CARTESIAN_POINT('',(3.65068387636521,8.0235237753214,0.));
#557=CARTESIAN_POINT('',(2.52001019655477,7.0144941103091,0.));
#558=CARTESIAN_POINT('',(1.9131835498053,6.48651499561581,0.));
#559=CARTESIAN_POINT('',(1.29190018501458,5.97565589458286,0.));
#560=CARTESIAN_POINT('',(0.,0.,0.));
#561=CARTESIAN_POINT('',(8.35271170027234,0.,0.));
#562=CARTESIAN_POINT('',(8.35271170027234,0.,11.3870973095552));
#563=CARTESIAN_POINT('',(7.80035713213551,0.,0.));
#564=CARTESIAN_POINT('',(14.0551588981946,0.,0.));
#565=CARTESIAN_POINT('',(14.0551588981946,0.,6.1858087498068));
#566=CARTESIAN_POINT('',(14.0936074825603,6.15375418633495,0.));
#567=CARTESIAN_POINT('',(13.5471168368057,6.60886400343969,0.));
#568=CARTESIAN_POINT('',(13.0112336497968,7.07649056217473,0.));
#569=CARTESIAN_POINT('',(11.9500371031738,8.02351773611816,0.));
#570=CARTESIAN_POINT('',(11.4249427518503,8.50316664207863,0.));
#571=CARTESIAN_POINT('',(9.85902819074534,9.95219263751413,0.));
#572=CARTESIAN_POINT('',(8.82729623347148,10.9313170147632,0.));
#573=CARTESIAN_POINT('',(7.80035713,11.9153891412846,0.));
#574=CARTESIAN_POINT('',(0.,0.,0.));
#575=CARTESIAN_POINT('',(14.567768991917,0.,0.));
#576=CARTESIAN_POINT('',(14.567768991917,0.,6.));
#577=CARTESIAN_POINT('',(14.567768991917,0.,0.));
#578=CARTESIAN_POINT('',(28.7573593128807,0.,0.));
#579=CARTESIAN_POINT('',(28.7573593128807,0.,6.));
#580=CARTESIAN_POINT('',(0.,0.,0.));
#581=CARTESIAN_POINT('',(30.8786796564403,0.,0.));
#582=CARTESIAN_POINT('',(30.8786796564403,0.,6.8786796564404));
#583=CARTESIAN_POINT('',(28.7573593128807,0.,0.));
#584=CARTESIAN_POINT('',(34.,0.,0.));
#585=CARTESIAN_POINT('',(0.234314571303924,0.,0.));
#586=CARTESIAN_POINT('',(0.234314571303924,0.,-5.85854093483068));
#587=CARTESIAN_POINT('',(0.234314571303922,0.,0.));
#588=CARTESIAN_POINT('',(0.234314571303922,0.,-4.76723100904945));
#589=CARTESIAN_POINT('',(0.799999996253161,-5.24232789308587,0.849997029841015));
#590=CARTESIAN_POINT('',(0.,0.,0.));
#591=CARTESIAN_POINT('',(7.23467170505076,0.,0.));
#592=CARTESIAN_POINT('',(7.23467170505076,0.,-12.7670598096095));
#593=CARTESIAN_POINT('',(0.234314571303926,-5.80491443408859,0.790866801678163));
#594=CARTESIAN_POINT('',(0.,0.,0.));
#595=CARTESIAN_POINT('',(8.36604255494922,0.,0.));
#596=CARTESIAN_POINT('',(8.36604255494922,0.,-12.7670598096095));
#597=CARTESIAN_POINT('',(7.80035712999999,-12.2043363379946,0.118260456325703));
#598=CARTESIAN_POINT('',(0.,0.,0.));
#599=CARTESIAN_POINT('',(15.3663996886961,0.,0.));
#600=CARTESIAN_POINT('',(15.3663996886961,0.,-5.85854093483064));
#601=CARTESIAN_POINT('',(8.36604255494923,-12.7669228789973,0.059130228162852));
#602=CARTESIAN_POINT('',(0.,0.,0.));
#603=CARTESIAN_POINT('',(15.366399688696,0.,0.));
#604=CARTESIAN_POINT('',(15.366399688696,0.,-4.76723100904942));
#605=CARTESIAN_POINT('',(14.8007142637468,-5.24232789308584,0.849997029841019));
#606=CARTESIAN_POINT('',(0.,0.,0.));
#607=CARTESIAN_POINT('',(8.36604255494921,0.,0.));
#608=CARTESIAN_POINT('',(8.36604255494921,0.,-2.81090327058445));
#609=CARTESIAN_POINT('',(15.3663996886961,-4.67974135208311,0.909127258003872));
#610=CARTESIAN_POINT('',(0.,0.,0.));
#611=CARTESIAN_POINT('',(7.23467170505073,0.,0.));
#612=CARTESIAN_POINT('',(7.23467170505073,0.,-2.81090327058445));
#613=CARTESIAN_POINT('',(7.80035712999997,1.71968055182286,1.58173360335633));
#614=CARTESIAN_POINT('',(0.,0.,0.));
#615=CARTESIAN_POINT('',(7.23467170505073,2.28226709282558,1.64086383151918));
#616=CARTESIAN_POINT('',(0.,0.,0.));
#617=(
GEOMETRIC_REPRESENTATION_CONTEXT(3)
GLOBAL_UNCERTAINTY_ASSIGNED_CONTEXT((#618))
GLOBAL_UNIT_ASSIGNED_CONTEXT((#624,#620,#619))
REPRESENTATION_CONTEXT('ACM45-SP1104-D12x26-W20-L150-Z01',
'TOP_LEVEL_ASSEMBLY_PART')
);
#618=UNCERTAINTY_MEASURE_WITH_UNIT(LENGTH_MEASURE(0.0508),#624,
'DISTANCE_ACCURACY_VALUE','Maximum Tolerance applied to model');
#619=(
NAMED_UNIT(*)
SI_UNIT($,.STERADIAN.)
SOLID_ANGLE_UNIT()
);
#620=(
CONVERSION_BASED_UNIT('DEGREE',#622)
NAMED_UNIT(#621)
PLANE_ANGLE_UNIT()
);
#621=DIMENSIONAL_EXPONENTS(0.,0.,0.,0.,0.,0.,0.);
#622=PLANE_ANGLE_MEASURE_WITH_UNIT(PLANE_ANGLE_MEASURE(0.0174532925),#623);
#623=(
NAMED_UNIT(*)
PLANE_ANGLE_UNIT()
SI_UNIT($,.RADIAN.)
);
#624=(
LENGTH_UNIT()
NAMED_UNIT(*)
SI_UNIT(.MILLI.,.METRE.)
);
ENDSEC;
END-ISO-10303-21;
