ISO-10303-21;
HEADER;
/* Generated by software containing ST-Developer
 * from STEP Tools, Inc. (www.steptools.com) 
 */
/* OPTION: using custom schema-name function */

FILE_DESCRIPTION(
/* description */ (''),
/* implementation_level */ '2;1');

FILE_NAME(
/* name */ 'ADCR-120-VB1103.stp',
/* time_stamp */ '2023-11-14T01:25:23+03:00',
/* author */ (''),
/* organization */ (''),
/* preprocessor_version */ 'ST-DEVELOPER v19.4',
/* originating_system */ 'SIEMENS PLM Software NX2306.3001',
/* authorisation */ '');

FILE_SCHEMA (('AUTOMOTIVE_DESIGN { 1 0 10303 214 3 1 1 1 }'));
ENDSEC;

DATA;
#10=SHAPE_REPRESENTATION_RELATIONSHIP('None',
'relationship between model1-None and model1-None',#22,#11);
#11=ADVANCED_BREP_SHAPE_REPRESENTATION('model1-None',(#46,#47),#447);
#12=SHAPE_DEFINITION_REPRESENTATION(#13,#22);
#13=PRODUCT_DEFINITION_SHAPE('','',#14);
#14=PRODUCT_DEFINITION(' ','',#16,#15);
#15=PRODUCT_DEFINITION_CONTEXT('part definition',#21,'design');
#16=PRODUCT_DEFINITION_FORMATION_WITH_SPECIFIED_SOURCE(' ',' ',#18,
 .NOT_KNOWN.);
#17=PRODUCT_RELATED_PRODUCT_CATEGORY('part','',(#18));
#18=PRODUCT('model1','model1',' ',(#19));
#19=PRODUCT_CONTEXT(' ',#21,'mechanical');
#20=APPLICATION_PROTOCOL_DEFINITION('international standard',
'automotive_design',2010,#21);
#21=APPLICATION_CONTEXT(
'core data for automotive mechanical design processes');
#22=SHAPE_REPRESENTATION('model1-None',(#259),#447);
#23=DRAUGHTING_PRE_DEFINED_COLOUR('yellow');
#24=LINE('',#431,#27);
#25=LINE('',#439,#28);
#26=LINE('',#443,#29);
#27=VECTOR('',#347,9.80224923124879);
#28=VECTOR('',#356,9.8022492312488);
#29=VECTOR('',#360,9.80224923124876);
#30=PRESENTATION_LAYER_ASSIGNMENT('1','Layer 1',(#46,#47));
#31=STYLED_ITEM('',(#33),#46);
#32=STYLED_ITEM('',(#34),#47);
#33=PRESENTATION_STYLE_ASSIGNMENT((#35));
#34=PRESENTATION_STYLE_ASSIGNMENT((#36));
#35=SURFACE_STYLE_USAGE(.BOTH.,#37);
#36=SURFACE_STYLE_USAGE(.BOTH.,#38);
#37=SURFACE_SIDE_STYLE('',(#39));
#38=SURFACE_SIDE_STYLE('',(#40));
#39=SURFACE_STYLE_FILL_AREA(#41);
#40=SURFACE_STYLE_FILL_AREA(#42);
#41=FILL_AREA_STYLE('',(#43));
#42=FILL_AREA_STYLE('',(#44));
#43=FILL_AREA_STYLE_COLOUR('',#45);
#44=FILL_AREA_STYLE_COLOUR('',#23);
#45=COLOUR_RGB('light gray',0.8,0.8,0.8);
#46=MANIFOLD_SOLID_BREP('',#48);
#47=MANIFOLD_SOLID_BREP('',#49);
#48=CLOSED_SHELL('',(#61,#62,#63,#64,#65,#66,#67,#68,#69,#70,#71,#72));
#49=CLOSED_SHELL('',(#73,#74,#75,#76,#77,#78));
#50=CONICAL_SURFACE('',#271,6.34289321881345,45.);
#51=CONICAL_SURFACE('',#284,5.74706247677082,45.0000000000001);
#52=PLANE('',#269);
#53=CYLINDRICAL_SURFACE('',#265,16.);
#54=CYLINDRICAL_SURFACE('',#275,6.05);
#55=TOROIDAL_SURFACE('',#263,13.9999999995941,2.00000000040585);
#56=TOROIDAL_SURFACE('',#267,15.,1.);
#57=TOROIDAL_SURFACE('',#273,7.05,1.);
#58=TOROIDAL_SURFACE('',#277,7.05,1.00000000000193);
#59=TOROIDAL_SURFACE('',#279,6.17533599598411,1.00000000000193);
#60=TOROIDAL_SURFACE('',#281,6.49981269818014,0.4);
#61=ADVANCED_FACE('',(#95,#96),#79,.T.);
#62=ADVANCED_FACE('',(#97,#98),#55,.T.);
#63=ADVANCED_FACE('',(#99,#100),#53,.T.);
#64=ADVANCED_FACE('',(#101,#102),#56,.T.);
#65=ADVANCED_FACE('',(#103,#104),#52,.F.);
#66=ADVANCED_FACE('',(#105,#106),#50,.F.);
#67=ADVANCED_FACE('',(#107,#108),#57,.T.);
#68=ADVANCED_FACE('',(#109,#110),#54,.F.);
#69=ADVANCED_FACE('',(#111,#112),#58,.T.);
#70=ADVANCED_FACE('',(#113,#114),#59,.F.);
#71=ADVANCED_FACE('',(#115,#116),#80,.T.);
#72=ADVANCED_FACE('',(#117,#118),#60,.T.);
#73=ADVANCED_FACE('',(#119,#120),#51,.T.);
#74=ADVANCED_FACE('',(#121,#122),#81,.F.);
#75=ADVANCED_FACE('',(#123,#124),#82,.F.);
#76=ADVANCED_FACE('',(#125,#126),#83,.F.);
#77=ADVANCED_FACE('',(#127,#128),#84,.F.);
#78=ADVANCED_FACE('',(#129,#130),#85,.F.);
#79=SURFACE_OF_REVOLUTION('',#93,#86);
#80=SURFACE_OF_REVOLUTION('',#94,#87);
#81=SURFACE_OF_REVOLUTION('',#24,#88);
#82=SURFACE_OF_REVOLUTION('',#255,#89);
#83=SURFACE_OF_REVOLUTION('',#25,#90);
#84=SURFACE_OF_REVOLUTION('',#26,#91);
#85=SURFACE_OF_REVOLUTION('',#258,#92);
#86=AXIS1_PLACEMENT('',#378,#297);
#87=AXIS1_PLACEMENT('',#422,#336);
#88=AXIS1_PLACEMENT('',#432,#348);
#89=AXIS1_PLACEMENT('',#436,#353);
#90=AXIS1_PLACEMENT('',#440,#357);
#91=AXIS1_PLACEMENT('',#444,#361);
#92=AXIS1_PLACEMENT('',#446,#364);
#93=B_SPLINE_CURVE_WITH_KNOTS('',3,(#370,#371,#372,#373,#374,#375,#376,
#377),.UNSPECIFIED.,.F.,.F.,(4,2,2,4),(0.,0.729316172077738,0.915120818389058,
1.),.UNSPECIFIED.);
#94=B_SPLINE_CURVE_WITH_KNOTS('',3,(#408,#409,#410,#411,#412,#413,#414,
#415,#416,#417,#418,#419,#420,#421),.UNSPECIFIED.,.F.,.F.,(4,2,2,2,2,2,
4),(0.,0.165713680730948,0.331417331524118,0.498563376958479,0.665709140371037,
0.832854667948536,1.),.UNSPECIFIED.);
#95=FACE_BOUND('',#131,.T.);
#96=FACE_BOUND('',#132,.T.);
#97=FACE_BOUND('',#133,.T.);
#98=FACE_BOUND('',#134,.T.);
#99=FACE_BOUND('',#135,.T.);
#100=FACE_BOUND('',#136,.T.);
#101=FACE_BOUND('',#137,.T.);
#102=FACE_BOUND('',#138,.T.);
#103=FACE_BOUND('',#139,.T.);
#104=FACE_BOUND('',#140,.T.);
#105=FACE_BOUND('',#141,.T.);
#106=FACE_BOUND('',#142,.T.);
#107=FACE_BOUND('',#143,.T.);
#108=FACE_BOUND('',#144,.T.);
#109=FACE_BOUND('',#145,.T.);
#110=FACE_BOUND('',#146,.T.);
#111=FACE_BOUND('',#147,.T.);
#112=FACE_BOUND('',#148,.T.);
#113=FACE_BOUND('',#149,.T.);
#114=FACE_BOUND('',#150,.T.);
#115=FACE_BOUND('',#151,.T.);
#116=FACE_BOUND('',#152,.T.);
#117=FACE_BOUND('',#153,.T.);
#118=FACE_BOUND('',#154,.T.);
#119=FACE_BOUND('',#155,.T.);
#120=FACE_BOUND('',#156,.T.);
#121=FACE_BOUND('',#157,.T.);
#122=FACE_BOUND('',#158,.T.);
#123=FACE_BOUND('',#159,.T.);
#124=FACE_BOUND('',#160,.T.);
#125=FACE_BOUND('',#161,.T.);
#126=FACE_BOUND('',#162,.T.);
#127=FACE_BOUND('',#163,.T.);
#128=FACE_BOUND('',#164,.T.);
#129=FACE_BOUND('',#165,.T.);
#130=FACE_BOUND('',#166,.T.);
#131=EDGE_LOOP('',(#167));
#132=EDGE_LOOP('',(#168));
#133=EDGE_LOOP('',(#169));
#134=EDGE_LOOP('',(#170));
#135=EDGE_LOOP('',(#171));
#136=EDGE_LOOP('',(#172));
#137=EDGE_LOOP('',(#173));
#138=EDGE_LOOP('',(#174));
#139=EDGE_LOOP('',(#175));
#140=EDGE_LOOP('',(#176));
#141=EDGE_LOOP('',(#177));
#142=EDGE_LOOP('',(#178));
#143=EDGE_LOOP('',(#179));
#144=EDGE_LOOP('',(#180));
#145=EDGE_LOOP('',(#181));
#146=EDGE_LOOP('',(#182));
#147=EDGE_LOOP('',(#183));
#148=EDGE_LOOP('',(#184));
#149=EDGE_LOOP('',(#185));
#150=EDGE_LOOP('',(#186));
#151=EDGE_LOOP('',(#187));
#152=EDGE_LOOP('',(#188));
#153=EDGE_LOOP('',(#189));
#154=EDGE_LOOP('',(#190));
#155=EDGE_LOOP('',(#191));
#156=EDGE_LOOP('',(#192));
#157=EDGE_LOOP('',(#193));
#158=EDGE_LOOP('',(#194));
#159=EDGE_LOOP('',(#195));
#160=EDGE_LOOP('',(#196));
#161=EDGE_LOOP('',(#197));
#162=EDGE_LOOP('',(#198));
#163=EDGE_LOOP('',(#199));
#164=EDGE_LOOP('',(#200));
#165=EDGE_LOOP('',(#201));
#166=EDGE_LOOP('',(#202));
#167=ORIENTED_EDGE('',*,*,#221,.F.);
#168=ORIENTED_EDGE('',*,*,#222,.T.);
#169=ORIENTED_EDGE('',*,*,#222,.F.);
#170=ORIENTED_EDGE('',*,*,#223,.T.);
#171=ORIENTED_EDGE('',*,*,#223,.F.);
#172=ORIENTED_EDGE('',*,*,#224,.T.);
#173=ORIENTED_EDGE('',*,*,#224,.F.);
#174=ORIENTED_EDGE('',*,*,#225,.T.);
#175=ORIENTED_EDGE('',*,*,#225,.F.);
#176=ORIENTED_EDGE('',*,*,#226,.T.);
#177=ORIENTED_EDGE('',*,*,#226,.F.);
#178=ORIENTED_EDGE('',*,*,#227,.T.);
#179=ORIENTED_EDGE('',*,*,#227,.F.);
#180=ORIENTED_EDGE('',*,*,#228,.T.);
#181=ORIENTED_EDGE('',*,*,#228,.F.);
#182=ORIENTED_EDGE('',*,*,#229,.T.);
#183=ORIENTED_EDGE('',*,*,#229,.F.);
#184=ORIENTED_EDGE('',*,*,#230,.T.);
#185=ORIENTED_EDGE('',*,*,#230,.F.);
#186=ORIENTED_EDGE('',*,*,#231,.T.);
#187=ORIENTED_EDGE('',*,*,#231,.F.);
#188=ORIENTED_EDGE('',*,*,#232,.T.);
#189=ORIENTED_EDGE('',*,*,#232,.F.);
#190=ORIENTED_EDGE('',*,*,#221,.T.);
#191=ORIENTED_EDGE('',*,*,#233,.T.);
#192=ORIENTED_EDGE('',*,*,#234,.F.);
#193=ORIENTED_EDGE('',*,*,#235,.T.);
#194=ORIENTED_EDGE('',*,*,#233,.F.);
#195=ORIENTED_EDGE('',*,*,#236,.T.);
#196=ORIENTED_EDGE('',*,*,#235,.F.);
#197=ORIENTED_EDGE('',*,*,#237,.T.);
#198=ORIENTED_EDGE('',*,*,#236,.F.);
#199=ORIENTED_EDGE('',*,*,#238,.T.);
#200=ORIENTED_EDGE('',*,*,#237,.F.);
#201=ORIENTED_EDGE('',*,*,#234,.T.);
#202=ORIENTED_EDGE('',*,*,#238,.F.);
#203=VERTEX_POINT('',#367);
#204=VERTEX_POINT('',#369);
#205=VERTEX_POINT('',#380);
#206=VERTEX_POINT('',#383);
#207=VERTEX_POINT('',#386);
#208=VERTEX_POINT('',#389);
#209=VERTEX_POINT('',#392);
#210=VERTEX_POINT('',#395);
#211=VERTEX_POINT('',#398);
#212=VERTEX_POINT('',#401);
#213=VERTEX_POINT('',#404);
#214=VERTEX_POINT('',#407);
#215=VERTEX_POINT('',#425);
#216=VERTEX_POINT('',#427);
#217=VERTEX_POINT('',#430);
#218=VERTEX_POINT('',#434);
#219=VERTEX_POINT('',#438);
#220=VERTEX_POINT('',#442);
#221=EDGE_CURVE('',#203,#203,#239,.T.);
#222=EDGE_CURVE('',#204,#204,#240,.T.);
#223=EDGE_CURVE('',#205,#205,#241,.T.);
#224=EDGE_CURVE('',#206,#206,#242,.T.);
#225=EDGE_CURVE('',#207,#207,#243,.T.);
#226=EDGE_CURVE('',#208,#208,#244,.T.);
#227=EDGE_CURVE('',#209,#209,#245,.T.);
#228=EDGE_CURVE('',#210,#210,#246,.T.);
#229=EDGE_CURVE('',#211,#211,#247,.T.);
#230=EDGE_CURVE('',#212,#212,#248,.T.);
#231=EDGE_CURVE('',#213,#213,#249,.T.);
#232=EDGE_CURVE('',#214,#214,#250,.T.);
#233=EDGE_CURVE('',#215,#215,#251,.T.);
#234=EDGE_CURVE('',#216,#216,#252,.T.);
#235=EDGE_CURVE('',#217,#217,#253,.T.);
#236=EDGE_CURVE('',#218,#218,#254,.T.);
#237=EDGE_CURVE('',#219,#219,#256,.T.);
#238=EDGE_CURVE('',#220,#220,#257,.T.);
#239=CIRCLE('',#260,6.79812634033258);
#240=CIRCLE('',#261,15.4350890963685);
#241=CIRCLE('',#262,16.);
#242=CIRCLE('',#264,16.);
#243=CIRCLE('',#266,15.);
#244=CIRCLE('',#268,7.05);
#245=CIRCLE('',#270,6.34289321881345);
#246=CIRCLE('',#272,6.05);
#247=CIRCLE('',#274,6.05);
#248=CIRCLE('',#276,6.6126679979929);
#249=CIRCLE('',#278,7.16486826651095);
#250=CIRCLE('',#280,6.1023130150174);
#251=CIRCLE('',#282,12.6782993790675);
#252=CIRCLE('',#283,5.74706247677082);
#253=CIRCLE('',#285,14.4738055757483);
#254=CIRCLE('',#286,13.8159641473715);
#255=CIRCLE('',#287,0.4);
#256=CIRCLE('',#288,6.92895564454888);
#257=CIRCLE('',#289,5.07968539474227);
#258=CIRCLE('',#290,0.4);
#259=AXIS2_PLACEMENT_3D('',#365,#291,#292);
#260=AXIS2_PLACEMENT_3D('',#366,#293,#294);
#261=AXIS2_PLACEMENT_3D('',#368,#295,#296);
#262=AXIS2_PLACEMENT_3D('',#379,#298,#299);
#263=AXIS2_PLACEMENT_3D('',#381,#300,#301);
#264=AXIS2_PLACEMENT_3D('',#382,#302,#303);
#265=AXIS2_PLACEMENT_3D('',#384,#304,#305);
#266=AXIS2_PLACEMENT_3D('',#385,#306,#307);
#267=AXIS2_PLACEMENT_3D('',#387,#308,#309);
#268=AXIS2_PLACEMENT_3D('',#388,#310,#311);
#269=AXIS2_PLACEMENT_3D('',#390,#312,#313);
#270=AXIS2_PLACEMENT_3D('',#391,#314,#315);
#271=AXIS2_PLACEMENT_3D('',#393,#316,#317);
#272=AXIS2_PLACEMENT_3D('',#394,#318,#319);
#273=AXIS2_PLACEMENT_3D('',#396,#320,#321);
#274=AXIS2_PLACEMENT_3D('',#397,#322,#323);
#275=AXIS2_PLACEMENT_3D('',#399,#324,#325);
#276=AXIS2_PLACEMENT_3D('',#400,#326,#327);
#277=AXIS2_PLACEMENT_3D('',#402,#328,#329);
#278=AXIS2_PLACEMENT_3D('',#403,#330,#331);
#279=AXIS2_PLACEMENT_3D('',#405,#332,#333);
#280=AXIS2_PLACEMENT_3D('',#406,#334,#335);
#281=AXIS2_PLACEMENT_3D('',#423,#337,#338);
#282=AXIS2_PLACEMENT_3D('',#424,#339,#340);
#283=AXIS2_PLACEMENT_3D('',#426,#341,#342);
#284=AXIS2_PLACEMENT_3D('',#428,#343,#344);
#285=AXIS2_PLACEMENT_3D('',#429,#345,#346);
#286=AXIS2_PLACEMENT_3D('',#433,#349,#350);
#287=AXIS2_PLACEMENT_3D('',#435,#351,#352);
#288=AXIS2_PLACEMENT_3D('',#437,#354,#355);
#289=AXIS2_PLACEMENT_3D('',#441,#358,#359);
#290=AXIS2_PLACEMENT_3D('',#445,#362,#363);
#291=DIRECTION('',(0.,0.,1.));
#292=DIRECTION('',(1.,0.,0.));
#293=DIRECTION('',(-1.,0.,0.));
#294=DIRECTION('',(0.,0.,1.));
#295=DIRECTION('',(-1.,0.,0.));
#296=DIRECTION('',(0.,0.,1.));
#297=DIRECTION('',(-1.,0.,0.));
#298=DIRECTION('',(-1.,0.,0.));
#299=DIRECTION('',(0.,0.,1.));
#300=DIRECTION('',(-1.,0.,0.));
#301=DIRECTION('',(0.,0.,1.));
#302=DIRECTION('',(-1.,0.,0.));
#303=DIRECTION('',(0.,0.,1.));
#304=DIRECTION('',(-1.,0.,0.));
#305=DIRECTION('',(0.,0.,1.));
#306=DIRECTION('',(-1.,0.,0.));
#307=DIRECTION('',(0.,0.,1.));
#308=DIRECTION('',(-1.,0.,0.));
#309=DIRECTION('',(0.,0.,1.));
#310=DIRECTION('',(-1.,0.,0.));
#311=DIRECTION('',(0.,0.,1.));
#312=DIRECTION('',(-1.,0.,0.));
#313=DIRECTION('',(0.,0.,1.));
#314=DIRECTION('',(-1.,0.,0.));
#315=DIRECTION('',(0.,0.,1.));
#316=DIRECTION('',(1.,0.,0.));
#317=DIRECTION('',(-3.44757932443533E-18,0.,-1.));
#318=DIRECTION('',(-1.,0.,0.));
#319=DIRECTION('',(0.,0.,1.));
#320=DIRECTION('',(-1.,0.,0.));
#321=DIRECTION('',(0.,0.,1.));
#322=DIRECTION('',(-1.,0.,0.));
#323=DIRECTION('',(0.,0.,1.));
#324=DIRECTION('',(-1.,0.,0.));
#325=DIRECTION('',(0.,0.,1.));
#326=DIRECTION('',(-1.,0.,0.));
#327=DIRECTION('',(0.,0.,1.));
#328=DIRECTION('',(-1.,0.,0.));
#329=DIRECTION('',(0.,0.,1.));
#330=DIRECTION('',(-1.,0.,0.));
#331=DIRECTION('',(0.,0.,1.));
#332=DIRECTION('',(-1.,0.,0.));
#333=DIRECTION('',(0.,0.,1.));
#334=DIRECTION('',(-1.,0.,0.));
#335=DIRECTION('',(0.,0.,1.));
#336=DIRECTION('',(-1.,0.,0.));
#337=DIRECTION('',(-1.,0.,0.));
#338=DIRECTION('',(0.,0.,1.));
#339=DIRECTION('',(-1.,0.,0.));
#340=DIRECTION('',(0.,0.,1.));
#341=DIRECTION('',(-1.,0.,0.));
#342=DIRECTION('',(0.,0.,1.));
#343=DIRECTION('',(1.,0.,0.));
#344=DIRECTION('',(-2.82437781614462E-17,0.,-1.));
#345=DIRECTION('',(-1.,0.,0.));
#346=DIRECTION('',(0.,0.,1.));
#347=DIRECTION('',(0.978646084704628,-0.179809845974516,0.0996005029250506));
#348=DIRECTION('',(-1.,0.,0.));
#349=DIRECTION('',(-1.,0.,0.));
#350=DIRECTION('',(0.,0.,1.));
#351=DIRECTION('',(-0.122787803968973,-0.122787803968973,0.984807753012208));
#352=DIRECTION('',(0.707106781186548,-0.707106781186548,-4.16333634234434E-17));
#353=DIRECTION('',(-1.,0.,0.));
#354=DIRECTION('',(-1.,0.,0.));
#355=DIRECTION('',(0.,0.,1.));
#356=DIRECTION('',(-0.707106781186546,0.707106781186549,-2.21214977686786E-17));
#357=DIRECTION('',(-1.,0.,0.));
#358=DIRECTION('',(-1.,0.,0.));
#359=DIRECTION('',(0.,0.,1.));
#360=DIRECTION('',(-0.978646084704628,0.179809845974516,-0.0996005029250506));
#361=DIRECTION('',(-1.,0.,0.));
#362=DIRECTION('',(-0.122787803968973,-0.122787803968973,0.984807753012209));
#363=DIRECTION('',(-0.707106781186548,0.707106781186548,-1.38777878078145E-17));
#364=DIRECTION('',(-1.,0.,0.));
#365=CARTESIAN_POINT('',(0.,0.,0.));
#366=CARTESIAN_POINT('',(2.59937070161149,0.,0.));
#367=CARTESIAN_POINT('',(2.59937070161149,0.,6.79812634033258));
#368=CARTESIAN_POINT('',(11.6678267526111,0.,0.));
#369=CARTESIAN_POINT('',(11.6678267526111,0.,15.4350890963685));
#370=CARTESIAN_POINT('',(11.6678267526111,15.4350890963685,0.));
#371=CARTESIAN_POINT('',(9.4834391118419,13.3147279994585,0.));
#372=CARTESIAN_POINT('',(7.30937485405803,11.182346851721,0.));
#373=CARTESIAN_POINT('',(4.52818796194336,8.56301245600628,0.));
#374=CARTESIAN_POINT('',(3.96067216824083,8.03415816984352,0.));
#375=CARTESIAN_POINT('',(3.12629094205576,7.27202810687275,0.));
#376=CARTESIAN_POINT('',(2.86362854713767,7.03418035157554,0.));
#377=CARTESIAN_POINT('',(2.59937070161149,6.79812634033258,0.));
#378=CARTESIAN_POINT('',(0.,0.,0.));
#379=CARTESIAN_POINT('',(13.0608519806464,0.,0.));
#380=CARTESIAN_POINT('',(13.0608519806464,0.,16.));
#381=CARTESIAN_POINT('',(13.0608519806464,0.,0.));
#382=CARTESIAN_POINT('',(21.,0.,0.));
#383=CARTESIAN_POINT('',(21.,0.,16.));
#384=CARTESIAN_POINT('',(0.,0.,0.));
#385=CARTESIAN_POINT('',(22.,0.,0.));
#386=CARTESIAN_POINT('',(22.,0.,15.));
#387=CARTESIAN_POINT('',(21.,0.,0.));
#388=CARTESIAN_POINT('',(22.,0.,0.));
#389=CARTESIAN_POINT('',(22.,0.,7.05));
#390=CARTESIAN_POINT('',(22.,7.05,0.));
#391=CARTESIAN_POINT('',(21.2928932188135,0.,0.));
#392=CARTESIAN_POINT('',(21.2928932188135,0.,6.34289321881345));
#393=CARTESIAN_POINT('',(21.2928932188135,0.,0.));
#394=CARTESIAN_POINT('',(20.5857864376269,0.,0.));
#395=CARTESIAN_POINT('',(20.5857864376269,0.,6.05));
#396=CARTESIAN_POINT('',(20.5857864376269,0.,0.));
#397=CARTESIAN_POINT('',(13.,0.,0.));
#398=CARTESIAN_POINT('',(13.,0.,6.05));
#399=CARTESIAN_POINT('',(0.,0.,0.));
#400=CARTESIAN_POINT('',(12.1006998721092,0.,0.));
#401=CARTESIAN_POINT('',(12.1006998721092,0.,6.6126679979929));
#402=CARTESIAN_POINT('',(13.,0.,0.));
#403=CARTESIAN_POINT('',(11.0570879789641,0.,0.));
#404=CARTESIAN_POINT('',(11.0570879789641,0.,7.16486826651095));
#405=CARTESIAN_POINT('',(11.201399744215,0.,0.));
#406=CARTESIAN_POINT('',(2.91050003480994,0.,0.));
#407=CARTESIAN_POINT('',(2.91050003480994,0.,6.1023130150174));
#408=CARTESIAN_POINT('',(1.64899476508112,5.96480163842582,0.));
#409=CARTESIAN_POINT('',(2.17065804731475,6.01988785448642,0.));
#410=CARTESIAN_POINT('',(2.69208978799166,6.07720494337656,0.));
#411=CARTESIAN_POINT('',(3.73444783101665,6.19591630849073,0.));
#412=CARTESIAN_POINT('',(4.25538224994902,6.25731109430446,0.));
#413=CARTESIAN_POINT('',(5.30132395759978,6.38437185696009,0.));
#414=CARTESIAN_POINT('',(5.82633410268557,6.45007107827065,0.));
#415=CARTESIAN_POINT('',(6.87590496070998,6.58490989948628,0.));
#416=CARTESIAN_POINT('',(7.40047139773389,6.65405018154666,0.));
#417=CARTESIAN_POINT('',(8.44917722719741,6.79545216076691,0.));
#418=CARTESIAN_POINT('',(8.97332133664605,6.86771448344765,0.));
#419=CARTESIAN_POINT('',(10.021206627757,7.01506827693657,0.));
#420=CARTESIAN_POINT('',(10.5449516868225,7.09016031270574,0.));
#421=CARTESIAN_POINT('',(11.0685078514662,7.16653392972317,0.));
#422=CARTESIAN_POINT('',(0.,0.,0.));
#423=CARTESIAN_POINT('',(2.86584578657394,0.,0.));
#424=CARTESIAN_POINT('',(7.82829937906743,0.,0.));
#425=CARTESIAN_POINT('',(7.82829937906743,0.,12.6782993790675));
#426=CARTESIAN_POINT('',(0.897062476770822,0.,0.));
#427=CARTESIAN_POINT('',(0.897062476770822,0.,5.74706247677082));
#428=CARTESIAN_POINT('',(0.897062476770822,0.,0.));
#429=CARTESIAN_POINT('',(17.421232210528,0.,0.));
#430=CARTESIAN_POINT('',(17.421232210528,0.,14.4738055757483));
#431=CARTESIAN_POINT('',(7.82829937906743,-12.6782993790675,1.98818575898045E-17));
#432=CARTESIAN_POINT('',(2.59937070161149,0.,0.));
#433=CARTESIAN_POINT('',(17.7657172679981,0.,0.));
#434=CARTESIAN_POINT('',(17.7657172679981,0.,13.8159641473715));
#435=CARTESIAN_POINT('',(17.4871715718701,-14.0504371120619,1.03320665711824));
#436=CARTESIAN_POINT('',(2.59937070161149,0.,0.));
#437=CARTESIAN_POINT('',(10.8344803657015,0.,0.));
#438=CARTESIAN_POINT('',(10.8344803657015,0.,6.92895564454888));
#439=CARTESIAN_POINT('',(17.7657172679981,-13.7718914159339,1.10266592818501));
#440=CARTESIAN_POINT('',(2.59937070161149,0.,0.));
#441=CARTESIAN_POINT('',(1.24154753424094,0.,0.));
#442=CARTESIAN_POINT('',(1.24154753424094,0.,5.07968539474227));
#443=CARTESIAN_POINT('',(10.8344803657015,-6.84065451363726,1.10266592818501));
#444=CARTESIAN_POINT('',(2.59937070161149,0.,0.));
#445=CARTESIAN_POINT('',(1.17560817289884,-5.46851678064282,0.0694592710667723));
#446=CARTESIAN_POINT('',(2.59937070161149,0.,0.));
#447=(
GEOMETRIC_REPRESENTATION_CONTEXT(3)
GLOBAL_UNCERTAINTY_ASSIGNED_CONTEXT((#448))
GLOBAL_UNIT_ASSIGNED_CONTEXT((#454,#450,#449))
REPRESENTATION_CONTEXT('ADCR-120-VB1103','TOP_LEVEL_ASSEMBLY_PART')
);
#448=UNCERTAINTY_MEASURE_WITH_UNIT(LENGTH_MEASURE(0.0508),#454,
'DISTANCE_ACCURACY_VALUE','Maximum Tolerance applied to model');
#449=(
NAMED_UNIT(*)
SI_UNIT($,.STERADIAN.)
SOLID_ANGLE_UNIT()
);
#450=(
CONVERSION_BASED_UNIT('DEGREE',#452)
NAMED_UNIT(#451)
PLANE_ANGLE_UNIT()
);
#451=DIMENSIONAL_EXPONENTS(0.,0.,0.,0.,0.,0.,0.);
#452=PLANE_ANGLE_MEASURE_WITH_UNIT(PLANE_ANGLE_MEASURE(0.0174532925),#453);
#453=(
NAMED_UNIT(*)
PLANE_ANGLE_UNIT()
SI_UNIT($,.RADIAN.)
);
#454=(
LENGTH_UNIT()
NAMED_UNIT(*)
SI_UNIT(.MILLI.,.METRE.)
);
ENDSEC;
END-ISO-10303-21;
