ISO-10303-21;
HEADER;
/* Generated by software containing ST-Developer
 * from STEP Tools, Inc. (www.steptools.com) 
 */
/* OPTION: using custom schema-name function */

FILE_DESCRIPTION(
/* description */ (''),
/* implementation_level */ '2;1');

FILE_NAME(
/* name */ 'ADCR-135-VB1103.stp',
/* time_stamp */ '2023-11-10T14:04:35+03:00',
/* author */ (''),
/* organization */ (''),
/* preprocessor_version */ 'ST-DEVELOPER v19.4',
/* originating_system */ 'SIEMENS PLM Software NX2306.3001',
/* authorisation */ '');

FILE_SCHEMA (('AUTOMOTIVE_DESIGN { 1 0 10303 214 3 1 1 1 }'));
ENDSEC;

DATA;
#10=SHAPE_REPRESENTATION_RELATIONSHIP('None',
'relationship between model1-None and model1-None',#22,#11);
#11=ADVANCED_BREP_SHAPE_REPRESENTATION('model1-None',(#46,#47),#445);
#12=SHAPE_DEFINITION_REPRESENTATION(#13,#22);
#13=PRODUCT_DEFINITION_SHAPE('','',#14);
#14=PRODUCT_DEFINITION(' ','',#16,#15);
#15=PRODUCT_DEFINITION_CONTEXT('part definition',#21,'design');
#16=PRODUCT_DEFINITION_FORMATION_WITH_SPECIFIED_SOURCE(' ',' ',#18,
 .NOT_KNOWN.);
#17=PRODUCT_RELATED_PRODUCT_CATEGORY('part','',(#18));
#18=PRODUCT('model1','model1',' ',(#19));
#19=PRODUCT_CONTEXT(' ',#21,'mechanical');
#20=APPLICATION_PROTOCOL_DEFINITION('international standard',
'automotive_design',2010,#21);
#21=APPLICATION_CONTEXT(
'core data for automotive mechanical design processes');
#22=SHAPE_REPRESENTATION('model1-None',(#259),#445);
#23=DRAUGHTING_PRE_DEFINED_COLOUR('yellow');
#24=LINE('',#430,#27);
#25=LINE('',#434,#28);
#26=LINE('',#442,#29);
#27=VECTOR('',#348,9.80224923124876);
#28=VECTOR('',#352,9.80224923124877);
#29=VECTOR('',#361,9.80224923124879);
#30=PRESENTATION_LAYER_ASSIGNMENT('1','Layer 1',(#46,#47));
#31=STYLED_ITEM('',(#33),#46);
#32=STYLED_ITEM('',(#34),#47);
#33=PRESENTATION_STYLE_ASSIGNMENT((#35));
#34=PRESENTATION_STYLE_ASSIGNMENT((#36));
#35=SURFACE_STYLE_USAGE(.BOTH.,#37);
#36=SURFACE_STYLE_USAGE(.BOTH.,#38);
#37=SURFACE_SIDE_STYLE('',(#39));
#38=SURFACE_SIDE_STYLE('',(#40));
#39=SURFACE_STYLE_FILL_AREA(#41);
#40=SURFACE_STYLE_FILL_AREA(#42);
#41=FILL_AREA_STYLE('',(#43));
#42=FILL_AREA_STYLE('',(#44));
#43=FILL_AREA_STYLE_COLOUR('',#45);
#44=FILL_AREA_STYLE_COLOUR('',#23);
#45=COLOUR_RGB('light gray',0.8,0.8,0.8);
#46=MANIFOLD_SOLID_BREP('',#48);
#47=MANIFOLD_SOLID_BREP('',#49);
#48=CLOSED_SHELL('',(#61,#62,#63,#64,#65,#66,#67,#68,#69,#70,#71,#72));
#49=CLOSED_SHELL('',(#73,#74,#75,#76,#77,#78));
#50=CONICAL_SURFACE('',#271,7.09289321881345,45.);
#51=CONICAL_SURFACE('',#290,13.4282993790675,45.0000000000001);
#52=PLANE('',#269);
#53=CYLINDRICAL_SURFACE('',#265,16.7499999999945);
#54=CYLINDRICAL_SURFACE('',#275,6.8);
#55=TOROIDAL_SURFACE('',#263,14.7499999995719,2.00000000041698);
#56=TOROIDAL_SURFACE('',#267,15.75,1.);
#57=TOROIDAL_SURFACE('',#273,7.8,1.);
#58=TOROIDAL_SURFACE('',#277,7.8,1.00000000001722);
#59=TOROIDAL_SURFACE('',#279,6.897528048561,1.00000000001721);
#60=TOROIDAL_SURFACE('',#281,7.16594120862786,0.4);
#61=ADVANCED_FACE('',(#95,#96),#79,.T.);
#62=ADVANCED_FACE('',(#97,#98),#55,.T.);
#63=ADVANCED_FACE('',(#99,#100),#53,.T.);
#64=ADVANCED_FACE('',(#101,#102),#56,.T.);
#65=ADVANCED_FACE('',(#103,#104),#52,.F.);
#66=ADVANCED_FACE('',(#105,#106),#50,.F.);
#67=ADVANCED_FACE('',(#107,#108),#57,.T.);
#68=ADVANCED_FACE('',(#109,#110),#54,.F.);
#69=ADVANCED_FACE('',(#111,#112),#58,.T.);
#70=ADVANCED_FACE('',(#113,#114),#59,.F.);
#71=ADVANCED_FACE('',(#115,#116),#80,.T.);
#72=ADVANCED_FACE('',(#117,#118),#60,.T.);
#73=ADVANCED_FACE('',(#119,#120),#81,.F.);
#74=ADVANCED_FACE('',(#121,#122),#82,.F.);
#75=ADVANCED_FACE('',(#123,#124),#83,.F.);
#76=ADVANCED_FACE('',(#125,#126),#84,.F.);
#77=ADVANCED_FACE('',(#127,#128),#85,.F.);
#78=ADVANCED_FACE('',(#129,#130),#51,.T.);
#79=SURFACE_OF_REVOLUTION('',#93,#86);
#80=SURFACE_OF_REVOLUTION('',#94,#87);
#81=SURFACE_OF_REVOLUTION('',#253,#88);
#82=SURFACE_OF_REVOLUTION('',#24,#89);
#83=SURFACE_OF_REVOLUTION('',#25,#90);
#84=SURFACE_OF_REVOLUTION('',#257,#91);
#85=SURFACE_OF_REVOLUTION('',#26,#92);
#86=AXIS1_PLACEMENT('',#376,#297);
#87=AXIS1_PLACEMENT('',#420,#336);
#88=AXIS1_PLACEMENT('',#427,#345);
#89=AXIS1_PLACEMENT('',#431,#349);
#90=AXIS1_PLACEMENT('',#435,#353);
#91=AXIS1_PLACEMENT('',#439,#358);
#92=AXIS1_PLACEMENT('',#443,#362);
#93=B_SPLINE_CURVE_WITH_KNOTS('',3,(#370,#371,#372,#373,#374,#375),
 .UNSPECIFIED.,.F.,.F.,(4,2,4),(0.,0.728515940124756,1.),.UNSPECIFIED.);
#94=B_SPLINE_CURVE_WITH_KNOTS('',3,(#406,#407,#408,#409,#410,#411,#412,
#413,#414,#415,#416,#417,#418,#419),.UNSPECIFIED.,.F.,.F.,(4,2,2,2,2,2,
4),(0.,0.133835288528808,0.267666731240678,0.450750432433899,0.633833845535859,
0.816917020503408,1.),.UNSPECIFIED.);
#95=FACE_BOUND('',#131,.T.);
#96=FACE_BOUND('',#132,.T.);
#97=FACE_BOUND('',#133,.T.);
#98=FACE_BOUND('',#134,.T.);
#99=FACE_BOUND('',#135,.T.);
#100=FACE_BOUND('',#136,.T.);
#101=FACE_BOUND('',#137,.T.);
#102=FACE_BOUND('',#138,.T.);
#103=FACE_BOUND('',#139,.T.);
#104=FACE_BOUND('',#140,.T.);
#105=FACE_BOUND('',#141,.T.);
#106=FACE_BOUND('',#142,.T.);
#107=FACE_BOUND('',#143,.T.);
#108=FACE_BOUND('',#144,.T.);
#109=FACE_BOUND('',#145,.T.);
#110=FACE_BOUND('',#146,.T.);
#111=FACE_BOUND('',#147,.T.);
#112=FACE_BOUND('',#148,.T.);
#113=FACE_BOUND('',#149,.T.);
#114=FACE_BOUND('',#150,.T.);
#115=FACE_BOUND('',#151,.T.);
#116=FACE_BOUND('',#152,.T.);
#117=FACE_BOUND('',#153,.T.);
#118=FACE_BOUND('',#154,.T.);
#119=FACE_BOUND('',#155,.T.);
#120=FACE_BOUND('',#156,.T.);
#121=FACE_BOUND('',#157,.T.);
#122=FACE_BOUND('',#158,.T.);
#123=FACE_BOUND('',#159,.T.);
#124=FACE_BOUND('',#160,.T.);
#125=FACE_BOUND('',#161,.T.);
#126=FACE_BOUND('',#162,.T.);
#127=FACE_BOUND('',#163,.T.);
#128=FACE_BOUND('',#164,.T.);
#129=FACE_BOUND('',#165,.T.);
#130=FACE_BOUND('',#166,.T.);
#131=EDGE_LOOP('',(#167));
#132=EDGE_LOOP('',(#168));
#133=EDGE_LOOP('',(#169));
#134=EDGE_LOOP('',(#170));
#135=EDGE_LOOP('',(#171));
#136=EDGE_LOOP('',(#172));
#137=EDGE_LOOP('',(#173));
#138=EDGE_LOOP('',(#174));
#139=EDGE_LOOP('',(#175));
#140=EDGE_LOOP('',(#176));
#141=EDGE_LOOP('',(#177));
#142=EDGE_LOOP('',(#178));
#143=EDGE_LOOP('',(#179));
#144=EDGE_LOOP('',(#180));
#145=EDGE_LOOP('',(#181));
#146=EDGE_LOOP('',(#182));
#147=EDGE_LOOP('',(#183));
#148=EDGE_LOOP('',(#184));
#149=EDGE_LOOP('',(#185));
#150=EDGE_LOOP('',(#186));
#151=EDGE_LOOP('',(#187));
#152=EDGE_LOOP('',(#188));
#153=EDGE_LOOP('',(#189));
#154=EDGE_LOOP('',(#190));
#155=EDGE_LOOP('',(#191));
#156=EDGE_LOOP('',(#192));
#157=EDGE_LOOP('',(#193));
#158=EDGE_LOOP('',(#194));
#159=EDGE_LOOP('',(#195));
#160=EDGE_LOOP('',(#196));
#161=EDGE_LOOP('',(#197));
#162=EDGE_LOOP('',(#198));
#163=EDGE_LOOP('',(#199));
#164=EDGE_LOOP('',(#200));
#165=EDGE_LOOP('',(#201));
#166=EDGE_LOOP('',(#202));
#167=ORIENTED_EDGE('',*,*,#221,.F.);
#168=ORIENTED_EDGE('',*,*,#222,.T.);
#169=ORIENTED_EDGE('',*,*,#222,.F.);
#170=ORIENTED_EDGE('',*,*,#223,.T.);
#171=ORIENTED_EDGE('',*,*,#223,.F.);
#172=ORIENTED_EDGE('',*,*,#224,.T.);
#173=ORIENTED_EDGE('',*,*,#224,.F.);
#174=ORIENTED_EDGE('',*,*,#225,.T.);
#175=ORIENTED_EDGE('',*,*,#225,.F.);
#176=ORIENTED_EDGE('',*,*,#226,.T.);
#177=ORIENTED_EDGE('',*,*,#226,.F.);
#178=ORIENTED_EDGE('',*,*,#227,.T.);
#179=ORIENTED_EDGE('',*,*,#227,.F.);
#180=ORIENTED_EDGE('',*,*,#228,.T.);
#181=ORIENTED_EDGE('',*,*,#228,.F.);
#182=ORIENTED_EDGE('',*,*,#229,.T.);
#183=ORIENTED_EDGE('',*,*,#229,.F.);
#184=ORIENTED_EDGE('',*,*,#230,.T.);
#185=ORIENTED_EDGE('',*,*,#230,.F.);
#186=ORIENTED_EDGE('',*,*,#231,.T.);
#187=ORIENTED_EDGE('',*,*,#231,.F.);
#188=ORIENTED_EDGE('',*,*,#232,.T.);
#189=ORIENTED_EDGE('',*,*,#232,.F.);
#190=ORIENTED_EDGE('',*,*,#221,.T.);
#191=ORIENTED_EDGE('',*,*,#233,.T.);
#192=ORIENTED_EDGE('',*,*,#234,.F.);
#193=ORIENTED_EDGE('',*,*,#235,.T.);
#194=ORIENTED_EDGE('',*,*,#233,.F.);
#195=ORIENTED_EDGE('',*,*,#236,.T.);
#196=ORIENTED_EDGE('',*,*,#235,.F.);
#197=ORIENTED_EDGE('',*,*,#237,.T.);
#198=ORIENTED_EDGE('',*,*,#236,.F.);
#199=ORIENTED_EDGE('',*,*,#238,.T.);
#200=ORIENTED_EDGE('',*,*,#237,.F.);
#201=ORIENTED_EDGE('',*,*,#234,.T.);
#202=ORIENTED_EDGE('',*,*,#238,.F.);
#203=VERTEX_POINT('',#367);
#204=VERTEX_POINT('',#369);
#205=VERTEX_POINT('',#378);
#206=VERTEX_POINT('',#381);
#207=VERTEX_POINT('',#384);
#208=VERTEX_POINT('',#387);
#209=VERTEX_POINT('',#390);
#210=VERTEX_POINT('',#393);
#211=VERTEX_POINT('',#396);
#212=VERTEX_POINT('',#399);
#213=VERTEX_POINT('',#402);
#214=VERTEX_POINT('',#405);
#215=VERTEX_POINT('',#423);
#216=VERTEX_POINT('',#425);
#217=VERTEX_POINT('',#429);
#218=VERTEX_POINT('',#433);
#219=VERTEX_POINT('',#437);
#220=VERTEX_POINT('',#441);
#221=EDGE_CURVE('',#203,#203,#239,.T.);
#222=EDGE_CURVE('',#204,#204,#240,.T.);
#223=EDGE_CURVE('',#205,#205,#241,.T.);
#224=EDGE_CURVE('',#206,#206,#242,.T.);
#225=EDGE_CURVE('',#207,#207,#243,.T.);
#226=EDGE_CURVE('',#208,#208,#244,.T.);
#227=EDGE_CURVE('',#209,#209,#245,.T.);
#228=EDGE_CURVE('',#210,#210,#246,.T.);
#229=EDGE_CURVE('',#211,#211,#247,.T.);
#230=EDGE_CURVE('',#212,#212,#248,.T.);
#231=EDGE_CURVE('',#213,#213,#249,.T.);
#232=EDGE_CURVE('',#214,#214,#250,.T.);
#233=EDGE_CURVE('',#215,#215,#251,.T.);
#234=EDGE_CURVE('',#216,#216,#252,.T.);
#235=EDGE_CURVE('',#217,#217,#254,.T.);
#236=EDGE_CURVE('',#218,#218,#255,.T.);
#237=EDGE_CURVE('',#219,#219,#256,.T.);
#238=EDGE_CURVE('',#220,#220,#258,.T.);
#239=CIRCLE('',#260,7.46160267354594);
#240=CIRCLE('',#261,16.1820208343458);
#241=CIRCLE('',#262,16.7499999999889);
#242=CIRCLE('',#264,16.75);
#243=CIRCLE('',#266,15.75);
#244=CIRCLE('',#268,7.8);
#245=CIRCLE('',#270,7.09289321881345);
#246=CIRCLE('',#272,6.8);
#247=CIRCLE('',#274,6.8);
#248=CIRCLE('',#276,7.34876402428827);
#249=CIRCLE('',#278,7.88646121917351);
#250=CIRCLE('',#280,6.76886518571273);
#251=CIRCLE('',#282,5.82948317548837);
#252=CIRCLE('',#283,6.49706247677083);
#253=CIRCLE('',#284,0.4);
#254=CIRCLE('',#285,7.67032646597143);
#255=CIRCLE('',#286,14.56369467015);
#256=CIRCLE('',#287,15.2221814566728);
#257=CIRCLE('',#288,0.4);
#258=CIRCLE('',#289,13.4282993790675);
#259=AXIS2_PLACEMENT_3D('',#365,#291,#292);
#260=AXIS2_PLACEMENT_3D('',#366,#293,#294);
#261=AXIS2_PLACEMENT_3D('',#368,#295,#296);
#262=AXIS2_PLACEMENT_3D('',#377,#298,#299);
#263=AXIS2_PLACEMENT_3D('',#379,#300,#301);
#264=AXIS2_PLACEMENT_3D('',#380,#302,#303);
#265=AXIS2_PLACEMENT_3D('',#382,#304,#305);
#266=AXIS2_PLACEMENT_3D('',#383,#306,#307);
#267=AXIS2_PLACEMENT_3D('',#385,#308,#309);
#268=AXIS2_PLACEMENT_3D('',#386,#310,#311);
#269=AXIS2_PLACEMENT_3D('',#388,#312,#313);
#270=AXIS2_PLACEMENT_3D('',#389,#314,#315);
#271=AXIS2_PLACEMENT_3D('',#391,#316,#317);
#272=AXIS2_PLACEMENT_3D('',#392,#318,#319);
#273=AXIS2_PLACEMENT_3D('',#394,#320,#321);
#274=AXIS2_PLACEMENT_3D('',#395,#322,#323);
#275=AXIS2_PLACEMENT_3D('',#397,#324,#325);
#276=AXIS2_PLACEMENT_3D('',#398,#326,#327);
#277=AXIS2_PLACEMENT_3D('',#400,#328,#329);
#278=AXIS2_PLACEMENT_3D('',#401,#330,#331);
#279=AXIS2_PLACEMENT_3D('',#403,#332,#333);
#280=AXIS2_PLACEMENT_3D('',#404,#334,#335);
#281=AXIS2_PLACEMENT_3D('',#421,#337,#338);
#282=AXIS2_PLACEMENT_3D('',#422,#339,#340);
#283=AXIS2_PLACEMENT_3D('',#424,#341,#342);
#284=AXIS2_PLACEMENT_3D('',#426,#343,#344);
#285=AXIS2_PLACEMENT_3D('',#428,#346,#347);
#286=AXIS2_PLACEMENT_3D('',#432,#350,#351);
#287=AXIS2_PLACEMENT_3D('',#436,#354,#355);
#288=AXIS2_PLACEMENT_3D('',#438,#356,#357);
#289=AXIS2_PLACEMENT_3D('',#440,#359,#360);
#290=AXIS2_PLACEMENT_3D('',#444,#363,#364);
#291=DIRECTION('',(0.,0.,1.));
#292=DIRECTION('',(1.,0.,0.));
#293=DIRECTION('',(-1.,0.,0.));
#294=DIRECTION('',(0.,0.,1.));
#295=DIRECTION('',(-1.,0.,0.));
#296=DIRECTION('',(0.,0.,1.));
#297=DIRECTION('',(-1.,0.,0.));
#298=DIRECTION('',(-1.,0.,0.));
#299=DIRECTION('',(0.,0.,1.));
#300=DIRECTION('',(-1.,0.,0.));
#301=DIRECTION('',(0.,0.,1.));
#302=DIRECTION('',(-1.,0.,0.));
#303=DIRECTION('',(0.,0.,1.));
#304=DIRECTION('',(-1.,0.,0.));
#305=DIRECTION('',(0.,0.,1.));
#306=DIRECTION('',(-1.,0.,0.));
#307=DIRECTION('',(0.,0.,1.));
#308=DIRECTION('',(-1.,0.,0.));
#309=DIRECTION('',(0.,0.,1.));
#310=DIRECTION('',(-1.,0.,0.));
#311=DIRECTION('',(0.,0.,1.));
#312=DIRECTION('',(-1.,0.,0.));
#313=DIRECTION('',(0.,0.,1.));
#314=DIRECTION('',(-1.,0.,0.));
#315=DIRECTION('',(0.,0.,1.));
#316=DIRECTION('',(1.,0.,0.));
#317=DIRECTION('',(-3.44501185075863E-18,0.,-1.));
#318=DIRECTION('',(-1.,0.,0.));
#319=DIRECTION('',(0.,0.,1.));
#320=DIRECTION('',(-1.,0.,0.));
#321=DIRECTION('',(0.,0.,1.));
#322=DIRECTION('',(-1.,0.,0.));
#323=DIRECTION('',(0.,0.,1.));
#324=DIRECTION('',(-1.,0.,0.));
#325=DIRECTION('',(0.,0.,1.));
#326=DIRECTION('',(-1.,0.,0.));
#327=DIRECTION('',(0.,0.,1.));
#328=DIRECTION('',(-1.,0.,0.));
#329=DIRECTION('',(0.,0.,1.));
#330=DIRECTION('',(-1.,0.,0.));
#331=DIRECTION('',(0.,0.,1.));
#332=DIRECTION('',(-1.,0.,0.));
#333=DIRECTION('',(0.,0.,1.));
#334=DIRECTION('',(-1.,0.,0.));
#335=DIRECTION('',(0.,0.,1.));
#336=DIRECTION('',(-1.,0.,0.));
#337=DIRECTION('',(-1.,0.,0.));
#338=DIRECTION('',(0.,0.,1.));
#339=DIRECTION('',(1.,0.,0.));
#340=DIRECTION('',(0.,0.,-1.));
#341=DIRECTION('',(1.,0.,0.));
#342=DIRECTION('',(0.,0.,-1.));
#343=DIRECTION('',(0.122787803968973,0.122787803968973,-0.984807753012208));
#344=DIRECTION('',(-0.707106781186546,0.707106781186549,4.16333634234434E-17));
#345=DIRECTION('',(1.,0.,0.));
#346=DIRECTION('',(1.,0.,0.));
#347=DIRECTION('',(0.,0.,-1.));
#348=DIRECTION('',(0.978646084704628,-0.179809845974516,0.0996005029250506));
#349=DIRECTION('',(1.,0.,0.));
#350=DIRECTION('',(1.,0.,0.));
#351=DIRECTION('',(0.,0.,-1.));
#352=DIRECTION('',(0.707106781186546,-0.707106781186549,2.21214977686786E-17));
#353=DIRECTION('',(1.,0.,0.));
#354=DIRECTION('',(1.,0.,0.));
#355=DIRECTION('',(0.,0.,-1.));
#356=DIRECTION('',(0.122787803968973,0.122787803968973,-0.984807753012209));
#357=DIRECTION('',(0.707106781186548,-0.707106781186548,2.77555756156289E-17));
#358=DIRECTION('',(1.,0.,0.));
#359=DIRECTION('',(1.,0.,0.));
#360=DIRECTION('',(0.,0.,-1.));
#361=DIRECTION('',(-0.978646084704628,0.179809845974516,-0.0996005029250506));
#362=DIRECTION('',(1.,0.,0.));
#363=DIRECTION('',(1.,0.,0.));
#364=DIRECTION('',(5.13521324707335E-17,0.,-1.));
#365=CARTESIAN_POINT('',(0.,0.,0.));
#366=CARTESIAN_POINT('',(2.58468284025905,0.,0.));
#367=CARTESIAN_POINT('',(2.58468284025905,0.,7.46160267354594));
#368=CARTESIAN_POINT('',(11.6761817881171,0.,0.));
#369=CARTESIAN_POINT('',(11.6761817881171,0.,16.1820208343458));
#370=CARTESIAN_POINT('',(11.6761817881249,16.1820208343378,0.));
#371=CARTESIAN_POINT('',(9.48587281854437,14.0465324890403,0.));
#372=CARTESIAN_POINT('',(7.30218177329593,11.9033871768543,0.));
#373=CARTESIAN_POINT('',(4.25765769156517,9.01093318025809,0.));
#374=CARTESIAN_POINT('',(3.42735348783675,8.22946698512288,0.));
#375=CARTESIAN_POINT('',(2.58468284025905,7.46160267354594,0.));
#376=CARTESIAN_POINT('',(0.,0.,0.));
#377=CARTESIAN_POINT('',(13.0723609780842,0.,0.));
#378=CARTESIAN_POINT('',(13.0723609780842,0.,16.7499999999889));
#379=CARTESIAN_POINT('',(13.0723609780642,0.,0.));
#380=CARTESIAN_POINT('',(21.,0.,0.));
#381=CARTESIAN_POINT('',(21.,0.,16.75));
#382=CARTESIAN_POINT('',(0.,0.,0.));
#383=CARTESIAN_POINT('',(22.,0.,0.));
#384=CARTESIAN_POINT('',(22.,0.,15.75));
#385=CARTESIAN_POINT('',(21.,0.,0.));
#386=CARTESIAN_POINT('',(22.,0.,0.));
#387=CARTESIAN_POINT('',(22.,0.,7.8));
#388=CARTESIAN_POINT('',(22.,7.8,0.));
#389=CARTESIAN_POINT('',(21.2928932188135,0.,0.));
#390=CARTESIAN_POINT('',(21.2928932188135,0.,7.09289321881345));
#391=CARTESIAN_POINT('',(21.2928932188135,0.,0.));
#392=CARTESIAN_POINT('',(20.5857864376269,0.,0.));
#393=CARTESIAN_POINT('',(20.5857864376269,0.,6.8));
#394=CARTESIAN_POINT('',(20.5857864376269,0.,0.));
#395=CARTESIAN_POINT('',(13.,0.,0.));
#396=CARTESIAN_POINT('',(13.,0.,6.8));
#397=CARTESIAN_POINT('',(0.,0.,0.));
#398=CARTESIAN_POINT('',(12.1075953304369,0.,0.));
#399=CARTESIAN_POINT('',(12.1075953304369,0.,7.34876402428827));
#400=CARTESIAN_POINT('',(13.,0.,0.));
#401=CARTESIAN_POINT('',(11.0668289943093,0.,0.));
#402=CARTESIAN_POINT('',(11.0668289943093,0.,7.88646121917351));
#403=CARTESIAN_POINT('',(11.2151906608432,0.,0.));
#404=CARTESIAN_POINT('',(2.90237419276545,0.,0.));
#405=CARTESIAN_POINT('',(2.90237419276545,0.,6.76886518571273));
#406=CARTESIAN_POINT('',(1.64899476508112,6.61996045588948,0.));
#407=CARTESIAN_POINT('',(2.07019565599564,6.66880393431564,0.));
#408=CARTESIAN_POINT('',(2.49125704122739,6.71886377395164,0.));
#409=CARTESIAN_POINT('',(3.33308850632259,6.82124964210973,0.));
#410=CARTESIAN_POINT('',(3.7538616727975,6.87357595446962,0.));
#411=CARTESIAN_POINT('',(4.74993752905352,6.99998523163296,0.));
#412=CARTESIAN_POINT('',(5.32512782185109,7.07498827671622,0.));
#413=CARTESIAN_POINT('',(6.47502332060325,7.22857071965435,0.));
#414=CARTESIAN_POINT('',(7.04973417788571,7.30715085024673,0.));
#415=CARTESIAN_POINT('',(8.1986982843168,7.46754541016423,0.));
#416=CARTESIAN_POINT('',(8.77295615876449,7.54936050324956,0.));
#417=CARTESIAN_POINT('',(9.92104281798253,7.71591400155505,0.));
#418=CARTESIAN_POINT('',(10.4948753823261,7.80065299983035,0.));
#419=CARTESIAN_POINT('',(11.0685078514662,7.88671308841113,0.));
#420=CARTESIAN_POINT('',(0.,0.,0.));
#421=CARTESIAN_POINT('',(2.85409757289723,0.,0.));
#422=CARTESIAN_POINT('',(1.24154753424094,0.,0.));
#423=CARTESIAN_POINT('',(1.24154753424094,0.,-5.82948317548837));
#424=CARTESIAN_POINT('',(0.897062476770818,0.,0.));
#425=CARTESIAN_POINT('',(0.897062476770818,0.,-6.49706247677083));
#426=CARTESIAN_POINT('',(1.17560817289883,-6.21851678064283,0.0694592710667715));
#427=CARTESIAN_POINT('',(20.5857864376269,0.,0.));
#428=CARTESIAN_POINT('',(10.8344803657015,0.,0.));
#429=CARTESIAN_POINT('',(10.8344803657015,0.,-7.67032646597143));
#430=CARTESIAN_POINT('',(1.24154753424094,-5.8281135891626,0.126356974955943));
#431=CARTESIAN_POINT('',(20.5857864376269,0.,0.));
#432=CARTESIAN_POINT('',(17.7657172679981,0.,0.));
#433=CARTESIAN_POINT('',(17.7657172679981,0.,-14.56369467015));
#434=CARTESIAN_POINT('',(10.8344803657015,-7.59065451363726,1.10266592818501));
#435=CARTESIAN_POINT('',(20.5857864376269,0.,0.));
#436=CARTESIAN_POINT('',(17.421232210528,0.,0.));
#437=CARTESIAN_POINT('',(17.421232210528,0.,-15.2221814566728));
#438=CARTESIAN_POINT('',(17.4871715718701,-14.8004371120619,1.03320665711824));
#439=CARTESIAN_POINT('',(20.5857864376269,0.,0.));
#440=CARTESIAN_POINT('',(7.82829937906743,0.,0.));
#441=CARTESIAN_POINT('',(7.82829937906743,0.,-13.4282993790675));
#442=CARTESIAN_POINT('',(17.421232210528,-15.1908403035421,0.97630895322907));
#443=CARTESIAN_POINT('',(20.5857864376269,0.,0.));
#444=CARTESIAN_POINT('',(7.82829937906743,0.,0.));
#445=(
GEOMETRIC_REPRESENTATION_CONTEXT(3)
GLOBAL_UNCERTAINTY_ASSIGNED_CONTEXT((#446))
GLOBAL_UNIT_ASSIGNED_CONTEXT((#452,#448,#447))
REPRESENTATION_CONTEXT('ADCR-135-VB1103','TOP_LEVEL_ASSEMBLY_PART')
);
#446=UNCERTAINTY_MEASURE_WITH_UNIT(LENGTH_MEASURE(0.0508),#452,
'DISTANCE_ACCURACY_VALUE','Maximum Tolerance applied to model');
#447=(
NAMED_UNIT(*)
SI_UNIT($,.STERADIAN.)
SOLID_ANGLE_UNIT()
);
#448=(
CONVERSION_BASED_UNIT('DEGREE',#450)
NAMED_UNIT(#449)
PLANE_ANGLE_UNIT()
);
#449=DIMENSIONAL_EXPONENTS(0.,0.,0.,0.,0.,0.,0.);
#450=PLANE_ANGLE_MEASURE_WITH_UNIT(PLANE_ANGLE_MEASURE(0.0174532925),#451);
#451=(
NAMED_UNIT(*)
PLANE_ANGLE_UNIT()
SI_UNIT($,.RADIAN.)
);
#452=(
LENGTH_UNIT()
NAMED_UNIT(*)
SI_UNIT(.MILLI.,.METRE.)
);
ENDSEC;
END-ISO-10303-21;
