ISO-10303-21;
HEADER;
/* Generated by software containing ST-Developer
 * from STEP Tools, Inc. (www.steptools.com) 
 */
/* OPTION: using custom schema-name function */

FILE_DESCRIPTION(
/* description */ (''),
/* implementation_level */ '2;1');

FILE_NAME(
/* name */ 'ADCR-160-VB1103.stp',
/* time_stamp */ '2023-11-15T09:04:55+03:00',
/* author */ (''),
/* organization */ (''),
/* preprocessor_version */ 'ST-DEVELOPER v19.4',
/* originating_system */ 'SIEMENS PLM Software NX2306.3001',
/* authorisation */ '');

FILE_SCHEMA (('AUTOMOTIVE_DESIGN { 1 0 10303 214 3 1 1 1 }'));
ENDSEC;

DATA;
#10=SHAPE_REPRESENTATION_RELATIONSHIP('None',
'relationship between model1-None and model1-None',#22,#11);
#11=ADVANCED_BREP_SHAPE_REPRESENTATION('model1-None',(#46,#47),#453);
#12=SHAPE_DEFINITION_REPRESENTATION(#13,#22);
#13=PRODUCT_DEFINITION_SHAPE('','',#14);
#14=PRODUCT_DEFINITION(' ','',#16,#15);
#15=PRODUCT_DEFINITION_CONTEXT('part definition',#21,'design');
#16=PRODUCT_DEFINITION_FORMATION_WITH_SPECIFIED_SOURCE(' ',' ',#18,
 .NOT_KNOWN.);
#17=PRODUCT_RELATED_PRODUCT_CATEGORY('part','',(#18));
#18=PRODUCT('model1','model1',' ',(#19));
#19=PRODUCT_CONTEXT(' ',#21,'mechanical');
#20=APPLICATION_PROTOCOL_DEFINITION('international standard',
'automotive_design',2010,#21);
#21=APPLICATION_CONTEXT(
'core data for automotive mechanical design processes');
#22=SHAPE_REPRESENTATION('model1-None',(#259),#453);
#23=DRAUGHTING_PRE_DEFINED_COLOUR('yellow');
#24=LINE('',#437,#27);
#25=LINE('',#445,#28);
#26=LINE('',#449,#29);
#27=VECTOR('',#347,9.80224923124876);
#28=VECTOR('',#356,9.8022492312488);
#29=VECTOR('',#360,9.80224923124876);
#30=PRESENTATION_LAYER_ASSIGNMENT('1','Layer 1',(#46,#47));
#31=STYLED_ITEM('',(#33),#46);
#32=STYLED_ITEM('',(#34),#47);
#33=PRESENTATION_STYLE_ASSIGNMENT((#35));
#34=PRESENTATION_STYLE_ASSIGNMENT((#36));
#35=SURFACE_STYLE_USAGE(.BOTH.,#37);
#36=SURFACE_STYLE_USAGE(.BOTH.,#38);
#37=SURFACE_SIDE_STYLE('',(#39));
#38=SURFACE_SIDE_STYLE('',(#40));
#39=SURFACE_STYLE_FILL_AREA(#41);
#40=SURFACE_STYLE_FILL_AREA(#42);
#41=FILL_AREA_STYLE('',(#43));
#42=FILL_AREA_STYLE('',(#44));
#43=FILL_AREA_STYLE_COLOUR('',#45);
#44=FILL_AREA_STYLE_COLOUR('',#23);
#45=COLOUR_RGB('light gray',0.8,0.8,0.8);
#46=MANIFOLD_SOLID_BREP('',#48);
#47=MANIFOLD_SOLID_BREP('',#49);
#48=CLOSED_SHELL('',(#61,#62,#63,#64,#65,#66,#67,#68,#69,#70,#71,#72));
#49=CLOSED_SHELL('',(#73,#74,#75,#76,#77,#78));
#50=CONICAL_SURFACE('',#271,8.34289321881345,45.);
#51=CONICAL_SURFACE('',#284,7.74706247677082,45.0000000000001);
#52=PLANE('',#269);
#53=CYLINDRICAL_SURFACE('',#265,18.);
#54=CYLINDRICAL_SURFACE('',#275,8.05);
#55=TOROIDAL_SURFACE('',#263,15.9999999995941,2.00000000040585);
#56=TOROIDAL_SURFACE('',#267,17.,1.);
#57=TOROIDAL_SURFACE('',#273,9.05,1.);
#58=TOROIDAL_SURFACE('',#277,9.05,1.00000000001865);
#59=TOROIDAL_SURFACE('',#279,8.2756924632767,1.00000000001867);
#60=TOROIDAL_SURFACE('',#281,8.4443765991064,0.400000000005996);
#61=ADVANCED_FACE('',(#95,#96),#79,.T.);
#62=ADVANCED_FACE('',(#97,#98),#55,.T.);
#63=ADVANCED_FACE('',(#99,#100),#53,.T.);
#64=ADVANCED_FACE('',(#101,#102),#56,.T.);
#65=ADVANCED_FACE('',(#103,#104),#52,.F.);
#66=ADVANCED_FACE('',(#105,#106),#50,.F.);
#67=ADVANCED_FACE('',(#107,#108),#57,.T.);
#68=ADVANCED_FACE('',(#109,#110),#54,.F.);
#69=ADVANCED_FACE('',(#111,#112),#58,.T.);
#70=ADVANCED_FACE('',(#113,#114),#59,.F.);
#71=ADVANCED_FACE('',(#115,#116),#80,.T.);
#72=ADVANCED_FACE('',(#117,#118),#60,.T.);
#73=ADVANCED_FACE('',(#119,#120),#51,.T.);
#74=ADVANCED_FACE('',(#121,#122),#81,.F.);
#75=ADVANCED_FACE('',(#123,#124),#82,.F.);
#76=ADVANCED_FACE('',(#125,#126),#83,.F.);
#77=ADVANCED_FACE('',(#127,#128),#84,.F.);
#78=ADVANCED_FACE('',(#129,#130),#85,.F.);
#79=SURFACE_OF_REVOLUTION('',#93,#86);
#80=SURFACE_OF_REVOLUTION('',#94,#87);
#81=SURFACE_OF_REVOLUTION('',#24,#88);
#82=SURFACE_OF_REVOLUTION('',#255,#89);
#83=SURFACE_OF_REVOLUTION('',#25,#90);
#84=SURFACE_OF_REVOLUTION('',#26,#91);
#85=SURFACE_OF_REVOLUTION('',#258,#92);
#86=AXIS1_PLACEMENT('',#386,#297);
#87=AXIS1_PLACEMENT('',#428,#336);
#88=AXIS1_PLACEMENT('',#438,#348);
#89=AXIS1_PLACEMENT('',#442,#353);
#90=AXIS1_PLACEMENT('',#446,#357);
#91=AXIS1_PLACEMENT('',#450,#361);
#92=AXIS1_PLACEMENT('',#452,#364);
#93=B_SPLINE_CURVE_WITH_KNOTS('',3,(#370,#371,#372,#373,#374,#375,#376,
#377,#378,#379,#380,#381,#382,#383,#384,#385),.UNSPECIFIED.,.F.,.F.,(4,
2,2,2,2,2,2,4),(0.,0.44935387436675,0.550572251119471,0.660770111332707,
0.77096809559209,0.881166313044475,0.991364997246612,1.),.UNSPECIFIED.);
#94=B_SPLINE_CURVE_WITH_KNOTS('',3,(#416,#417,#418,#419,#420,#421,#422,
#423,#424,#425,#426,#427),.UNSPECIFIED.,.F.,.F.,(4,2,2,2,2,4),(0.,0.055531423114798,
0.26429265365453,0.508788893372998,0.753285005090406,1.),.UNSPECIFIED.);
#95=FACE_BOUND('',#131,.T.);
#96=FACE_BOUND('',#132,.T.);
#97=FACE_BOUND('',#133,.T.);
#98=FACE_BOUND('',#134,.T.);
#99=FACE_BOUND('',#135,.T.);
#100=FACE_BOUND('',#136,.T.);
#101=FACE_BOUND('',#137,.T.);
#102=FACE_BOUND('',#138,.T.);
#103=FACE_BOUND('',#139,.T.);
#104=FACE_BOUND('',#140,.T.);
#105=FACE_BOUND('',#141,.T.);
#106=FACE_BOUND('',#142,.T.);
#107=FACE_BOUND('',#143,.T.);
#108=FACE_BOUND('',#144,.T.);
#109=FACE_BOUND('',#145,.T.);
#110=FACE_BOUND('',#146,.T.);
#111=FACE_BOUND('',#147,.T.);
#112=FACE_BOUND('',#148,.T.);
#113=FACE_BOUND('',#149,.T.);
#114=FACE_BOUND('',#150,.T.);
#115=FACE_BOUND('',#151,.T.);
#116=FACE_BOUND('',#152,.T.);
#117=FACE_BOUND('',#153,.T.);
#118=FACE_BOUND('',#154,.T.);
#119=FACE_BOUND('',#155,.T.);
#120=FACE_BOUND('',#156,.T.);
#121=FACE_BOUND('',#157,.T.);
#122=FACE_BOUND('',#158,.T.);
#123=FACE_BOUND('',#159,.T.);
#124=FACE_BOUND('',#160,.T.);
#125=FACE_BOUND('',#161,.T.);
#126=FACE_BOUND('',#162,.T.);
#127=FACE_BOUND('',#163,.T.);
#128=FACE_BOUND('',#164,.T.);
#129=FACE_BOUND('',#165,.T.);
#130=FACE_BOUND('',#166,.T.);
#131=EDGE_LOOP('',(#167));
#132=EDGE_LOOP('',(#168));
#133=EDGE_LOOP('',(#169));
#134=EDGE_LOOP('',(#170));
#135=EDGE_LOOP('',(#171));
#136=EDGE_LOOP('',(#172));
#137=EDGE_LOOP('',(#173));
#138=EDGE_LOOP('',(#174));
#139=EDGE_LOOP('',(#175));
#140=EDGE_LOOP('',(#176));
#141=EDGE_LOOP('',(#177));
#142=EDGE_LOOP('',(#178));
#143=EDGE_LOOP('',(#179));
#144=EDGE_LOOP('',(#180));
#145=EDGE_LOOP('',(#181));
#146=EDGE_LOOP('',(#182));
#147=EDGE_LOOP('',(#183));
#148=EDGE_LOOP('',(#184));
#149=EDGE_LOOP('',(#185));
#150=EDGE_LOOP('',(#186));
#151=EDGE_LOOP('',(#187));
#152=EDGE_LOOP('',(#188));
#153=EDGE_LOOP('',(#189));
#154=EDGE_LOOP('',(#190));
#155=EDGE_LOOP('',(#191));
#156=EDGE_LOOP('',(#192));
#157=EDGE_LOOP('',(#193));
#158=EDGE_LOOP('',(#194));
#159=EDGE_LOOP('',(#195));
#160=EDGE_LOOP('',(#196));
#161=EDGE_LOOP('',(#197));
#162=EDGE_LOOP('',(#198));
#163=EDGE_LOOP('',(#199));
#164=EDGE_LOOP('',(#200));
#165=EDGE_LOOP('',(#201));
#166=EDGE_LOOP('',(#202));
#167=ORIENTED_EDGE('',*,*,#221,.F.);
#168=ORIENTED_EDGE('',*,*,#222,.T.);
#169=ORIENTED_EDGE('',*,*,#222,.F.);
#170=ORIENTED_EDGE('',*,*,#223,.T.);
#171=ORIENTED_EDGE('',*,*,#223,.F.);
#172=ORIENTED_EDGE('',*,*,#224,.T.);
#173=ORIENTED_EDGE('',*,*,#224,.F.);
#174=ORIENTED_EDGE('',*,*,#225,.T.);
#175=ORIENTED_EDGE('',*,*,#225,.F.);
#176=ORIENTED_EDGE('',*,*,#226,.T.);
#177=ORIENTED_EDGE('',*,*,#226,.F.);
#178=ORIENTED_EDGE('',*,*,#227,.T.);
#179=ORIENTED_EDGE('',*,*,#227,.F.);
#180=ORIENTED_EDGE('',*,*,#228,.T.);
#181=ORIENTED_EDGE('',*,*,#228,.F.);
#182=ORIENTED_EDGE('',*,*,#229,.T.);
#183=ORIENTED_EDGE('',*,*,#229,.F.);
#184=ORIENTED_EDGE('',*,*,#230,.T.);
#185=ORIENTED_EDGE('',*,*,#230,.F.);
#186=ORIENTED_EDGE('',*,*,#231,.T.);
#187=ORIENTED_EDGE('',*,*,#231,.F.);
#188=ORIENTED_EDGE('',*,*,#232,.T.);
#189=ORIENTED_EDGE('',*,*,#232,.F.);
#190=ORIENTED_EDGE('',*,*,#221,.T.);
#191=ORIENTED_EDGE('',*,*,#233,.T.);
#192=ORIENTED_EDGE('',*,*,#234,.F.);
#193=ORIENTED_EDGE('',*,*,#235,.T.);
#194=ORIENTED_EDGE('',*,*,#233,.F.);
#195=ORIENTED_EDGE('',*,*,#236,.T.);
#196=ORIENTED_EDGE('',*,*,#235,.F.);
#197=ORIENTED_EDGE('',*,*,#237,.T.);
#198=ORIENTED_EDGE('',*,*,#236,.F.);
#199=ORIENTED_EDGE('',*,*,#238,.T.);
#200=ORIENTED_EDGE('',*,*,#237,.F.);
#201=ORIENTED_EDGE('',*,*,#234,.T.);
#202=ORIENTED_EDGE('',*,*,#238,.F.);
#203=VERTEX_POINT('',#367);
#204=VERTEX_POINT('',#369);
#205=VERTEX_POINT('',#388);
#206=VERTEX_POINT('',#391);
#207=VERTEX_POINT('',#394);
#208=VERTEX_POINT('',#397);
#209=VERTEX_POINT('',#400);
#210=VERTEX_POINT('',#403);
#211=VERTEX_POINT('',#406);
#212=VERTEX_POINT('',#409);
#213=VERTEX_POINT('',#412);
#214=VERTEX_POINT('',#415);
#215=VERTEX_POINT('',#431);
#216=VERTEX_POINT('',#433);
#217=VERTEX_POINT('',#436);
#218=VERTEX_POINT('',#440);
#219=VERTEX_POINT('',#444);
#220=VERTEX_POINT('',#448);
#221=EDGE_CURVE('',#203,#203,#239,.T.);
#222=EDGE_CURVE('',#204,#204,#240,.T.);
#223=EDGE_CURVE('',#205,#205,#241,.T.);
#224=EDGE_CURVE('',#206,#206,#242,.T.);
#225=EDGE_CURVE('',#207,#207,#243,.T.);
#226=EDGE_CURVE('',#208,#208,#244,.T.);
#227=EDGE_CURVE('',#209,#209,#245,.T.);
#228=EDGE_CURVE('',#210,#210,#246,.T.);
#229=EDGE_CURVE('',#211,#211,#247,.T.);
#230=EDGE_CURVE('',#212,#212,#248,.T.);
#231=EDGE_CURVE('',#213,#213,#249,.T.);
#232=EDGE_CURVE('',#214,#214,#250,.T.);
#233=EDGE_CURVE('',#215,#215,#251,.T.);
#234=EDGE_CURVE('',#216,#216,#252,.T.);
#235=EDGE_CURVE('',#217,#217,#253,.T.);
#236=EDGE_CURVE('',#218,#218,#254,.T.);
#237=EDGE_CURVE('',#219,#219,#256,.T.);
#238=EDGE_CURVE('',#220,#220,#257,.T.);
#239=CIRCLE('',#260,8.73658969795857);
#240=CIRCLE('',#261,17.4264572631525);
#241=CIRCLE('',#262,18.);
#242=CIRCLE('',#264,18.);
#243=CIRCLE('',#266,17.);
#244=CIRCLE('',#268,9.05);
#245=CIRCLE('',#270,8.34289321881345);
#246=CIRCLE('',#272,8.05);
#247=CIRCLE('',#274,8.05);
#248=CIRCLE('',#276,8.66284623164557);
#249=CIRCLE('',#278,9.26389636326298);
#250=CIRCLE('',#280,8.04824989253878);
#251=CIRCLE('',#282,14.6782993790675);
#252=CIRCLE('',#283,7.74706247677082);
#253=CIRCLE('',#285,16.4243741634624);
#254=CIRCLE('',#286,15.7561609700804);
#255=CIRCLE('',#287,0.4);
#256=CIRCLE('',#288,8.83984688667481);
#257=CIRCLE('',#289,7.07468773120225);
#258=CIRCLE('',#290,0.4);
#259=AXIS2_PLACEMENT_3D('',#365,#291,#292);
#260=AXIS2_PLACEMENT_3D('',#366,#293,#294);
#261=AXIS2_PLACEMENT_3D('',#368,#295,#296);
#262=AXIS2_PLACEMENT_3D('',#387,#298,#299);
#263=AXIS2_PLACEMENT_3D('',#389,#300,#301);
#264=AXIS2_PLACEMENT_3D('',#390,#302,#303);
#265=AXIS2_PLACEMENT_3D('',#392,#304,#305);
#266=AXIS2_PLACEMENT_3D('',#393,#306,#307);
#267=AXIS2_PLACEMENT_3D('',#395,#308,#309);
#268=AXIS2_PLACEMENT_3D('',#396,#310,#311);
#269=AXIS2_PLACEMENT_3D('',#398,#312,#313);
#270=AXIS2_PLACEMENT_3D('',#399,#314,#315);
#271=AXIS2_PLACEMENT_3D('',#401,#316,#317);
#272=AXIS2_PLACEMENT_3D('',#402,#318,#319);
#273=AXIS2_PLACEMENT_3D('',#404,#320,#321);
#274=AXIS2_PLACEMENT_3D('',#405,#322,#323);
#275=AXIS2_PLACEMENT_3D('',#407,#324,#325);
#276=AXIS2_PLACEMENT_3D('',#408,#326,#327);
#277=AXIS2_PLACEMENT_3D('',#410,#328,#329);
#278=AXIS2_PLACEMENT_3D('',#411,#330,#331);
#279=AXIS2_PLACEMENT_3D('',#413,#332,#333);
#280=AXIS2_PLACEMENT_3D('',#414,#334,#335);
#281=AXIS2_PLACEMENT_3D('',#429,#337,#338);
#282=AXIS2_PLACEMENT_3D('',#430,#339,#340);
#283=AXIS2_PLACEMENT_3D('',#432,#341,#342);
#284=AXIS2_PLACEMENT_3D('',#434,#343,#344);
#285=AXIS2_PLACEMENT_3D('',#435,#345,#346);
#286=AXIS2_PLACEMENT_3D('',#439,#349,#350);
#287=AXIS2_PLACEMENT_3D('',#441,#351,#352);
#288=AXIS2_PLACEMENT_3D('',#443,#354,#355);
#289=AXIS2_PLACEMENT_3D('',#447,#358,#359);
#290=AXIS2_PLACEMENT_3D('',#451,#362,#363);
#291=DIRECTION('',(0.,0.,1.));
#292=DIRECTION('',(1.,0.,0.));
#293=DIRECTION('',(-1.,0.,0.));
#294=DIRECTION('',(0.,0.,1.));
#295=DIRECTION('',(-1.,0.,0.));
#296=DIRECTION('',(0.,0.,1.));
#297=DIRECTION('',(-1.,0.,0.));
#298=DIRECTION('',(-1.,0.,0.));
#299=DIRECTION('',(0.,0.,1.));
#300=DIRECTION('',(-1.,0.,0.));
#301=DIRECTION('',(0.,0.,1.));
#302=DIRECTION('',(-1.,0.,0.));
#303=DIRECTION('',(0.,0.,1.));
#304=DIRECTION('',(-1.,0.,0.));
#305=DIRECTION('',(0.,0.,1.));
#306=DIRECTION('',(-1.,0.,0.));
#307=DIRECTION('',(0.,0.,1.));
#308=DIRECTION('',(-1.,0.,0.));
#309=DIRECTION('',(0.,0.,1.));
#310=DIRECTION('',(-1.,0.,0.));
#311=DIRECTION('',(0.,0.,1.));
#312=DIRECTION('',(-1.,0.,0.));
#313=DIRECTION('',(0.,0.,1.));
#314=DIRECTION('',(-1.,0.,0.));
#315=DIRECTION('',(0.,0.,1.));
#316=DIRECTION('',(1.,0.,0.));
#317=DIRECTION('',(-3.44074121539997E-18,0.,-1.));
#318=DIRECTION('',(-1.,0.,0.));
#319=DIRECTION('',(0.,0.,1.));
#320=DIRECTION('',(-1.,0.,0.));
#321=DIRECTION('',(0.,0.,1.));
#322=DIRECTION('',(-1.,0.,0.));
#323=DIRECTION('',(0.,0.,1.));
#324=DIRECTION('',(-1.,0.,0.));
#325=DIRECTION('',(0.,0.,1.));
#326=DIRECTION('',(-1.,0.,0.));
#327=DIRECTION('',(0.,0.,1.));
#328=DIRECTION('',(-1.,0.,0.));
#329=DIRECTION('',(0.,0.,1.));
#330=DIRECTION('',(-1.,0.,0.));
#331=DIRECTION('',(0.,0.,1.));
#332=DIRECTION('',(-1.,0.,0.));
#333=DIRECTION('',(0.,0.,1.));
#334=DIRECTION('',(-1.,0.,0.));
#335=DIRECTION('',(0.,0.,1.));
#336=DIRECTION('',(-1.,0.,0.));
#337=DIRECTION('',(-1.,0.,0.));
#338=DIRECTION('',(0.,0.,1.));
#339=DIRECTION('',(-1.,0.,0.));
#340=DIRECTION('',(0.,0.,1.));
#341=DIRECTION('',(-1.,0.,0.));
#342=DIRECTION('',(0.,0.,1.));
#343=DIRECTION('',(1.,0.,0.));
#344=DIRECTION('',(-2.81877248536013E-17,0.,-1.));
#345=DIRECTION('',(-1.,0.,0.));
#346=DIRECTION('',(0.,0.,1.));
#347=DIRECTION('',(0.98178462277755,-0.176671307901594,0.069901383690766));
#348=DIRECTION('',(-1.,0.,0.));
#349=DIRECTION('',(-1.,0.,0.));
#350=DIRECTION('',(0.,0.,1.));
#351=DIRECTION('',(-0.0861746391405321,-0.0861746391405321,0.992546151641322));
#352=DIRECTION('',(0.707106781186547,-0.707106781186548,-2.77555756156289E-17));
#353=DIRECTION('',(-1.,0.,0.));
#354=DIRECTION('',(-1.,0.,0.));
#355=DIRECTION('',(0.,0.,1.));
#356=DIRECTION('',(-0.707106781186547,0.707106781186548,-2.21214977686785E-17));
#357=DIRECTION('',(-1.,0.,0.));
#358=DIRECTION('',(-1.,0.,0.));
#359=DIRECTION('',(0.,0.,1.));
#360=DIRECTION('',(-0.98178462277755,0.176671307901594,-0.069901383690766));
#361=DIRECTION('',(-1.,0.,0.));
#362=DIRECTION('',(-0.0861746391405322,-0.0861746391405319,0.992546151641322));
#363=DIRECTION('',(-0.707106781186546,0.707106781186549,-2.77555756156289E-17));
#364=DIRECTION('',(-1.,0.,0.));
#365=CARTESIAN_POINT('',(0.,0.,0.));
#366=CARTESIAN_POINT('',(2.46569081957437,0.,0.));
#367=CARTESIAN_POINT('',(2.46569081957437,0.,8.73658969795857));
#368=CARTESIAN_POINT('',(11.4480790824418,0.,0.));
#369=CARTESIAN_POINT('',(11.4480790824418,0.,17.4264572631525));
#370=CARTESIAN_POINT('',(11.4480790824418,17.4264572631525,0.));
#371=CARTESIAN_POINT('',(10.1129180271075,16.1143164524939,0.));
#372=CARTESIAN_POINT('',(8.7765922591833,14.8032717953252,0.));
#373=CARTESIAN_POINT('',(7.13280455571265,13.203543027942,0.));
#374=CARTESIAN_POINT('',(6.83034006093826,12.909719553327,0.));
#375=CARTESIAN_POINT('',(6.19789289704042,12.2967141754323,0.));
#376=CARTESIAN_POINT('',(5.86784994322964,11.9775934409611,0.));
#377=CARTESIAN_POINT('',(5.20677467685595,11.3403788620476,0.));
#378=CARTESIAN_POINT('',(4.87574269746614,11.0222828654059,0.));
#379=CARTESIAN_POINT('',(4.21239353297347,10.3874344357679,0.));
#380=CARTESIAN_POINT('',(3.88007687044457,10.0706783020316,0.));
#381=CARTESIAN_POINT('',(3.21373287229006,9.43897133222063,0.));
#382=CARTESIAN_POINT('',(2.87970636330486,9.12401377877087,0.));
#383=CARTESIAN_POINT('',(2.51824368086769,8.7857291903142,0.));
#384=CARTESIAN_POINT('',(2.49197095857701,8.76115549604955,0.));
#385=CARTESIAN_POINT('',(2.46569081957027,8.73658969796295,0.));
#386=CARTESIAN_POINT('',(0.,0.,0.));
#387=CARTESIAN_POINT('',(12.8499420132824,0.,0.));
#388=CARTESIAN_POINT('',(12.8499420132824,0.,18.));
#389=CARTESIAN_POINT('',(12.8499420132824,0.,0.));
#390=CARTESIAN_POINT('',(21.,0.,0.));
#391=CARTESIAN_POINT('',(21.,0.,18.));
#392=CARTESIAN_POINT('',(0.,0.,0.));
#393=CARTESIAN_POINT('',(22.,0.,0.));
#394=CARTESIAN_POINT('',(22.,0.,17.));
#395=CARTESIAN_POINT('',(21.,0.,0.));
#396=CARTESIAN_POINT('',(22.,0.,0.));
#397=CARTESIAN_POINT('',(22.,0.,9.05));
#398=CARTESIAN_POINT('',(22.,9.05,0.));
#399=CARTESIAN_POINT('',(21.2928932188135,0.,0.));
#400=CARTESIAN_POINT('',(21.2928932188135,0.,8.34289321881345));
#401=CARTESIAN_POINT('',(21.2928932188135,0.,0.));
#402=CARTESIAN_POINT('',(20.5857864376269,0.,0.));
#403=CARTESIAN_POINT('',(20.5857864376269,0.,8.05));
#404=CARTESIAN_POINT('',(20.5857864376269,0.,0.));
#405=CARTESIAN_POINT('',(13.,0.,0.));
#406=CARTESIAN_POINT('',(13.,0.,8.05));
#407=CARTESIAN_POINT('',(0.,0.,0.));
#408=CARTESIAN_POINT('',(12.077984837605,0.,0.));
#409=CARTESIAN_POINT('',(12.077984837605,0.,8.66284623164557));
#410=CARTESIAN_POINT('',(13.,0.,0.));
#411=CARTESIAN_POINT('',(11.0028257817641,0.,0.));
#412=CARTESIAN_POINT('',(11.0028257817641,0.,9.26389636326298));
#413=CARTESIAN_POINT('',(11.1559696751756,0.,0.));
#414=CARTESIAN_POINT('',(2.79437234879347,0.,0.));
#415=CARTESIAN_POINT('',(2.79437234879347,0.,8.04824989253878));
#416=CARTESIAN_POINT('',(2.79437234879352,8.04824989253879,0.));
#417=CARTESIAN_POINT('',(2.94648594388583,8.06957372215034,0.));
#418=CARTESIAN_POINT('',(3.09858895444201,8.09097283736234,0.));
#419=CARTESIAN_POINT('',(3.82244847046775,8.19316774011185,0.));
#420=CARTESIAN_POINT('',(4.39406977454663,8.2749277907753,0.));
#421=CARTESIAN_POINT('',(5.63486070957957,8.45449895723145,0.));
#422=CARTESIAN_POINT('',(6.30398140147483,8.5526620164401,0.));
#423=CARTESIAN_POINT('',(7.64187323053124,8.75132352119577,0.));
#424=CARTESIAN_POINT('',(8.31064643229123,8.851822374086,0.));
#425=CARTESIAN_POINT('',(9.65393930360435,9.05584496105354,0.));
#426=CARTESIAN_POINT('',(10.3284577457253,9.15938822819961,0.));
#427=CARTESIAN_POINT('',(11.002825781767,9.26389636324453,0.));
#428=CARTESIAN_POINT('',(0.,0.,0.));
#429=CARTESIAN_POINT('',(2.73884188558732,0.,0.));
#430=CARTESIAN_POINT('',(7.82829937906744,0.,0.));
#431=CARTESIAN_POINT('',(7.82829937906744,0.,14.6782993790675));
#432=CARTESIAN_POINT('',(0.897062476770822,0.,0.));
#433=CARTESIAN_POINT('',(0.897062476770822,0.,7.74706247677082));
#434=CARTESIAN_POINT('',(0.897062476770822,0.,0.));
#435=CARTESIAN_POINT('',(17.4519969429405,0.,0.));
#436=CARTESIAN_POINT('',(17.4519969429405,0.,16.4243741634624));
#437=CARTESIAN_POINT('',(7.82829937906744,-14.6782993790675,1.15352395861109E-15));
#438=CARTESIAN_POINT('',(2.46569081957437,0.,0.));
#439=CARTESIAN_POINT('',(17.8004636688263,0.,0.));
#440=CARTESIAN_POINT('',(17.8004636688263,0.,15.7561609700804));
#441=CARTESIAN_POINT('',(17.5197292230398,-16.0178794608922,0.725122593260631));
#442=CARTESIAN_POINT('',(2.46569081957437,0.,0.));
#443=CARTESIAN_POINT('',(10.8692267665297,0.,0.));
#444=CARTESIAN_POINT('',(10.8692267665297,0.,8.83984688667481));
#445=CARTESIAN_POINT('',(17.8004636688263,-15.7371450151057,0.773870330622689));
#446=CARTESIAN_POINT('',(2.46569081957437,0.,0.));
#447=CARTESIAN_POINT('',(1.24552920265658,0.,0.));
#448=CARTESIAN_POINT('',(1.24552920265658,0.,7.07468773120225));
#449=CARTESIAN_POINT('',(10.8692267665297,-8.80590811280908,0.77387033062269));
#450=CARTESIAN_POINT('',(2.46569081957437,0.,0.));
#451=CARTESIAN_POINT('',(1.17779692255729,-7.46632803098435,0.0487477373620592));
#452=CARTESIAN_POINT('',(2.46569081957437,0.,0.));
#453=(
GEOMETRIC_REPRESENTATION_CONTEXT(3)
GLOBAL_UNCERTAINTY_ASSIGNED_CONTEXT((#454))
GLOBAL_UNIT_ASSIGNED_CONTEXT((#460,#456,#455))
REPRESENTATION_CONTEXT('ADCR-160-VB1103','TOP_LEVEL_ASSEMBLY_PART')
);
#454=UNCERTAINTY_MEASURE_WITH_UNIT(LENGTH_MEASURE(0.0508),#460,
'DISTANCE_ACCURACY_VALUE','Maximum Tolerance applied to model');
#455=(
NAMED_UNIT(*)
SI_UNIT($,.STERADIAN.)
SOLID_ANGLE_UNIT()
);
#456=(
CONVERSION_BASED_UNIT('DEGREE',#458)
NAMED_UNIT(#457)
PLANE_ANGLE_UNIT()
);
#457=DIMENSIONAL_EXPONENTS(0.,0.,0.,0.,0.,0.,0.);
#458=PLANE_ANGLE_MEASURE_WITH_UNIT(PLANE_ANGLE_MEASURE(0.0174532925),#459);
#459=(
NAMED_UNIT(*)
PLANE_ANGLE_UNIT()
SI_UNIT($,.RADIAN.)
);
#460=(
LENGTH_UNIT()
NAMED_UNIT(*)
SI_UNIT(.MILLI.,.METRE.)
);
ENDSEC;
END-ISO-10303-21;
