ISO-10303-21;
HEADER;
/* Generated by software containing ST-Developer
 * from STEP Tools, Inc. (www.steptools.com) 
 */
/* OPTION: using custom schema-name function */

FILE_DESCRIPTION(
/* description */ (''),
/* implementation_level */ '2;1');

FILE_NAME(
/* name */ 'ADCR-225-VB1103.stp',
/* time_stamp */ '2023-11-15T02:56:00+03:00',
/* author */ (''),
/* organization */ (''),
/* preprocessor_version */ 'ST-DEVELOPER v19.4',
/* originating_system */ 'SIEMENS PLM Software NX2306.3001',
/* authorisation */ '');

FILE_SCHEMA (('AUTOMOTIVE_DESIGN { 1 0 10303 214 3 1 1 1 }'));
ENDSEC;

DATA;
#10=SHAPE_REPRESENTATION_RELATIONSHIP('None',
'relationship between model1-None and model1-None',#22,#11);
#11=ADVANCED_BREP_SHAPE_REPRESENTATION('model1-None',(#46,#47),#453);
#12=SHAPE_DEFINITION_REPRESENTATION(#13,#22);
#13=PRODUCT_DEFINITION_SHAPE('','',#14);
#14=PRODUCT_DEFINITION(' ','',#16,#15);
#15=PRODUCT_DEFINITION_CONTEXT('part definition',#21,'design');
#16=PRODUCT_DEFINITION_FORMATION_WITH_SPECIFIED_SOURCE(' ',' ',#18,
 .NOT_KNOWN.);
#17=PRODUCT_RELATED_PRODUCT_CATEGORY('part','',(#18));
#18=PRODUCT('model1','model1',' ',(#19));
#19=PRODUCT_CONTEXT(' ',#21,'mechanical');
#20=APPLICATION_PROTOCOL_DEFINITION('international standard',
'automotive_design',2010,#21);
#21=APPLICATION_CONTEXT(
'core data for automotive mechanical design processes');
#22=SHAPE_REPRESENTATION('model1-None',(#259),#453);
#23=DRAUGHTING_PRE_DEFINED_COLOUR('yellow');
#24=LINE('',#441,#27);
#25=LINE('',#449,#28);
#26=LINE('',#451,#29);
#27=VECTOR('',#352,9.80224923124874);
#28=VECTOR('',#361,9.80224923124878);
#29=VECTOR('',#363,9.80224923124881);
#30=PRESENTATION_LAYER_ASSIGNMENT('1','Layer 1',(#46,#47));
#31=STYLED_ITEM('',(#33),#46);
#32=STYLED_ITEM('',(#34),#47);
#33=PRESENTATION_STYLE_ASSIGNMENT((#35));
#34=PRESENTATION_STYLE_ASSIGNMENT((#36));
#35=SURFACE_STYLE_USAGE(.BOTH.,#37);
#36=SURFACE_STYLE_USAGE(.BOTH.,#38);
#37=SURFACE_SIDE_STYLE('',(#39));
#38=SURFACE_SIDE_STYLE('',(#40));
#39=SURFACE_STYLE_FILL_AREA(#41);
#40=SURFACE_STYLE_FILL_AREA(#42);
#41=FILL_AREA_STYLE('',(#43));
#42=FILL_AREA_STYLE('',(#44));
#43=FILL_AREA_STYLE_COLOUR('',#45);
#44=FILL_AREA_STYLE_COLOUR('',#23);
#45=COLOUR_RGB('light gray',0.8,0.8,0.8);
#46=MANIFOLD_SOLID_BREP('',#48);
#47=MANIFOLD_SOLID_BREP('',#49);
#48=CLOSED_SHELL('',(#61,#62,#63,#64,#65,#66,#67,#68,#69,#70,#71,#72));
#49=CLOSED_SHELL('',(#73,#74,#75,#76,#77,#78));
#50=CONICAL_SURFACE('',#271,11.5928932188135,45.);
#51=CONICAL_SURFACE('',#286,10.9970624767708,44.9999999999999);
#52=PLANE('',#269);
#53=CYLINDRICAL_SURFACE('',#265,21.25);
#54=CYLINDRICAL_SURFACE('',#275,11.3);
#55=TOROIDAL_SURFACE('',#263,19.2499999995941,2.00000000040586);
#56=TOROIDAL_SURFACE('',#267,20.25,1.);
#57=TOROIDAL_SURFACE('',#273,12.3,1.);
#58=TOROIDAL_SURFACE('',#277,12.3,1.);
#59=TOROIDAL_SURFACE('',#279,11.6129006925182,1.);
#60=TOROIDAL_SURFACE('',#281,11.6526100543186,0.400000000000491);
#61=ADVANCED_FACE('',(#95,#96),#79,.T.);
#62=ADVANCED_FACE('',(#97,#98),#55,.T.);
#63=ADVANCED_FACE('',(#99,#100),#53,.T.);
#64=ADVANCED_FACE('',(#101,#102),#56,.T.);
#65=ADVANCED_FACE('',(#103,#104),#52,.F.);
#66=ADVANCED_FACE('',(#105,#106),#50,.F.);
#67=ADVANCED_FACE('',(#107,#108),#57,.T.);
#68=ADVANCED_FACE('',(#109,#110),#54,.F.);
#69=ADVANCED_FACE('',(#111,#112),#58,.T.);
#70=ADVANCED_FACE('',(#113,#114),#59,.F.);
#71=ADVANCED_FACE('',(#115,#116),#80,.T.);
#72=ADVANCED_FACE('',(#117,#118),#60,.T.);
#73=ADVANCED_FACE('',(#119,#120),#81,.F.);
#74=ADVANCED_FACE('',(#121,#122),#51,.T.);
#75=ADVANCED_FACE('',(#123,#124),#82,.F.);
#76=ADVANCED_FACE('',(#125,#126),#83,.F.);
#77=ADVANCED_FACE('',(#127,#128),#84,.F.);
#78=ADVANCED_FACE('',(#129,#130),#85,.F.);
#79=SURFACE_OF_REVOLUTION('',#93,#86);
#80=SURFACE_OF_REVOLUTION('',#94,#87);
#81=SURFACE_OF_REVOLUTION('',#253,#88);
#82=SURFACE_OF_REVOLUTION('',#24,#89);
#83=SURFACE_OF_REVOLUTION('',#257,#90);
#84=SURFACE_OF_REVOLUTION('',#25,#91);
#85=SURFACE_OF_REVOLUTION('',#26,#92);
#86=AXIS1_PLACEMENT('',#382,#297);
#87=AXIS1_PLACEMENT('',#428,#336);
#88=AXIS1_PLACEMENT('',#435,#345);
#89=AXIS1_PLACEMENT('',#442,#353);
#90=AXIS1_PLACEMENT('',#446,#358);
#91=AXIS1_PLACEMENT('',#450,#362);
#92=AXIS1_PLACEMENT('',#452,#364);
#93=B_SPLINE_CURVE_WITH_KNOTS('',3,(#370,#371,#372,#373,#374,#375,#376,
#377,#378,#379,#380,#381),.UNSPECIFIED.,.F.,.F.,(4,2,2,2,2,4),(0.,0.48764192447197,
0.634713713988069,0.790506581620946,0.946299609585182,1.),.UNSPECIFIED.);
#94=B_SPLINE_CURVE_WITH_KNOTS('',3,(#412,#413,#414,#415,#416,#417,#418,
#419,#420,#421,#422,#423,#424,#425,#426,#427),.UNSPECIFIED.,.F.,.F.,(4,
2,2,2,2,2,2,4),(0.,0.0129653545747499,0.177871914370984,0.340581651746149,
0.50329138671641,0.666001119564617,0.82871085053757,1.),.UNSPECIFIED.);
#95=FACE_BOUND('',#131,.T.);
#96=FACE_BOUND('',#132,.T.);
#97=FACE_BOUND('',#133,.T.);
#98=FACE_BOUND('',#134,.T.);
#99=FACE_BOUND('',#135,.T.);
#100=FACE_BOUND('',#136,.T.);
#101=FACE_BOUND('',#137,.T.);
#102=FACE_BOUND('',#138,.T.);
#103=FACE_BOUND('',#139,.T.);
#104=FACE_BOUND('',#140,.T.);
#105=FACE_BOUND('',#141,.T.);
#106=FACE_BOUND('',#142,.T.);
#107=FACE_BOUND('',#143,.T.);
#108=FACE_BOUND('',#144,.T.);
#109=FACE_BOUND('',#145,.T.);
#110=FACE_BOUND('',#146,.T.);
#111=FACE_BOUND('',#147,.T.);
#112=FACE_BOUND('',#148,.T.);
#113=FACE_BOUND('',#149,.T.);
#114=FACE_BOUND('',#150,.T.);
#115=FACE_BOUND('',#151,.T.);
#116=FACE_BOUND('',#152,.T.);
#117=FACE_BOUND('',#153,.T.);
#118=FACE_BOUND('',#154,.T.);
#119=FACE_BOUND('',#155,.T.);
#120=FACE_BOUND('',#156,.T.);
#121=FACE_BOUND('',#157,.T.);
#122=FACE_BOUND('',#158,.T.);
#123=FACE_BOUND('',#159,.T.);
#124=FACE_BOUND('',#160,.T.);
#125=FACE_BOUND('',#161,.T.);
#126=FACE_BOUND('',#162,.T.);
#127=FACE_BOUND('',#163,.T.);
#128=FACE_BOUND('',#164,.T.);
#129=FACE_BOUND('',#165,.T.);
#130=FACE_BOUND('',#166,.T.);
#131=EDGE_LOOP('',(#167));
#132=EDGE_LOOP('',(#168));
#133=EDGE_LOOP('',(#169));
#134=EDGE_LOOP('',(#170));
#135=EDGE_LOOP('',(#171));
#136=EDGE_LOOP('',(#172));
#137=EDGE_LOOP('',(#173));
#138=EDGE_LOOP('',(#174));
#139=EDGE_LOOP('',(#175));
#140=EDGE_LOOP('',(#176));
#141=EDGE_LOOP('',(#177));
#142=EDGE_LOOP('',(#178));
#143=EDGE_LOOP('',(#179));
#144=EDGE_LOOP('',(#180));
#145=EDGE_LOOP('',(#181));
#146=EDGE_LOOP('',(#182));
#147=EDGE_LOOP('',(#183));
#148=EDGE_LOOP('',(#184));
#149=EDGE_LOOP('',(#185));
#150=EDGE_LOOP('',(#186));
#151=EDGE_LOOP('',(#187));
#152=EDGE_LOOP('',(#188));
#153=EDGE_LOOP('',(#189));
#154=EDGE_LOOP('',(#190));
#155=EDGE_LOOP('',(#191));
#156=EDGE_LOOP('',(#192));
#157=EDGE_LOOP('',(#193));
#158=EDGE_LOOP('',(#194));
#159=EDGE_LOOP('',(#195));
#160=EDGE_LOOP('',(#196));
#161=EDGE_LOOP('',(#197));
#162=EDGE_LOOP('',(#198));
#163=EDGE_LOOP('',(#199));
#164=EDGE_LOOP('',(#200));
#165=EDGE_LOOP('',(#201));
#166=EDGE_LOOP('',(#202));
#167=ORIENTED_EDGE('',*,*,#221,.F.);
#168=ORIENTED_EDGE('',*,*,#222,.T.);
#169=ORIENTED_EDGE('',*,*,#222,.F.);
#170=ORIENTED_EDGE('',*,*,#223,.T.);
#171=ORIENTED_EDGE('',*,*,#223,.F.);
#172=ORIENTED_EDGE('',*,*,#224,.T.);
#173=ORIENTED_EDGE('',*,*,#224,.F.);
#174=ORIENTED_EDGE('',*,*,#225,.T.);
#175=ORIENTED_EDGE('',*,*,#225,.F.);
#176=ORIENTED_EDGE('',*,*,#226,.T.);
#177=ORIENTED_EDGE('',*,*,#226,.F.);
#178=ORIENTED_EDGE('',*,*,#227,.T.);
#179=ORIENTED_EDGE('',*,*,#227,.F.);
#180=ORIENTED_EDGE('',*,*,#228,.T.);
#181=ORIENTED_EDGE('',*,*,#228,.F.);
#182=ORIENTED_EDGE('',*,*,#229,.T.);
#183=ORIENTED_EDGE('',*,*,#229,.F.);
#184=ORIENTED_EDGE('',*,*,#230,.T.);
#185=ORIENTED_EDGE('',*,*,#230,.F.);
#186=ORIENTED_EDGE('',*,*,#231,.T.);
#187=ORIENTED_EDGE('',*,*,#231,.F.);
#188=ORIENTED_EDGE('',*,*,#232,.T.);
#189=ORIENTED_EDGE('',*,*,#232,.F.);
#190=ORIENTED_EDGE('',*,*,#221,.T.);
#191=ORIENTED_EDGE('',*,*,#233,.T.);
#192=ORIENTED_EDGE('',*,*,#234,.F.);
#193=ORIENTED_EDGE('',*,*,#235,.T.);
#194=ORIENTED_EDGE('',*,*,#233,.F.);
#195=ORIENTED_EDGE('',*,*,#236,.T.);
#196=ORIENTED_EDGE('',*,*,#235,.F.);
#197=ORIENTED_EDGE('',*,*,#237,.T.);
#198=ORIENTED_EDGE('',*,*,#236,.F.);
#199=ORIENTED_EDGE('',*,*,#238,.T.);
#200=ORIENTED_EDGE('',*,*,#237,.F.);
#201=ORIENTED_EDGE('',*,*,#234,.T.);
#202=ORIENTED_EDGE('',*,*,#238,.F.);
#203=VERTEX_POINT('',#367);
#204=VERTEX_POINT('',#369);
#205=VERTEX_POINT('',#384);
#206=VERTEX_POINT('',#387);
#207=VERTEX_POINT('',#390);
#208=VERTEX_POINT('',#393);
#209=VERTEX_POINT('',#396);
#210=VERTEX_POINT('',#399);
#211=VERTEX_POINT('',#402);
#212=VERTEX_POINT('',#405);
#213=VERTEX_POINT('',#408);
#214=VERTEX_POINT('',#411);
#215=VERTEX_POINT('',#431);
#216=VERTEX_POINT('',#433);
#217=VERTEX_POINT('',#437);
#218=VERTEX_POINT('',#440);
#219=VERTEX_POINT('',#444);
#220=VERTEX_POINT('',#448);
#221=EDGE_CURVE('',#203,#203,#239,.T.);
#222=EDGE_CURVE('',#204,#204,#240,.T.);
#223=EDGE_CURVE('',#205,#205,#241,.T.);
#224=EDGE_CURVE('',#206,#206,#242,.T.);
#225=EDGE_CURVE('',#207,#207,#243,.T.);
#226=EDGE_CURVE('',#208,#208,#244,.T.);
#227=EDGE_CURVE('',#209,#209,#245,.T.);
#228=EDGE_CURVE('',#210,#210,#246,.T.);
#229=EDGE_CURVE('',#211,#211,#247,.T.);
#230=EDGE_CURVE('',#212,#212,#248,.T.);
#231=EDGE_CURVE('',#213,#213,#249,.T.);
#232=EDGE_CURVE('',#214,#214,#250,.T.);
#233=EDGE_CURVE('',#215,#215,#251,.T.);
#234=EDGE_CURVE('',#216,#216,#252,.T.);
#235=EDGE_CURVE('',#217,#217,#254,.T.);
#236=EDGE_CURVE('',#218,#218,#255,.T.);
#237=EDGE_CURVE('',#219,#219,#256,.T.);
#238=EDGE_CURVE('',#220,#220,#258,.T.);
#239=CIRCLE('',#260,11.9404798098749);
#240=CIRCLE('',#261,20.6728291617437);
#241=CIRCLE('',#262,21.25);
#242=CIRCLE('',#264,21.25);
#243=CIRCLE('',#266,20.25);
#244=CIRCLE('',#268,12.3);
#245=CIRCLE('',#270,11.5928932188135);
#246=CIRCLE('',#272,11.3);
#247=CIRCLE('',#274,11.3);
#248=CIRCLE('',#276,11.9564503462591);
#249=CIRCLE('',#278,12.5996668677047);
#250=CIRCLE('',#280,11.2576041567313);
#251=CIRCLE('',#282,10.9970624767708);
#252=CIRCLE('',#283,10.3216748518339);
#253=CIRCLE('',#284,0.4);
#254=CIRCLE('',#285,17.9282993790675);
#255=CIRCLE('',#287,19.6440419276108);
#256=CIRCLE('',#288,18.9697863024511);
#257=CIRCLE('',#289,0.4);
#258=CIRCLE('',#290,12.0415269986934);
#259=AXIS2_PLACEMENT_3D('',#365,#291,#292);
#260=AXIS2_PLACEMENT_3D('',#366,#293,#294);
#261=AXIS2_PLACEMENT_3D('',#368,#295,#296);
#262=AXIS2_PLACEMENT_3D('',#383,#298,#299);
#263=AXIS2_PLACEMENT_3D('',#385,#300,#301);
#264=AXIS2_PLACEMENT_3D('',#386,#302,#303);
#265=AXIS2_PLACEMENT_3D('',#388,#304,#305);
#266=AXIS2_PLACEMENT_3D('',#389,#306,#307);
#267=AXIS2_PLACEMENT_3D('',#391,#308,#309);
#268=AXIS2_PLACEMENT_3D('',#392,#310,#311);
#269=AXIS2_PLACEMENT_3D('',#394,#312,#313);
#270=AXIS2_PLACEMENT_3D('',#395,#314,#315);
#271=AXIS2_PLACEMENT_3D('',#397,#316,#317);
#272=AXIS2_PLACEMENT_3D('',#398,#318,#319);
#273=AXIS2_PLACEMENT_3D('',#400,#320,#321);
#274=AXIS2_PLACEMENT_3D('',#401,#322,#323);
#275=AXIS2_PLACEMENT_3D('',#403,#324,#325);
#276=AXIS2_PLACEMENT_3D('',#404,#326,#327);
#277=AXIS2_PLACEMENT_3D('',#406,#328,#329);
#278=AXIS2_PLACEMENT_3D('',#407,#330,#331);
#279=AXIS2_PLACEMENT_3D('',#409,#332,#333);
#280=AXIS2_PLACEMENT_3D('',#410,#334,#335);
#281=AXIS2_PLACEMENT_3D('',#429,#337,#338);
#282=AXIS2_PLACEMENT_3D('',#430,#339,#340);
#283=AXIS2_PLACEMENT_3D('',#432,#341,#342);
#284=AXIS2_PLACEMENT_3D('',#434,#343,#344);
#285=AXIS2_PLACEMENT_3D('',#436,#346,#347);
#286=AXIS2_PLACEMENT_3D('',#438,#348,#349);
#287=AXIS2_PLACEMENT_3D('',#439,#350,#351);
#288=AXIS2_PLACEMENT_3D('',#443,#354,#355);
#289=AXIS2_PLACEMENT_3D('',#445,#356,#357);
#290=AXIS2_PLACEMENT_3D('',#447,#359,#360);
#291=DIRECTION('',(0.,0.,1.));
#292=DIRECTION('',(1.,0.,0.));
#293=DIRECTION('',(-1.,0.,0.));
#294=DIRECTION('',(0.,0.,1.));
#295=DIRECTION('',(-1.,0.,0.));
#296=DIRECTION('',(0.,0.,1.));
#297=DIRECTION('',(-1.,0.,0.));
#298=DIRECTION('',(-1.,0.,0.));
#299=DIRECTION('',(0.,0.,1.));
#300=DIRECTION('',(-1.,0.,0.));
#301=DIRECTION('',(0.,0.,1.));
#302=DIRECTION('',(-1.,0.,0.));
#303=DIRECTION('',(0.,0.,1.));
#304=DIRECTION('',(-1.,0.,0.));
#305=DIRECTION('',(0.,0.,1.));
#306=DIRECTION('',(-1.,0.,0.));
#307=DIRECTION('',(0.,0.,1.));
#308=DIRECTION('',(-1.,0.,0.));
#309=DIRECTION('',(0.,0.,1.));
#310=DIRECTION('',(-1.,0.,0.));
#311=DIRECTION('',(0.,0.,1.));
#312=DIRECTION('',(-1.,0.,0.));
#313=DIRECTION('',(0.,0.,1.));
#314=DIRECTION('',(-1.,0.,0.));
#315=DIRECTION('',(0.,0.,1.));
#316=DIRECTION('',(1.,0.,0.));
#317=DIRECTION('',(-3.42968695728386E-18,0.,-1.));
#318=DIRECTION('',(-1.,0.,0.));
#319=DIRECTION('',(0.,0.,1.));
#320=DIRECTION('',(-1.,0.,0.));
#321=DIRECTION('',(0.,0.,1.));
#322=DIRECTION('',(-1.,0.,0.));
#323=DIRECTION('',(0.,0.,1.));
#324=DIRECTION('',(-1.,0.,0.));
#325=DIRECTION('',(0.,0.,1.));
#326=DIRECTION('',(-1.,0.,0.));
#327=DIRECTION('',(0.,0.,1.));
#328=DIRECTION('',(-1.,0.,0.));
#329=DIRECTION('',(0.,0.,1.));
#330=DIRECTION('',(-1.,0.,0.));
#331=DIRECTION('',(0.,0.,1.));
#332=DIRECTION('',(-1.,0.,0.));
#333=DIRECTION('',(0.,0.,1.));
#334=DIRECTION('',(-1.,0.,0.));
#335=DIRECTION('',(0.,0.,1.));
#336=DIRECTION('',(-1.,0.,0.));
#337=DIRECTION('',(-1.,0.,0.));
#338=DIRECTION('',(0.,0.,1.));
#339=DIRECTION('',(-1.,0.,0.));
#340=DIRECTION('',(0.,0.,1.));
#341=DIRECTION('',(-1.,0.,0.));
#342=DIRECTION('',(0.,0.,1.));
#343=DIRECTION('',(-0.0493252756161328,-0.0493252756161322,0.997564050259825));
#344=DIRECTION('',(-0.707106781186543,0.707106781186552,0.));
#345=DIRECTION('',(-1.,0.,0.));
#346=DIRECTION('',(-1.,0.,0.));
#347=DIRECTION('',(0.,0.,1.));
#348=DIRECTION('',(1.,0.,0.));
#349=DIRECTION('',(1.90888770962037E-17,0.,-1.));
#350=DIRECTION('',(-1.,0.,0.));
#351=DIRECTION('',(0.,0.,1.));
#352=DIRECTION('',(0.983819781033805,-0.17463614964534,0.0400106696225705));
#353=DIRECTION('',(-1.,0.,0.));
#354=DIRECTION('',(-1.,0.,0.));
#355=DIRECTION('',(0.,0.,1.));
#356=DIRECTION('',(-0.0493252756161326,-0.0493252756161324,0.997564050259824));
#357=DIRECTION('',(0.707106781186546,-0.707106781186549,-1.38777878078145E-17));
#358=DIRECTION('',(-1.,0.,0.));
#359=DIRECTION('',(-1.,0.,0.));
#360=DIRECTION('',(0.,0.,1.));
#361=DIRECTION('',(-0.707106781186546,0.707106781186549,-5.53037444216964E-18));
#362=DIRECTION('',(-1.,0.,0.));
#363=DIRECTION('',(-0.983819781033805,0.174636149645339,-0.0400106696225705));
#364=DIRECTION('',(-1.,0.,0.));
#365=CARTESIAN_POINT('',(0.,0.,0.));
#366=CARTESIAN_POINT('',(2.3373937597908,0.,0.));
#367=CARTESIAN_POINT('',(2.3373937597908,0.,11.9404798098749));
#368=CARTESIAN_POINT('',(11.2509197100344,0.,0.));
#369=CARTESIAN_POINT('',(11.2509197100344,0.,20.6728291617437));
#370=CARTESIAN_POINT('',(11.2509197100344,20.6728291617437,0.));
#371=CARTESIAN_POINT('',(9.80796312863275,19.2474010900938,0.));
#372=CARTESIAN_POINT('',(8.36388519457933,17.8230771535604,0.));
#373=CARTESIAN_POINT('',(6.47972607948121,15.9738189226052,0.));
#374=CARTESIAN_POINT('',(6.04282321492771,15.5456439173763,0.));
#375=CARTESIAN_POINT('',(5.14227178718156,14.6647615442351,0.));
#376=CARTESIAN_POINT('',(4.67857475187479,14.2121026783564,0.));
#377=CARTESIAN_POINT('',(3.74996599975601,13.3080328959688,0.));
#378=CARTESIAN_POINT('',(3.28505587206166,12.8566183517042,0.));
#379=CARTESIAN_POINT('',(2.65877724099039,12.2507630923782,0.));
#380=CARTESIAN_POINT('',(2.49814195787947,12.0955629429069,0.));
#381=CARTESIAN_POINT('',(2.33739375979045,11.9404798098752,0.));
#382=CARTESIAN_POINT('',(0.,0.,0.));
#383=CARTESIAN_POINT('',(12.656464862977,0.,0.));
#384=CARTESIAN_POINT('',(12.656464862977,0.,21.25));
#385=CARTESIAN_POINT('',(12.656464862977,0.,0.));
#386=CARTESIAN_POINT('',(21.,0.,0.));
#387=CARTESIAN_POINT('',(21.,0.,21.25));
#388=CARTESIAN_POINT('',(0.,0.,0.));
#389=CARTESIAN_POINT('',(22.,0.,0.));
#390=CARTESIAN_POINT('',(22.,0.,20.25));
#391=CARTESIAN_POINT('',(21.,0.,0.));
#392=CARTESIAN_POINT('',(22.,0.,0.));
#393=CARTESIAN_POINT('',(22.,0.,12.3));
#394=CARTESIAN_POINT('',(22.,12.3,0.));
#395=CARTESIAN_POINT('',(21.2928932188135,0.,0.));
#396=CARTESIAN_POINT('',(21.2928932188135,0.,11.5928932188135));
#397=CARTESIAN_POINT('',(21.2928932188135,0.,0.));
#398=CARTESIAN_POINT('',(20.5857864376269,0.,0.));
#399=CARTESIAN_POINT('',(20.5857864376269,0.,11.3));
#400=CARTESIAN_POINT('',(20.5857864376269,0.,0.));
#401=CARTESIAN_POINT('',(13.,0.,0.));
#402=CARTESIAN_POINT('',(13.,0.,11.3));
#403=CARTESIAN_POINT('',(0.,0.,0.));
#404=CARTESIAN_POINT('',(12.0608654859848,0.,0.));
#405=CARTESIAN_POINT('',(12.0608654859848,0.,11.9564503462591));
#406=CARTESIAN_POINT('',(13.,0.,0.));
#407=CARTESIAN_POINT('',(10.9595813018869,0.,0.));
#408=CARTESIAN_POINT('',(10.9595813018869,0.,12.5996668677047));
#409=CARTESIAN_POINT('',(11.1217309719696,0.,0.));
#410=CARTESIAN_POINT('',(2.67812909144894,0.,0.));
#411=CARTESIAN_POINT('',(2.67812909144894,0.,11.2576041567313));
#412=CARTESIAN_POINT('',(2.67812909144886,11.2576041567313,0.));
#413=CARTESIAN_POINT('',(2.71393401917847,11.2633156953652,0.));
#414=CARTESIAN_POINT('',(2.74973874163054,11.2690285191884,0.));
#415=CARTESIAN_POINT('',(3.24094151769988,11.3474203914826,0.));
#416=CARTESIAN_POINT('',(3.69630679478882,11.4203050998606,0.));
#417=CARTESIAN_POINT('',(4.60090880580867,11.5654914239572,0.));
#418=CARTESIAN_POINT('',(5.05014645090131,11.6377878919356,0.));
#419=CARTESIAN_POINT('',(5.94856370044001,11.7827400294616,0.));
#420=CARTESIAN_POINT('',(6.39774337652376,11.8553957144439,0.));
#421=CARTESIAN_POINT('',(7.29604757233254,12.0010467855797,0.));
#422=CARTESIAN_POINT('',(7.74517215610946,12.0740421856757,0.));
#423=CARTESIAN_POINT('',(8.64336888233219,12.2203544941985,0.));
#424=CARTESIAN_POINT('',(9.09244108213652,12.2936714152321,0.));
#425=CARTESIAN_POINT('',(10.0142131301324,12.4444836905063,0.));
#426=CARTESIAN_POINT('',(10.4869103358748,12.5219955377344,0.));
#427=CARTESIAN_POINT('',(10.9595813018869,12.5996668677047,0.));
#428=CARTESIAN_POINT('',(0.,0.,0.));
#429=CARTESIAN_POINT('',(2.61511845051235,0.,0.));
#430=CARTESIAN_POINT('',(0.897062476770774,0.,0.));
#431=CARTESIAN_POINT('',(0.897062476770774,0.,10.9970624767708));
#432=CARTESIAN_POINT('',(1.24811108159554,0.,0.));
#433=CARTESIAN_POINT('',(1.24811108159554,0.,10.3216748518339));
#434=CARTESIAN_POINT('',(1.17921619861343,-10.7149087549282,0.0279025894976497));
#435=CARTESIAN_POINT('',(2.3373937597908,0.,0.));
#436=CARTESIAN_POINT('',(7.82829937906743,0.,0.));
#437=CARTESIAN_POINT('',(7.82829937906743,0.,17.9282993790675));
#438=CARTESIAN_POINT('',(0.897062476770774,0.,0.));
#439=CARTESIAN_POINT('',(17.4719460713933,0.,0.));
#440=CARTESIAN_POINT('',(17.4719460713933,0.,19.6440419276108));
#441=CARTESIAN_POINT('',(7.82829937906743,-17.9282993790675,-1.62095981462978E-16));
#442=CARTESIAN_POINT('',(2.3373937597908,0.,0.));
#443=CARTESIAN_POINT('',(17.8229946762181,0.,0.));
#444=CARTESIAN_POINT('',(17.8229946762181,0.,18.9697863024511));
#445=CARTESIAN_POINT('',(17.5408409543754,-19.2467677295566,0.415051018777546));
#446=CARTESIAN_POINT('',(2.3373937597908,0.,0.));
#447=CARTESIAN_POINT('',(10.8917577739215,0.,0.));
#448=CARTESIAN_POINT('',(10.8917577739215,0.,12.0415269986934));
#449=CARTESIAN_POINT('',(17.8229946762182,-18.9646140077139,0.442953608275197));
#450=CARTESIAN_POINT('',(2.3373937597908,0.,0.));
#451=CARTESIAN_POINT('',(10.8917577739215,-12.0333771054172,0.442953608275198));
#452=CARTESIAN_POINT('',(2.3373937597908,0.,0.));
#453=(
GEOMETRIC_REPRESENTATION_CONTEXT(3)
GLOBAL_UNCERTAINTY_ASSIGNED_CONTEXT((#454))
GLOBAL_UNIT_ASSIGNED_CONTEXT((#460,#456,#455))
REPRESENTATION_CONTEXT('ADCR-225-VB1103','TOP_LEVEL_ASSEMBLY_PART')
);
#454=UNCERTAINTY_MEASURE_WITH_UNIT(LENGTH_MEASURE(0.0508),#460,
'DISTANCE_ACCURACY_VALUE','Maximum Tolerance applied to model');
#455=(
NAMED_UNIT(*)
SI_UNIT($,.STERADIAN.)
SOLID_ANGLE_UNIT()
);
#456=(
CONVERSION_BASED_UNIT('DEGREE',#458)
NAMED_UNIT(#457)
PLANE_ANGLE_UNIT()
);
#457=DIMENSIONAL_EXPONENTS(0.,0.,0.,0.,0.,0.,0.);
#458=PLANE_ANGLE_MEASURE_WITH_UNIT(PLANE_ANGLE_MEASURE(0.0174532925),#459);
#459=(
NAMED_UNIT(*)
PLANE_ANGLE_UNIT()
SI_UNIT($,.RADIAN.)
);
#460=(
LENGTH_UNIT()
NAMED_UNIT(*)
SI_UNIT(.MILLI.,.METRE.)
);
ENDSEC;
END-ISO-10303-21;
