ISO-10303-21;
HEADER;
/* Generated by software containing ST-Developer
 * from STEP Tools, Inc. (www.steptools.com) 
 */
/* OPTION: using custom schema-name function */

FILE_DESCRIPTION(
/* description */ (''),
/* implementation_level */ '2;1');

FILE_NAME(
/* name */ 'ADCR-280-VB1103.stp',
/* time_stamp */ '2023-11-16T03:20:10+03:00',
/* author */ (''),
/* organization */ (''),
/* preprocessor_version */ 'ST-DEVELOPER v19.4',
/* originating_system */ 'SIEMENS PLM Software NX2306.3001',
/* authorisation */ '');

FILE_SCHEMA (('AUTOMOTIVE_DESIGN { 1 0 10303 214 3 1 1 1 }'));
ENDSEC;

DATA;
#10=SHAPE_REPRESENTATION_RELATIONSHIP('None',
'relationship between model1-None and model1-None',#22,#11);
#11=ADVANCED_BREP_SHAPE_REPRESENTATION('model1-None',(#46,#47),#453);
#12=SHAPE_DEFINITION_REPRESENTATION(#13,#22);
#13=PRODUCT_DEFINITION_SHAPE('','',#14);
#14=PRODUCT_DEFINITION(' ','',#16,#15);
#15=PRODUCT_DEFINITION_CONTEXT('part definition',#21,'design');
#16=PRODUCT_DEFINITION_FORMATION_WITH_SPECIFIED_SOURCE(' ',' ',#18,
 .NOT_KNOWN.);
#17=PRODUCT_RELATED_PRODUCT_CATEGORY('part','',(#18));
#18=PRODUCT('model1','model1',' ',(#19));
#19=PRODUCT_CONTEXT(' ',#21,'mechanical');
#20=APPLICATION_PROTOCOL_DEFINITION('international standard',
'automotive_design',2010,#21);
#21=APPLICATION_CONTEXT(
'core data for automotive mechanical design processes');
#22=SHAPE_REPRESENTATION('model1-None',(#259),#453);
#23=DRAUGHTING_PRE_DEFINED_COLOUR('yellow');
#24=LINE('',#437,#27);
#25=LINE('',#445,#28);
#26=LINE('',#449,#29);
#27=VECTOR('',#347,9.80224923124874);
#28=VECTOR('',#356,9.80224923124879);
#29=VECTOR('',#360,9.80224923124876);
#30=PRESENTATION_LAYER_ASSIGNMENT('1','Layer 1',(#46,#47));
#31=STYLED_ITEM('',(#33),#46);
#32=STYLED_ITEM('',(#34),#47);
#33=PRESENTATION_STYLE_ASSIGNMENT((#35));
#34=PRESENTATION_STYLE_ASSIGNMENT((#36));
#35=SURFACE_STYLE_USAGE(.BOTH.,#37);
#36=SURFACE_STYLE_USAGE(.BOTH.,#38);
#37=SURFACE_SIDE_STYLE('',(#39));
#38=SURFACE_SIDE_STYLE('',(#40));
#39=SURFACE_STYLE_FILL_AREA(#41);
#40=SURFACE_STYLE_FILL_AREA(#42);
#41=FILL_AREA_STYLE('',(#43));
#42=FILL_AREA_STYLE('',(#44));
#43=FILL_AREA_STYLE_COLOUR('',#45);
#44=FILL_AREA_STYLE_COLOUR('',#23);
#45=COLOUR_RGB('light gray',0.8,0.8,0.8);
#46=MANIFOLD_SOLID_BREP('',#48);
#47=MANIFOLD_SOLID_BREP('',#49);
#48=CLOSED_SHELL('',(#61,#62,#63,#64,#65,#66,#67,#68,#69,#70,#71,#72));
#49=CLOSED_SHELL('',(#73,#74,#75,#76,#77,#78));
#50=CONICAL_SURFACE('',#271,14.3428932188134,45.0000000000001);
#51=CONICAL_SURFACE('',#284,13.7470624767708,45.0000000000001);
#52=PLANE('',#269);
#53=CYLINDRICAL_SURFACE('',#265,24.);
#54=CYLINDRICAL_SURFACE('',#275,14.05);
#55=TOROIDAL_SURFACE('',#263,21.9999999995941,2.00000000040585);
#56=TOROIDAL_SURFACE('',#267,23.,1.);
#57=TOROIDAL_SURFACE('',#273,15.05,1.);
#58=TOROIDAL_SURFACE('',#277,15.05,1.00000000000001);
#59=TOROIDAL_SURFACE('',#279,14.311482108912,1.00000000000001);
#60=TOROIDAL_SURFACE('',#281,14.3161530955286,0.400000000000077);
#61=ADVANCED_FACE('',(#95,#96),#79,.T.);
#62=ADVANCED_FACE('',(#97,#98),#55,.T.);
#63=ADVANCED_FACE('',(#99,#100),#53,.T.);
#64=ADVANCED_FACE('',(#101,#102),#56,.T.);
#65=ADVANCED_FACE('',(#103,#104),#52,.F.);
#66=ADVANCED_FACE('',(#105,#106),#50,.F.);
#67=ADVANCED_FACE('',(#107,#108),#57,.T.);
#68=ADVANCED_FACE('',(#109,#110),#54,.F.);
#69=ADVANCED_FACE('',(#111,#112),#58,.T.);
#70=ADVANCED_FACE('',(#113,#114),#59,.F.);
#71=ADVANCED_FACE('',(#115,#116),#80,.T.);
#72=ADVANCED_FACE('',(#117,#118),#60,.T.);
#73=ADVANCED_FACE('',(#119,#120),#51,.T.);
#74=ADVANCED_FACE('',(#121,#122),#81,.F.);
#75=ADVANCED_FACE('',(#123,#124),#82,.F.);
#76=ADVANCED_FACE('',(#125,#126),#83,.F.);
#77=ADVANCED_FACE('',(#127,#128),#84,.F.);
#78=ADVANCED_FACE('',(#129,#130),#85,.F.);
#79=SURFACE_OF_REVOLUTION('',#93,#86);
#80=SURFACE_OF_REVOLUTION('',#94,#87);
#81=SURFACE_OF_REVOLUTION('',#24,#88);
#82=SURFACE_OF_REVOLUTION('',#255,#89);
#83=SURFACE_OF_REVOLUTION('',#25,#90);
#84=SURFACE_OF_REVOLUTION('',#26,#91);
#85=SURFACE_OF_REVOLUTION('',#258,#92);
#86=AXIS1_PLACEMENT('',#384,#297);
#87=AXIS1_PLACEMENT('',#428,#336);
#88=AXIS1_PLACEMENT('',#438,#348);
#89=AXIS1_PLACEMENT('',#442,#353);
#90=AXIS1_PLACEMENT('',#446,#357);
#91=AXIS1_PLACEMENT('',#450,#361);
#92=AXIS1_PLACEMENT('',#452,#364);
#93=B_SPLINE_CURVE_WITH_KNOTS('',3,(#370,#371,#372,#373,#374,#375,#376,
#377,#378,#379,#380,#381,#382,#383),.UNSPECIFIED.,.F.,.F.,(4,2,2,2,2,2,
4),(0.,0.481596968238911,0.570086591954727,0.658576217683079,0.835555572867247,
0.924045206064951,1.),.UNSPECIFIED.);
#94=B_SPLINE_CURVE_WITH_KNOTS('',3,(#414,#415,#416,#417,#418,#419,#420,
#421,#422,#423,#424,#425,#426,#427),.UNSPECIFIED.,.F.,.F.,(4,2,2,2,2,2,
4),(0.,0.0265417382815888,0.203925044408899,0.400300008927775,0.596674971612557,
0.793049932681263,1.),.UNSPECIFIED.);
#95=FACE_BOUND('',#131,.T.);
#96=FACE_BOUND('',#132,.T.);
#97=FACE_BOUND('',#133,.T.);
#98=FACE_BOUND('',#134,.T.);
#99=FACE_BOUND('',#135,.T.);
#100=FACE_BOUND('',#136,.T.);
#101=FACE_BOUND('',#137,.T.);
#102=FACE_BOUND('',#138,.T.);
#103=FACE_BOUND('',#139,.T.);
#104=FACE_BOUND('',#140,.T.);
#105=FACE_BOUND('',#141,.T.);
#106=FACE_BOUND('',#142,.T.);
#107=FACE_BOUND('',#143,.T.);
#108=FACE_BOUND('',#144,.T.);
#109=FACE_BOUND('',#145,.T.);
#110=FACE_BOUND('',#146,.T.);
#111=FACE_BOUND('',#147,.T.);
#112=FACE_BOUND('',#148,.T.);
#113=FACE_BOUND('',#149,.T.);
#114=FACE_BOUND('',#150,.T.);
#115=FACE_BOUND('',#151,.T.);
#116=FACE_BOUND('',#152,.T.);
#117=FACE_BOUND('',#153,.T.);
#118=FACE_BOUND('',#154,.T.);
#119=FACE_BOUND('',#155,.T.);
#120=FACE_BOUND('',#156,.T.);
#121=FACE_BOUND('',#157,.T.);
#122=FACE_BOUND('',#158,.T.);
#123=FACE_BOUND('',#159,.T.);
#124=FACE_BOUND('',#160,.T.);
#125=FACE_BOUND('',#161,.T.);
#126=FACE_BOUND('',#162,.T.);
#127=FACE_BOUND('',#163,.T.);
#128=FACE_BOUND('',#164,.T.);
#129=FACE_BOUND('',#165,.T.);
#130=FACE_BOUND('',#166,.T.);
#131=EDGE_LOOP('',(#167));
#132=EDGE_LOOP('',(#168));
#133=EDGE_LOOP('',(#169));
#134=EDGE_LOOP('',(#170));
#135=EDGE_LOOP('',(#171));
#136=EDGE_LOOP('',(#172));
#137=EDGE_LOOP('',(#173));
#138=EDGE_LOOP('',(#174));
#139=EDGE_LOOP('',(#175));
#140=EDGE_LOOP('',(#176));
#141=EDGE_LOOP('',(#177));
#142=EDGE_LOOP('',(#178));
#143=EDGE_LOOP('',(#179));
#144=EDGE_LOOP('',(#180));
#145=EDGE_LOOP('',(#181));
#146=EDGE_LOOP('',(#182));
#147=EDGE_LOOP('',(#183));
#148=EDGE_LOOP('',(#184));
#149=EDGE_LOOP('',(#185));
#150=EDGE_LOOP('',(#186));
#151=EDGE_LOOP('',(#187));
#152=EDGE_LOOP('',(#188));
#153=EDGE_LOOP('',(#189));
#154=EDGE_LOOP('',(#190));
#155=EDGE_LOOP('',(#191));
#156=EDGE_LOOP('',(#192));
#157=EDGE_LOOP('',(#193));
#158=EDGE_LOOP('',(#194));
#159=EDGE_LOOP('',(#195));
#160=EDGE_LOOP('',(#196));
#161=EDGE_LOOP('',(#197));
#162=EDGE_LOOP('',(#198));
#163=EDGE_LOOP('',(#199));
#164=EDGE_LOOP('',(#200));
#165=EDGE_LOOP('',(#201));
#166=EDGE_LOOP('',(#202));
#167=ORIENTED_EDGE('',*,*,#221,.F.);
#168=ORIENTED_EDGE('',*,*,#222,.T.);
#169=ORIENTED_EDGE('',*,*,#222,.F.);
#170=ORIENTED_EDGE('',*,*,#223,.T.);
#171=ORIENTED_EDGE('',*,*,#223,.F.);
#172=ORIENTED_EDGE('',*,*,#224,.T.);
#173=ORIENTED_EDGE('',*,*,#224,.F.);
#174=ORIENTED_EDGE('',*,*,#225,.T.);
#175=ORIENTED_EDGE('',*,*,#225,.F.);
#176=ORIENTED_EDGE('',*,*,#226,.T.);
#177=ORIENTED_EDGE('',*,*,#226,.F.);
#178=ORIENTED_EDGE('',*,*,#227,.T.);
#179=ORIENTED_EDGE('',*,*,#227,.F.);
#180=ORIENTED_EDGE('',*,*,#228,.T.);
#181=ORIENTED_EDGE('',*,*,#228,.F.);
#182=ORIENTED_EDGE('',*,*,#229,.T.);
#183=ORIENTED_EDGE('',*,*,#229,.F.);
#184=ORIENTED_EDGE('',*,*,#230,.T.);
#185=ORIENTED_EDGE('',*,*,#230,.F.);
#186=ORIENTED_EDGE('',*,*,#231,.T.);
#187=ORIENTED_EDGE('',*,*,#231,.F.);
#188=ORIENTED_EDGE('',*,*,#232,.T.);
#189=ORIENTED_EDGE('',*,*,#232,.F.);
#190=ORIENTED_EDGE('',*,*,#221,.T.);
#191=ORIENTED_EDGE('',*,*,#233,.T.);
#192=ORIENTED_EDGE('',*,*,#234,.F.);
#193=ORIENTED_EDGE('',*,*,#235,.T.);
#194=ORIENTED_EDGE('',*,*,#233,.F.);
#195=ORIENTED_EDGE('',*,*,#236,.T.);
#196=ORIENTED_EDGE('',*,*,#235,.F.);
#197=ORIENTED_EDGE('',*,*,#237,.T.);
#198=ORIENTED_EDGE('',*,*,#236,.F.);
#199=ORIENTED_EDGE('',*,*,#238,.T.);
#200=ORIENTED_EDGE('',*,*,#237,.F.);
#201=ORIENTED_EDGE('',*,*,#234,.T.);
#202=ORIENTED_EDGE('',*,*,#238,.F.);
#203=VERTEX_POINT('',#367);
#204=VERTEX_POINT('',#369);
#205=VERTEX_POINT('',#386);
#206=VERTEX_POINT('',#389);
#207=VERTEX_POINT('',#392);
#208=VERTEX_POINT('',#395);
#209=VERTEX_POINT('',#398);
#210=VERTEX_POINT('',#401);
#211=VERTEX_POINT('',#404);
#212=VERTEX_POINT('',#407);
#213=VERTEX_POINT('',#410);
#214=VERTEX_POINT('',#413);
#215=VERTEX_POINT('',#431);
#216=VERTEX_POINT('',#433);
#217=VERTEX_POINT('',#436);
#218=VERTEX_POINT('',#440);
#219=VERTEX_POINT('',#444);
#220=VERTEX_POINT('',#448);
#221=EDGE_CURVE('',#203,#203,#239,.T.);
#222=EDGE_CURVE('',#204,#204,#240,.T.);
#223=EDGE_CURVE('',#205,#205,#241,.T.);
#224=EDGE_CURVE('',#206,#206,#242,.T.);
#225=EDGE_CURVE('',#207,#207,#243,.T.);
#226=EDGE_CURVE('',#208,#208,#244,.T.);
#227=EDGE_CURVE('',#209,#209,#245,.T.);
#228=EDGE_CURVE('',#210,#210,#246,.T.);
#229=EDGE_CURVE('',#211,#211,#247,.T.);
#230=EDGE_CURVE('',#212,#212,#248,.T.);
#231=EDGE_CURVE('',#213,#213,#249,.T.);
#232=EDGE_CURVE('',#214,#214,#250,.T.);
#233=EDGE_CURVE('',#215,#215,#251,.T.);
#234=EDGE_CURVE('',#216,#216,#252,.T.);
#235=EDGE_CURVE('',#217,#217,#253,.T.);
#236=EDGE_CURVE('',#218,#218,#254,.T.);
#237=EDGE_CURVE('',#219,#219,#256,.T.);
#238=EDGE_CURVE('',#220,#220,#257,.T.);
#239=CIRCLE('',#260,14.6023280634923);
#240=CIRCLE('',#261,23.4208041102908);
#241=CIRCLE('',#262,24.);
#242=CIRCLE('',#264,24.);
#243=CIRCLE('',#266,23.);
#244=CIRCLE('',#268,15.05);
#245=CIRCLE('',#270,14.3428932188134);
#246=CIRCLE('',#272,14.05);
#247=CIRCLE('',#274,14.05);
#248=CIRCLE('',#276,14.680741054456);
#249=CIRCLE('',#278,15.2977764660384);
#250=CIRCLE('',#280,13.9214290223941);
#251=CIRCLE('',#282,20.6782993790675);
#252=CIRCLE('',#283,13.7470624767708);
#253=CIRCLE('',#285,22.3935610988617);
#254=CIRCLE('',#286,21.7191314145637);
#255=CIRCLE('',#287,0.4);
#256=CIRCLE('',#288,14.7900117153455);
#257=CIRCLE('',#289,13.0716485944552);
#258=CIRCLE('',#290,0.4);
#259=AXIS2_PLACEMENT_3D('',#365,#291,#292);
#260=AXIS2_PLACEMENT_3D('',#366,#293,#294);
#261=AXIS2_PLACEMENT_3D('',#368,#295,#296);
#262=AXIS2_PLACEMENT_3D('',#385,#298,#299);
#263=AXIS2_PLACEMENT_3D('',#387,#300,#301);
#264=AXIS2_PLACEMENT_3D('',#388,#302,#303);
#265=AXIS2_PLACEMENT_3D('',#390,#304,#305);
#266=AXIS2_PLACEMENT_3D('',#391,#306,#307);
#267=AXIS2_PLACEMENT_3D('',#393,#308,#309);
#268=AXIS2_PLACEMENT_3D('',#394,#310,#311);
#269=AXIS2_PLACEMENT_3D('',#396,#312,#313);
#270=AXIS2_PLACEMENT_3D('',#397,#314,#315);
#271=AXIS2_PLACEMENT_3D('',#399,#316,#317);
#272=AXIS2_PLACEMENT_3D('',#400,#318,#319);
#273=AXIS2_PLACEMENT_3D('',#402,#320,#321);
#274=AXIS2_PLACEMENT_3D('',#403,#322,#323);
#275=AXIS2_PLACEMENT_3D('',#405,#324,#325);
#276=AXIS2_PLACEMENT_3D('',#406,#326,#327);
#277=AXIS2_PLACEMENT_3D('',#408,#328,#329);
#278=AXIS2_PLACEMENT_3D('',#409,#330,#331);
#279=AXIS2_PLACEMENT_3D('',#411,#332,#333);
#280=AXIS2_PLACEMENT_3D('',#412,#334,#335);
#281=AXIS2_PLACEMENT_3D('',#429,#337,#338);
#282=AXIS2_PLACEMENT_3D('',#430,#339,#340);
#283=AXIS2_PLACEMENT_3D('',#432,#341,#342);
#284=AXIS2_PLACEMENT_3D('',#434,#343,#344);
#285=AXIS2_PLACEMENT_3D('',#435,#345,#346);
#286=AXIS2_PLACEMENT_3D('',#439,#349,#350);
#287=AXIS2_PLACEMENT_3D('',#441,#351,#352);
#288=AXIS2_PLACEMENT_3D('',#443,#354,#355);
#289=AXIS2_PLACEMENT_3D('',#447,#358,#359);
#290=AXIS2_PLACEMENT_3D('',#451,#362,#363);
#291=DIRECTION('',(0.,0.,1.));
#292=DIRECTION('',(1.,0.,0.));
#293=DIRECTION('',(-1.,0.,0.));
#294=DIRECTION('',(0.,0.,1.));
#295=DIRECTION('',(-1.,0.,0.));
#296=DIRECTION('',(0.,0.,1.));
#297=DIRECTION('',(-1.,0.,0.));
#298=DIRECTION('',(-1.,0.,0.));
#299=DIRECTION('',(0.,0.,1.));
#300=DIRECTION('',(-1.,0.,0.));
#301=DIRECTION('',(0.,0.,1.));
#302=DIRECTION('',(-1.,0.,0.));
#303=DIRECTION('',(0.,0.,1.));
#304=DIRECTION('',(-1.,0.,0.));
#305=DIRECTION('',(0.,0.,1.));
#306=DIRECTION('',(-1.,0.,0.));
#307=DIRECTION('',(0.,0.,1.));
#308=DIRECTION('',(-1.,0.,0.));
#309=DIRECTION('',(0.,0.,1.));
#310=DIRECTION('',(-1.,0.,0.));
#311=DIRECTION('',(0.,0.,1.));
#312=DIRECTION('',(-1.,0.,0.));
#313=DIRECTION('',(0.,0.,1.));
#314=DIRECTION('',(-1.,0.,0.));
#315=DIRECTION('',(0.,0.,1.));
#316=DIRECTION('',(1.,0.,0.));
#317=DIRECTION('',(-3.4203886823163E-18,0.,-1.));
#318=DIRECTION('',(-1.,0.,0.));
#319=DIRECTION('',(0.,0.,1.));
#320=DIRECTION('',(-1.,0.,0.));
#321=DIRECTION('',(0.,0.,1.));
#322=DIRECTION('',(-1.,0.,0.));
#323=DIRECTION('',(0.,0.,1.));
#324=DIRECTION('',(-1.,0.,0.));
#325=DIRECTION('',(0.,0.,1.));
#326=DIRECTION('',(-1.,0.,0.));
#327=DIRECTION('',(0.,0.,1.));
#328=DIRECTION('',(-1.,0.,0.));
#329=DIRECTION('',(0.,0.,1.));
#330=DIRECTION('',(-1.,0.,0.));
#331=DIRECTION('',(0.,0.,1.));
#332=DIRECTION('',(-1.,0.,0.));
#333=DIRECTION('',(0.,0.,1.));
#334=DIRECTION('',(-1.,0.,0.));
#335=DIRECTION('',(0.,0.,1.));
#336=DIRECTION('',(-1.,0.,0.));
#337=DIRECTION('',(-1.,0.,0.));
#338=DIRECTION('',(0.,0.,1.));
#339=DIRECTION('',(-1.,0.,0.));
#340=DIRECTION('',(0.,0.,1.));
#341=DIRECTION('',(-1.,0.,0.));
#342=DIRECTION('',(0.,0.,1.));
#343=DIRECTION('',(1.,0.,0.));
#344=DIRECTION('',(-2.7165292211895E-17,0.,-1.));
#345=DIRECTION('',(-1.,0.,0.));
#346=DIRECTION('',(0.,0.,1.));
#347=DIRECTION('',(0.983819781033805,-0.174636149645339,0.0400106696225705));
#348=DIRECTION('',(-1.,0.,0.));
#349=DIRECTION('',(-1.,0.,0.));
#350=DIRECTION('',(0.,0.,1.));
#351=DIRECTION('',(-0.0493252756161325,-0.0493252756161325,0.997564050259824));
#352=DIRECTION('',(0.707106781186547,-0.707106781186548,-1.38777878078145E-17));
#353=DIRECTION('',(-1.,0.,0.));
#354=DIRECTION('',(-1.,0.,0.));
#355=DIRECTION('',(0.,0.,1.));
#356=DIRECTION('',(-0.707106781186546,0.707106781186549,-5.53037444216964E-18));
#357=DIRECTION('',(-1.,0.,0.));
#358=DIRECTION('',(-1.,0.,0.));
#359=DIRECTION('',(0.,0.,1.));
#360=DIRECTION('',(-0.983819781033805,0.174636149645339,-0.0400106696225705));
#361=DIRECTION('',(-1.,0.,0.));
#362=DIRECTION('',(-0.0493252756161328,-0.0493252756161322,0.997564050259825));
#363=DIRECTION('',(-0.707106781186543,0.707106781186552,0.));
#364=DIRECTION('',(-1.,0.,0.));
#365=CARTESIAN_POINT('',(0.,0.,0.));
#366=CARTESIAN_POINT('',(2.32802644315148,0.,0.));
#367=CARTESIAN_POINT('',(2.32802644315148,0.,14.6023280634923));
#368=CARTESIAN_POINT('',(11.2770993815829,0.,0.));
#369=CARTESIAN_POINT('',(11.2770993815829,0.,23.4208041102908));
#370=CARTESIAN_POINT('',(11.2770993815829,23.4208041102908,0.));
#371=CARTESIAN_POINT('',(9.84428191748235,22.0013103111117,0.));
#372=CARTESIAN_POINT('',(8.41058515167146,20.5826932935496,0.));
#373=CARTESIAN_POINT('',(6.7109010126938,18.9060092602338,0.));
#374=CARTESIAN_POINT('',(6.44700061248018,18.6458261176692,0.));
#375=CARTESIAN_POINT('',(5.91903404941444,18.1256281046668,0.));
#376=CARTESIAN_POINT('',(5.65496788547404,17.8656131799166,0.));
#377=CARTESIAN_POINT('',(4.86248572110271,17.0858564427328,0.));
#378=CARTESIAN_POINT('',(4.33378893153419,16.5663994991251,0.));
#379=CARTESIAN_POINT('',(3.53999744529205,15.7879756465318,0.));
#380=CARTESIAN_POINT('',(3.27527518063058,15.5286286045413,0.));
#381=CARTESIAN_POINT('',(2.7830591971021,15.0469485144515,0.));
#382=CARTESIAN_POINT('',(2.55560474121505,14.8245748695259,0.));
#383=CARTESIAN_POINT('',(2.32802644315144,14.6023280634924,0.));
#384=CARTESIAN_POINT('',(0.,0.,0.));
#385=CARTESIAN_POINT('',(12.684691538655,0.,0.));
#386=CARTESIAN_POINT('',(12.684691538655,0.,24.));
#387=CARTESIAN_POINT('',(12.684691538655,0.,0.));
#388=CARTESIAN_POINT('',(21.,0.,0.));
#389=CARTESIAN_POINT('',(21.,0.,24.));
#390=CARTESIAN_POINT('',(0.,0.,0.));
#391=CARTESIAN_POINT('',(22.,0.,0.));
#392=CARTESIAN_POINT('',(22.,0.,23.));
#393=CARTESIAN_POINT('',(21.,0.,0.));
#394=CARTESIAN_POINT('',(22.,0.,0.));
#395=CARTESIAN_POINT('',(22.,0.,15.05));
#396=CARTESIAN_POINT('',(22.,15.05,0.));
#397=CARTESIAN_POINT('',(21.2928932188135,0.,0.));
#398=CARTESIAN_POINT('',(21.2928932188135,0.,14.3428932188134));
#399=CARTESIAN_POINT('',(21.2928932188135,0.,0.));
#400=CARTESIAN_POINT('',(20.5857864376269,0.,0.));
#401=CARTESIAN_POINT('',(20.5857864376269,0.,14.05));
#402=CARTESIAN_POINT('',(20.5857864376269,0.,0.));
#403=CARTESIAN_POINT('',(13.,0.,0.));
#404=CARTESIAN_POINT('',(13.,0.,14.05));
#405=CARTESIAN_POINT('',(0.,0.,0.));
#406=CARTESIAN_POINT('',(12.0706734529049,0.,0.));
#407=CARTESIAN_POINT('',(12.0706734529049,0.,14.680741054456));
#408=CARTESIAN_POINT('',(13.,0.,0.));
#409=CARTESIAN_POINT('',(10.9763516298154,0.,0.));
#410=CARTESIAN_POINT('',(10.9763516298154,0.,15.2977764660384));
#411=CARTESIAN_POINT('',(11.1413469058097,0.,0.));
#412=CARTESIAN_POINT('',(2.6722498241123,0.,0.));
#413=CARTESIAN_POINT('',(2.6722498241123,0.,13.9214290223941));
#414=CARTESIAN_POINT('',(2.67224982411234,13.9214290223941,0.));
#415=CARTESIAN_POINT('',(2.74573831207848,13.9334844679436,0.));
#416=CARTESIAN_POINT('',(2.81922621849539,13.9455434560041,0.));
#417=CARTESIAN_POINT('',(3.38384284873257,14.03822187216,0.));
#418=CARTESIAN_POINT('',(3.87494640951215,14.1189947494043,0.));
#419=CARTESIAN_POINT('',(4.90968206141326,14.2895024431377,0.));
#420=CARTESIAN_POINT('',(5.45330866734773,14.3792708734543,0.));
#421=CARTESIAN_POINT('',(6.54050472664144,14.5591527618828,0.));
#422=CARTESIAN_POINT('',(7.0840742344491,14.6492662329779,0.));
#423=CARTESIAN_POINT('',(8.17115900283308,14.8298194350568,0.));
#424=CARTESIAN_POINT('',(8.71467431207878,14.920259177746,0.));
#425=CARTESIAN_POINT('',(9.83092119597949,15.1063260729357,0.));
#426=CARTESIAN_POINT('',(10.4036499700269,15.2019703126965,0.));
#427=CARTESIAN_POINT('',(10.9763516298154,15.2977764660385,0.));
#428=CARTESIAN_POINT('',(0.,0.,0.));
#429=CARTESIAN_POINT('',(2.60749717097642,0.,0.));
#430=CARTESIAN_POINT('',(7.82829937906743,0.,0.));
#431=CARTESIAN_POINT('',(7.82829937906743,0.,20.6782993790675));
#432=CARTESIAN_POINT('',(0.897062476770821,0.,0.));
#433=CARTESIAN_POINT('',(0.897062476770821,0.,13.7470624767708));
#434=CARTESIAN_POINT('',(0.897062476770821,0.,0.));
#435=CARTESIAN_POINT('',(17.4719460713934,0.,0.));
#436=CARTESIAN_POINT('',(17.4719460713934,0.,22.3935610988617));
#437=CARTESIAN_POINT('',(7.82829937906743,-20.6782993790675,-9.25869413267743E-17));
#438=CARTESIAN_POINT('',(2.32802644315148,0.,0.));
#439=CARTESIAN_POINT('',(17.8229946762182,0.,0.));
#440=CARTESIAN_POINT('',(17.8229946762182,0.,21.7191314145637));
#441=CARTESIAN_POINT('',(17.5408409543755,-21.9967677295565,0.415051018777546));
#442=CARTESIAN_POINT('',(2.32802644315148,0.,0.));
#443=CARTESIAN_POINT('',(10.8917577739215,0.,0.));
#444=CARTESIAN_POINT('',(10.8917577739215,0.,14.7900117153455));
#445=CARTESIAN_POINT('',(17.8229946762182,-21.7146140077139,0.442953608275197));
#446=CARTESIAN_POINT('',(2.32802644315148,0.,0.));
#447=CARTESIAN_POINT('',(1.24811108159559,0.,0.));
#448=CARTESIAN_POINT('',(1.24811108159559,0.,13.0716485944552));
#449=CARTESIAN_POINT('',(10.8917577739215,-14.7833771054172,0.442953608275198));
#450=CARTESIAN_POINT('',(2.32802644315148,0.,0.));
#451=CARTESIAN_POINT('',(1.17921619861342,-13.4649087549282,0.0279025894976495));
#452=CARTESIAN_POINT('',(2.32802644315148,0.,0.));
#453=(
GEOMETRIC_REPRESENTATION_CONTEXT(3)
GLOBAL_UNCERTAINTY_ASSIGNED_CONTEXT((#454))
GLOBAL_UNIT_ASSIGNED_CONTEXT((#460,#456,#455))
REPRESENTATION_CONTEXT('ADCR-280-VB1103','TOP_LEVEL_ASSEMBLY_PART')
);
#454=UNCERTAINTY_MEASURE_WITH_UNIT(LENGTH_MEASURE(0.0508),#460,
'DISTANCE_ACCURACY_VALUE','Maximum Tolerance applied to model');
#455=(
NAMED_UNIT(*)
SI_UNIT($,.STERADIAN.)
SOLID_ANGLE_UNIT()
);
#456=(
CONVERSION_BASED_UNIT('DEGREE',#458)
NAMED_UNIT(#457)
PLANE_ANGLE_UNIT()
);
#457=DIMENSIONAL_EXPONENTS(0.,0.,0.,0.,0.,0.,0.);
#458=PLANE_ANGLE_MEASURE_WITH_UNIT(PLANE_ANGLE_MEASURE(0.0174532925),#459);
#459=(
NAMED_UNIT(*)
PLANE_ANGLE_UNIT()
SI_UNIT($,.RADIAN.)
);
#460=(
LENGTH_UNIT()
NAMED_UNIT(*)
SI_UNIT(.MILLI.,.METRE.)
);
ENDSEC;
END-ISO-10303-21;
