ISO-10303-21;
HEADER;
/* Generated by software containing ST-Developer
 * from STEP Tools, Inc. (www.steptools.com) 
 */
/* OPTION: using custom schema-name function */

FILE_DESCRIPTION(
/* description */ (''),
/* implementation_level */ '2;1');

FILE_NAME(
/* name */ 'AEKR-D2.25X25 XC.. 130404.stp',
/* time_stamp */ '2023-10-31T03:07:35+03:00',
/* author */ (''),
/* organization */ (''),
/* preprocessor_version */ 'ST-DEVELOPER v19.4',
/* originating_system */ 'SIEMENS PLM Software NX2306.3001',
/* authorisation */ '');

FILE_SCHEMA (('AUTOMOTIVE_DESIGN { 1 0 10303 214 3 1 1 1 }'));
ENDSEC;

DATA;
#10=SHAPE_REPRESENTATION_RELATIONSHIP('None',
'relationship between AEKR-D2.25X25 XC.. 130404-None and AEKR-D2.25X25
 XC.. 130404-None',#22,#11);
#11=ADVANCED_BREP_SHAPE_REPRESENTATION('AEKR-D2.25X25 XC.. 130404-None',
(#52,#53),#414);
#12=SHAPE_DEFINITION_REPRESENTATION(#13,#22);
#13=PRODUCT_DEFINITION_SHAPE('','',#14);
#14=PRODUCT_DEFINITION(' ','',#16,#15);
#15=PRODUCT_DEFINITION_CONTEXT('part definition',#21,'design');
#16=PRODUCT_DEFINITION_FORMATION_WITH_SPECIFIED_SOURCE(' ',' ',#18,
 .NOT_KNOWN.);
#17=PRODUCT_RELATED_PRODUCT_CATEGORY('part','',(#18));
#18=PRODUCT('AEKR-D2.25X25 XC.. 130404','AEKR-D2.25X25 XC.. 130404',' ',
(#19));
#19=PRODUCT_CONTEXT(' ',#21,'mechanical');
#20=APPLICATION_PROTOCOL_DEFINITION('international standard',
'automotive_design',2010,#21);
#21=APPLICATION_CONTEXT(
'core data for automotive mechanical design processes');
#22=SHAPE_REPRESENTATION('AEKR-D2.25X25 XC.. 130404-None',(#245),#414);
#23=DRAUGHTING_PRE_DEFINED_COLOUR('yellow');
#24=SURFACE_OF_REVOLUTION('',#32,#28);
#25=SURFACE_OF_REVOLUTION('',#242,#29);
#26=SURFACE_OF_REVOLUTION('',#33,#30);
#27=SURFACE_OF_REVOLUTION('',#244,#31);
#28=AXIS1_PLACEMENT('',#403,#343);
#29=AXIS1_PLACEMENT('',#407,#348);
#30=AXIS1_PLACEMENT('',#411,#352);
#31=AXIS1_PLACEMENT('',#413,#355);
#32=LINE('',#402,#34);
#33=LINE('',#410,#35);
#34=VECTOR('',#342,12.3220774673155);
#35=VECTOR('',#351,12.3220774673155);
#36=PRESENTATION_LAYER_ASSIGNMENT('1','Layer 1',(#52,#53));
#37=STYLED_ITEM('',(#39),#52);
#38=STYLED_ITEM('',(#40),#53);
#39=PRESENTATION_STYLE_ASSIGNMENT((#41));
#40=PRESENTATION_STYLE_ASSIGNMENT((#42));
#41=SURFACE_STYLE_USAGE(.BOTH.,#43);
#42=SURFACE_STYLE_USAGE(.BOTH.,#44);
#43=SURFACE_SIDE_STYLE('',(#45));
#44=SURFACE_SIDE_STYLE('',(#46));
#45=SURFACE_STYLE_FILL_AREA(#47);
#46=SURFACE_STYLE_FILL_AREA(#48);
#47=FILL_AREA_STYLE('',(#49));
#48=FILL_AREA_STYLE('',(#50));
#49=FILL_AREA_STYLE_COLOUR('',#51);
#50=FILL_AREA_STYLE_COLOUR('',#23);
#51=COLOUR_RGB('light gray',0.8,0.8,0.8);
#52=MANIFOLD_SOLID_BREP('',#54);
#53=MANIFOLD_SOLID_BREP('',#55);
#54=CLOSED_SHELL('',(#96,#97,#98,#99,#100,#101,#102,#103,#104,#105,#106,
#107,#108));
#55=CLOSED_SHELL('',(#109,#110,#111,#112,#113,#114));
#56=CYLINDRICAL_SURFACE('',#253,12.);
#57=CYLINDRICAL_SURFACE('',#261,20.);
#58=CYLINDRICAL_SURFACE('',#270,16.);
#59=CONICAL_SURFACE('',#251,12.,2.99999999999961);
#60=CONICAL_SURFACE('',#257,19.5735764363511,55.0000000000001);
#61=TOROIDAL_SURFACE('',#249,10.9656875053922,0.8);
#62=TOROIDAL_SURFACE('',#255,20.,8.);
#63=TOROIDAL_SURFACE('',#259,19.,1.);
#64=TOROIDAL_SURFACE('',#263,19.5,0.5);
#65=TOROIDAL_SURFACE('',#269,14.,2.);
#66=FACE_BOUND('',#125,.T.);
#67=FACE_BOUND('',#126,.T.);
#68=FACE_BOUND('',#127,.T.);
#69=FACE_BOUND('',#128,.T.);
#70=FACE_BOUND('',#129,.T.);
#71=FACE_BOUND('',#130,.T.);
#72=FACE_BOUND('',#131,.T.);
#73=FACE_BOUND('',#132,.T.);
#74=FACE_BOUND('',#133,.T.);
#75=FACE_BOUND('',#134,.T.);
#76=FACE_BOUND('',#135,.T.);
#77=FACE_BOUND('',#136,.T.);
#78=FACE_BOUND('',#137,.T.);
#79=FACE_BOUND('',#138,.T.);
#80=FACE_BOUND('',#139,.T.);
#81=FACE_BOUND('',#140,.T.);
#82=FACE_BOUND('',#141,.T.);
#83=FACE_BOUND('',#142,.T.);
#84=FACE_BOUND('',#144,.T.);
#85=FACE_BOUND('',#145,.T.);
#86=FACE_BOUND('',#146,.T.);
#87=FACE_BOUND('',#147,.T.);
#88=FACE_BOUND('',#150,.T.);
#89=FACE_BOUND('',#151,.T.);
#90=FACE_BOUND('',#152,.T.);
#91=FACE_BOUND('',#153,.T.);
#92=FACE_BOUND('',#154,.T.);
#93=FACE_BOUND('',#155,.T.);
#94=FACE_BOUND('',#156,.T.);
#95=FACE_BOUND('',#157,.T.);
#96=ADVANCED_FACE('',(#120),#115,.F.);
#97=ADVANCED_FACE('',(#66,#67),#61,.T.);
#98=ADVANCED_FACE('',(#68,#69),#59,.T.);
#99=ADVANCED_FACE('',(#70,#71),#56,.T.);
#100=ADVANCED_FACE('',(#72,#73),#62,.F.);
#101=ADVANCED_FACE('',(#74,#75),#60,.T.);
#102=ADVANCED_FACE('',(#76,#77),#63,.T.);
#103=ADVANCED_FACE('',(#78,#79),#57,.T.);
#104=ADVANCED_FACE('',(#80,#81),#64,.T.);
#105=ADVANCED_FACE('',(#82,#83),#116,.F.);
#106=ADVANCED_FACE('',(#121),#117,.F.);
#107=ADVANCED_FACE('',(#84,#85),#65,.T.);
#108=ADVANCED_FACE('',(#86,#87),#58,.T.);
#109=ADVANCED_FACE('',(#122),#118,.F.);
#110=ADVANCED_FACE('',(#123),#119,.T.);
#111=ADVANCED_FACE('',(#88,#89),#24,.F.);
#112=ADVANCED_FACE('',(#90,#91),#25,.F.);
#113=ADVANCED_FACE('',(#92,#93),#26,.F.);
#114=ADVANCED_FACE('',(#94,#95),#27,.F.);
#115=PLANE('',#247);
#116=PLANE('',#265);
#117=PLANE('',#267);
#118=PLANE('',#272);
#119=PLANE('',#274);
#120=FACE_OUTER_BOUND('',#124,.T.);
#121=FACE_OUTER_BOUND('',#143,.T.);
#122=FACE_OUTER_BOUND('',#148,.T.);
#123=FACE_OUTER_BOUND('',#149,.T.);
#124=EDGE_LOOP('',(#158));
#125=EDGE_LOOP('',(#159));
#126=EDGE_LOOP('',(#160));
#127=EDGE_LOOP('',(#161));
#128=EDGE_LOOP('',(#162));
#129=EDGE_LOOP('',(#163));
#130=EDGE_LOOP('',(#164));
#131=EDGE_LOOP('',(#165));
#132=EDGE_LOOP('',(#166));
#133=EDGE_LOOP('',(#167));
#134=EDGE_LOOP('',(#168));
#135=EDGE_LOOP('',(#169));
#136=EDGE_LOOP('',(#170));
#137=EDGE_LOOP('',(#171));
#138=EDGE_LOOP('',(#172));
#139=EDGE_LOOP('',(#173));
#140=EDGE_LOOP('',(#174));
#141=EDGE_LOOP('',(#175));
#142=EDGE_LOOP('',(#176));
#143=EDGE_LOOP('',(#177));
#144=EDGE_LOOP('',(#178));
#145=EDGE_LOOP('',(#179));
#146=EDGE_LOOP('',(#180));
#147=EDGE_LOOP('',(#181));
#148=EDGE_LOOP('',(#182));
#149=EDGE_LOOP('',(#183));
#150=EDGE_LOOP('',(#184));
#151=EDGE_LOOP('',(#185));
#152=EDGE_LOOP('',(#186));
#153=EDGE_LOOP('',(#187));
#154=EDGE_LOOP('',(#188));
#155=EDGE_LOOP('',(#189));
#156=EDGE_LOOP('',(#190));
#157=EDGE_LOOP('',(#191));
#158=ORIENTED_EDGE('',*,*,#209,.T.);
#159=ORIENTED_EDGE('',*,*,#209,.F.);
#160=ORIENTED_EDGE('',*,*,#210,.T.);
#161=ORIENTED_EDGE('',*,*,#210,.F.);
#162=ORIENTED_EDGE('',*,*,#211,.T.);
#163=ORIENTED_EDGE('',*,*,#211,.F.);
#164=ORIENTED_EDGE('',*,*,#212,.T.);
#165=ORIENTED_EDGE('',*,*,#212,.F.);
#166=ORIENTED_EDGE('',*,*,#213,.T.);
#167=ORIENTED_EDGE('',*,*,#213,.F.);
#168=ORIENTED_EDGE('',*,*,#214,.T.);
#169=ORIENTED_EDGE('',*,*,#214,.F.);
#170=ORIENTED_EDGE('',*,*,#215,.T.);
#171=ORIENTED_EDGE('',*,*,#215,.F.);
#172=ORIENTED_EDGE('',*,*,#216,.T.);
#173=ORIENTED_EDGE('',*,*,#216,.F.);
#174=ORIENTED_EDGE('',*,*,#217,.T.);
#175=ORIENTED_EDGE('',*,*,#218,.F.);
#176=ORIENTED_EDGE('',*,*,#217,.F.);
#177=ORIENTED_EDGE('',*,*,#219,.F.);
#178=ORIENTED_EDGE('',*,*,#220,.F.);
#179=ORIENTED_EDGE('',*,*,#219,.T.);
#180=ORIENTED_EDGE('',*,*,#220,.T.);
#181=ORIENTED_EDGE('',*,*,#218,.T.);
#182=ORIENTED_EDGE('',*,*,#221,.F.);
#183=ORIENTED_EDGE('',*,*,#222,.T.);
#184=ORIENTED_EDGE('',*,*,#223,.T.);
#185=ORIENTED_EDGE('',*,*,#222,.F.);
#186=ORIENTED_EDGE('',*,*,#224,.T.);
#187=ORIENTED_EDGE('',*,*,#223,.F.);
#188=ORIENTED_EDGE('',*,*,#225,.T.);
#189=ORIENTED_EDGE('',*,*,#224,.F.);
#190=ORIENTED_EDGE('',*,*,#221,.T.);
#191=ORIENTED_EDGE('',*,*,#225,.F.);
#192=VERTEX_POINT('',#358);
#193=VERTEX_POINT('',#361);
#194=VERTEX_POINT('',#364);
#195=VERTEX_POINT('',#367);
#196=VERTEX_POINT('',#370);
#197=VERTEX_POINT('',#373);
#198=VERTEX_POINT('',#376);
#199=VERTEX_POINT('',#379);
#200=VERTEX_POINT('',#382);
#201=VERTEX_POINT('',#385);
#202=VERTEX_POINT('',#388);
#203=VERTEX_POINT('',#391);
#204=VERTEX_POINT('',#395);
#205=VERTEX_POINT('',#398);
#206=VERTEX_POINT('',#401);
#207=VERTEX_POINT('',#405);
#208=VERTEX_POINT('',#409);
#209=EDGE_CURVE('',#192,#192,#226,.T.);
#210=EDGE_CURVE('',#193,#193,#227,.T.);
#211=EDGE_CURVE('',#194,#194,#228,.T.);
#212=EDGE_CURVE('',#195,#195,#229,.T.);
#213=EDGE_CURVE('',#196,#196,#230,.T.);
#214=EDGE_CURVE('',#197,#197,#231,.T.);
#215=EDGE_CURVE('',#198,#198,#232,.T.);
#216=EDGE_CURVE('',#199,#199,#233,.T.);
#217=EDGE_CURVE('',#200,#200,#234,.T.);
#218=EDGE_CURVE('',#201,#201,#235,.T.);
#219=EDGE_CURVE('',#202,#202,#236,.T.);
#220=EDGE_CURVE('',#203,#203,#237,.T.);
#221=EDGE_CURVE('',#204,#204,#238,.T.);
#222=EDGE_CURVE('',#205,#205,#239,.T.);
#223=EDGE_CURVE('',#206,#206,#240,.T.);
#224=EDGE_CURVE('',#207,#207,#241,.T.);
#225=EDGE_CURVE('',#208,#208,#243,.T.);
#226=CIRCLE('',#246,10.9656875053922);
#227=CIRCLE('',#248,11.7645911331958);
#228=CIRCLE('',#250,12.);
#229=CIRCLE('',#252,12.);
#230=CIRCLE('',#254,15.4113885091916);
#231=CIRCLE('',#256,19.5735764363511);
#232=CIRCLE('',#258,20.);
#233=CIRCLE('',#260,20.);
#234=CIRCLE('',#262,19.5);
#235=CIRCLE('',#264,16.);
#236=CIRCLE('',#266,14.);
#237=CIRCLE('',#268,16.);
#238=CIRCLE('',#271,11.1287417622151);
#239=CIRCLE('',#273,1.08294231813446);
#240=CIRCLE('',#275,12.1061832379282);
#241=CIRCLE('',#276,12.4997736315235);
#242=CIRCLE('',#277,0.4);
#243=CIRCLE('',#278,11.8100351381717);
#244=CIRCLE('',#279,0.677215439097094);
#245=AXIS2_PLACEMENT_3D('',#356,#280,#281);
#246=AXIS2_PLACEMENT_3D('',#357,#282,#283);
#247=AXIS2_PLACEMENT_3D('',#359,#284,#285);
#248=AXIS2_PLACEMENT_3D('',#360,#286,#287);
#249=AXIS2_PLACEMENT_3D('',#362,#288,#289);
#250=AXIS2_PLACEMENT_3D('',#363,#290,#291);
#251=AXIS2_PLACEMENT_3D('',#365,#292,#293);
#252=AXIS2_PLACEMENT_3D('',#366,#294,#295);
#253=AXIS2_PLACEMENT_3D('',#368,#296,#297);
#254=AXIS2_PLACEMENT_3D('',#369,#298,#299);
#255=AXIS2_PLACEMENT_3D('',#371,#300,#301);
#256=AXIS2_PLACEMENT_3D('',#372,#302,#303);
#257=AXIS2_PLACEMENT_3D('',#374,#304,#305);
#258=AXIS2_PLACEMENT_3D('',#375,#306,#307);
#259=AXIS2_PLACEMENT_3D('',#377,#308,#309);
#260=AXIS2_PLACEMENT_3D('',#378,#310,#311);
#261=AXIS2_PLACEMENT_3D('',#380,#312,#313);
#262=AXIS2_PLACEMENT_3D('',#381,#314,#315);
#263=AXIS2_PLACEMENT_3D('',#383,#316,#317);
#264=AXIS2_PLACEMENT_3D('',#384,#318,#319);
#265=AXIS2_PLACEMENT_3D('',#386,#320,#321);
#266=AXIS2_PLACEMENT_3D('',#387,#322,#323);
#267=AXIS2_PLACEMENT_3D('',#389,#324,#325);
#268=AXIS2_PLACEMENT_3D('',#390,#326,#327);
#269=AXIS2_PLACEMENT_3D('',#392,#328,#329);
#270=AXIS2_PLACEMENT_3D('',#393,#330,#331);
#271=AXIS2_PLACEMENT_3D('',#394,#332,#333);
#272=AXIS2_PLACEMENT_3D('',#396,#334,#335);
#273=AXIS2_PLACEMENT_3D('',#397,#336,#337);
#274=AXIS2_PLACEMENT_3D('',#399,#338,#339);
#275=AXIS2_PLACEMENT_3D('',#400,#340,#341);
#276=AXIS2_PLACEMENT_3D('',#404,#344,#345);
#277=AXIS2_PLACEMENT_3D('',#406,#346,#347);
#278=AXIS2_PLACEMENT_3D('',#408,#349,#350);
#279=AXIS2_PLACEMENT_3D('',#412,#353,#354);
#280=DIRECTION('',(0.,0.,1.));
#281=DIRECTION('',(1.,0.,0.));
#282=DIRECTION('',(-1.,0.,0.));
#283=DIRECTION('',(0.,0.,1.));
#284=DIRECTION('',(1.,0.,0.));
#285=DIRECTION('',(0.,0.,-1.));
#286=DIRECTION('',(-1.,0.,0.));
#287=DIRECTION('',(0.,0.,1.));
#288=DIRECTION('',(-1.,0.,0.));
#289=DIRECTION('',(0.,0.,1.));
#290=DIRECTION('',(-1.,0.,0.));
#291=DIRECTION('',(0.,0.,1.));
#292=DIRECTION('',(1.,0.,0.));
#293=DIRECTION('',(8.08003394288934E-17,0.,-1.));
#294=DIRECTION('',(-1.,0.,0.));
#295=DIRECTION('',(0.,0.,1.));
#296=DIRECTION('',(-1.,0.,0.));
#297=DIRECTION('',(0.,0.,1.));
#298=DIRECTION('',(-1.,0.,0.));
#299=DIRECTION('',(0.,0.,1.));
#300=DIRECTION('',(-1.,0.,0.));
#301=DIRECTION('',(0.,0.,1.));
#302=DIRECTION('',(-1.,0.,0.));
#303=DIRECTION('',(0.,0.,1.));
#304=DIRECTION('',(1.,0.,0.));
#305=DIRECTION('',(-3.83438030324747E-17,0.,-1.));
#306=DIRECTION('',(-1.,0.,0.));
#307=DIRECTION('',(0.,0.,1.));
#308=DIRECTION('',(-1.,0.,0.));
#309=DIRECTION('',(0.,0.,1.));
#310=DIRECTION('',(-1.,0.,0.));
#311=DIRECTION('',(0.,0.,1.));
#312=DIRECTION('',(-1.,0.,0.));
#313=DIRECTION('',(0.,0.,1.));
#314=DIRECTION('',(-1.,0.,0.));
#315=DIRECTION('',(0.,0.,1.));
#316=DIRECTION('',(-1.,0.,0.));
#317=DIRECTION('',(0.,0.,1.));
#318=DIRECTION('',(1.,0.,0.));
#319=DIRECTION('',(0.,0.,1.));
#320=DIRECTION('',(-1.,0.,0.));
#321=DIRECTION('',(0.,0.,1.));
#322=DIRECTION('',(-1.,0.,0.));
#323=DIRECTION('',(0.,0.,1.));
#324=DIRECTION('',(-1.,0.,0.));
#325=DIRECTION('',(0.,0.,1.));
#326=DIRECTION('',(-1.,0.,0.));
#327=DIRECTION('',(0.,0.,1.));
#328=DIRECTION('',(-1.,0.,0.));
#329=DIRECTION('',(0.,0.,1.));
#330=DIRECTION('',(-1.,0.,0.));
#331=DIRECTION('',(0.,0.,1.));
#332=DIRECTION('',(-1.,0.,0.));
#333=DIRECTION('',(0.,0.,1.));
#334=DIRECTION('',(-1.,0.,0.));
#335=DIRECTION('',(0.,0.,1.));
#336=DIRECTION('',(-1.,0.,0.));
#337=DIRECTION('',(0.,0.,1.));
#338=DIRECTION('',(-1.,0.,0.));
#339=DIRECTION('',(0.,0.,1.));
#340=DIRECTION('',(-1.,0.,0.));
#341=DIRECTION('',(0.,0.,1.));
#342=DIRECTION('',(0.00137987578218234,-0.996916384638876,-0.0784590210325075));
#343=DIRECTION('',(-1.,0.,0.));
#344=DIRECTION('',(-1.,0.,0.));
#345=DIRECTION('',(0.,0.,1.));
#346=DIRECTION('',(6.93889390390723E-17,-0.078459095727845,0.996917333733128));
#347=DIRECTION('',(-0.99993565026023,-0.0113094258060532,-0.000890071114142729));
#348=DIRECTION('',(-1.,0.,0.));
#349=DIRECTION('',(-1.,0.,0.));
#350=DIRECTION('',(0.,0.,1.));
#351=DIRECTION('',(0.998420297370353,0.056013180589822,0.0044083329170946));
#352=DIRECTION('',(-1.,0.,0.));
#353=DIRECTION('',(1.0842021724855E-19,-0.0784590957278451,0.996917333733128));
#354=DIRECTION('',(0.,-0.996917333733128,-0.0784590957278451));
#355=DIRECTION('',(-1.,0.,0.));
#356=CARTESIAN_POINT('',(0.,0.,0.));
#357=CARTESIAN_POINT('',(0.75,0.,0.));
#358=CARTESIAN_POINT('',(0.75,0.,10.9656875053922));
#359=CARTESIAN_POINT('',(0.75,0.,0.));
#360=CARTESIAN_POINT('',(1.50813123500565,0.,0.));
#361=CARTESIAN_POINT('',(1.50813123500565,0.,11.7645911331958));
#362=CARTESIAN_POINT('',(1.55,0.,0.));
#363=CARTESIAN_POINT('',(6.,0.,0.));
#364=CARTESIAN_POINT('',(6.,0.,12.));
#365=CARTESIAN_POINT('',(6.,0.,0.));
#366=CARTESIAN_POINT('',(56.5,0.,0.));
#367=CARTESIAN_POINT('',(56.5,0.,12.));
#368=CARTESIAN_POINT('',(0.,0.,0.));
#369=CARTESIAN_POINT('',(63.053216354312,0.,0.));
#370=CARTESIAN_POINT('',(63.053216354312,0.,15.4113885091916));
#371=CARTESIAN_POINT('',(56.5,0.,0.));
#372=CARTESIAN_POINT('',(65.9676117163544,0.,0.));
#373=CARTESIAN_POINT('',(65.9676117163544,0.,19.5735764363511));
#374=CARTESIAN_POINT('',(65.9676117163544,0.,0.));
#375=CARTESIAN_POINT('',(66.7867637606434,0.,0.));
#376=CARTESIAN_POINT('',(66.7867637606434,0.,20.));
#377=CARTESIAN_POINT('',(66.7867637606434,0.,0.));
#378=CARTESIAN_POINT('',(68.5,0.,0.));
#379=CARTESIAN_POINT('',(68.5,0.,20.));
#380=CARTESIAN_POINT('',(0.,0.,0.));
#381=CARTESIAN_POINT('',(69.,0.,0.));
#382=CARTESIAN_POINT('',(69.,0.,19.5));
#383=CARTESIAN_POINT('',(68.5,0.,0.));
#384=CARTESIAN_POINT('',(69.,0.,0.));
#385=CARTESIAN_POINT('',(69.,0.,16.));
#386=CARTESIAN_POINT('',(69.,19.5,0.));
#387=CARTESIAN_POINT('',(129.,0.,0.));
#388=CARTESIAN_POINT('',(129.,0.,14.));
#389=CARTESIAN_POINT('',(129.,14.,0.));
#390=CARTESIAN_POINT('',(127.,0.,0.));
#391=CARTESIAN_POINT('',(127.,0.,16.));
#392=CARTESIAN_POINT('',(127.,0.,0.));
#393=CARTESIAN_POINT('',(0.,0.,0.));
#394=CARTESIAN_POINT('',(13.3624036280577,0.,0.));
#395=CARTESIAN_POINT('',(13.3624036280577,0.,11.1287417622151));
#396=CARTESIAN_POINT('',(13.3624036280577,0.,0.));
#397=CARTESIAN_POINT('',(-0.0215406950014707,0.,0.));
#398=CARTESIAN_POINT('',(-0.0215406950014707,0.,1.08294231813446));
#399=CARTESIAN_POINT('',(-0.0215406950014707,0.,0.));
#400=CARTESIAN_POINT('',(-0.0045377587181474,0.,0.));
#401=CARTESIAN_POINT('',(-0.0045377587181474,0.,12.1061832379282));
#402=CARTESIAN_POINT('',(-0.0215406950014707,0.178322192901146,1.06815975393447));
#403=CARTESIAN_POINT('',(0.,0.,0.));
#404=CARTESIAN_POINT('',(0.413930396195674,0.,0.));
#405=CARTESIAN_POINT('',(0.413930396195674,0.,12.4997736315235));
#406=CARTESIAN_POINT('',(0.395436501385939,-12.1012349567327,0.101737647207838));
#407=CARTESIAN_POINT('',(0.,0.,0.));
#408=CARTESIAN_POINT('',(12.7165426453333,0.,0.));
#409=CARTESIAN_POINT('',(12.7165426453333,0.,11.8100351381717));
#410=CARTESIAN_POINT('',(0.413930396195673,-12.4995754499603,0.0703875704934692));
#411=CARTESIAN_POINT('',(0.,0.,0.));
#412=CARTESIAN_POINT('',(12.6852317675978,-11.1349708694636,0.177784280119248));
#413=CARTESIAN_POINT('',(0.,0.,0.));
#414=(
GEOMETRIC_REPRESENTATION_CONTEXT(3)
GLOBAL_UNCERTAINTY_ASSIGNED_CONTEXT((#415))
GLOBAL_UNIT_ASSIGNED_CONTEXT((#421,#417,#416))
REPRESENTATION_CONTEXT('AEKR-D2.25X25 XC.','TOP_LEVEL_ASSEMBLY_PART')
);
#415=UNCERTAINTY_MEASURE_WITH_UNIT(LENGTH_MEASURE(2.E-5),#421,
'DISTANCE_ACCURACY_VALUE','Maximum Tolerance applied to model');
#416=(
NAMED_UNIT(*)
SI_UNIT($,.STERADIAN.)
SOLID_ANGLE_UNIT()
);
#417=(
CONVERSION_BASED_UNIT('DEGREE',#419)
NAMED_UNIT(#418)
PLANE_ANGLE_UNIT()
);
#418=DIMENSIONAL_EXPONENTS(0.,0.,0.,0.,0.,0.,0.);
#419=PLANE_ANGLE_MEASURE_WITH_UNIT(PLANE_ANGLE_MEASURE(0.0174532925),#420);
#420=(
NAMED_UNIT(*)
PLANE_ANGLE_UNIT()
SI_UNIT($,.RADIAN.)
);
#421=(
LENGTH_UNIT()
NAMED_UNIT(*)
SI_UNIT(.MILLI.,.METRE.)
);
ENDSEC;
END-ISO-10303-21;
