ISO-10303-21;
HEADER;
/* Generated by software containing ST-Developer
 * from STEP Tools, Inc. (www.steptools.com) 
 */
/* OPTION: using custom schema-name function */

FILE_DESCRIPTION(
/* description */ (''),
/* implementation_level */ '2;1');

FILE_NAME(
/* name */ 'AEKR-D2.25X8 XC.. 040104.stp',
/* time_stamp */ '2023-10-31T02:21:38+03:00',
/* author */ (''),
/* organization */ (''),
/* preprocessor_version */ 'ST-DEVELOPER v19.4',
/* originating_system */ 'SIEMENS PLM Software NX2306.3001',
/* authorisation */ '');

FILE_SCHEMA (('AUTOMOTIVE_DESIGN { 1 0 10303 214 3 1 1 1 }'));
ENDSEC;

DATA;
#10=SHAPE_REPRESENTATION_RELATIONSHIP('None',
'relationship between AEKR-D2.25X8 XC.. 040104_XT-None and AEKR-D2.25X
8 XC.. 040104_XT-None',#22,#11);
#11=ADVANCED_BREP_SHAPE_REPRESENTATION(
'AEKR-D2.25X8 XC.. 040104_XT-None',(#48,#49),#351);
#12=SHAPE_DEFINITION_REPRESENTATION(#13,#22);
#13=PRODUCT_DEFINITION_SHAPE('','',#14);
#14=PRODUCT_DEFINITION(' ','',#16,#15);
#15=PRODUCT_DEFINITION_CONTEXT('part definition',#21,'design');
#16=PRODUCT_DEFINITION_FORMATION_WITH_SPECIFIED_SOURCE(' ',' ',#18,
 .NOT_KNOWN.);
#17=PRODUCT_RELATED_PRODUCT_CATEGORY('part','',(#18));
#18=PRODUCT('AEKR-D2.25X8 XC.. 040104_XT','AEKR-D2.25X8 XC.. 040104_XT',
' ',(#19));
#19=PRODUCT_CONTEXT(' ',#21,'mechanical');
#20=APPLICATION_PROTOCOL_DEFINITION('international standard',
'automotive_design',2010,#21);
#21=APPLICATION_CONTEXT(
'core data for automotive mechanical design processes');
#22=SHAPE_REPRESENTATION('AEKR-D2.25X8 XC.. 040104_XT-None',(#209),#351);
#23=DRAUGHTING_PRE_DEFINED_COLOUR('yellow');
#24=LINE('',#347,#25);
#25=VECTOR('',#298,5.60389771921942);
#26=SURFACE_OF_REVOLUTION('',#206,#29);
#27=SURFACE_OF_REVOLUTION('',#24,#30);
#28=SURFACE_OF_REVOLUTION('',#208,#31);
#29=AXIS1_PLACEMENT('',#344,#295);
#30=AXIS1_PLACEMENT('',#348,#299);
#31=AXIS1_PLACEMENT('',#350,#302);
#32=PRESENTATION_LAYER_ASSIGNMENT('1','Layer 1',(#48,#49));
#33=STYLED_ITEM('',(#35),#48);
#34=STYLED_ITEM('',(#36),#49);
#35=PRESENTATION_STYLE_ASSIGNMENT((#37));
#36=PRESENTATION_STYLE_ASSIGNMENT((#38));
#37=SURFACE_STYLE_USAGE(.BOTH.,#39);
#38=SURFACE_STYLE_USAGE(.BOTH.,#40);
#39=SURFACE_SIDE_STYLE('',(#41));
#40=SURFACE_SIDE_STYLE('',(#42));
#41=SURFACE_STYLE_FILL_AREA(#43);
#42=SURFACE_STYLE_FILL_AREA(#44);
#43=FILL_AREA_STYLE('',(#45));
#44=FILL_AREA_STYLE('',(#46));
#45=FILL_AREA_STYLE_COLOUR('',#47);
#46=FILL_AREA_STYLE_COLOUR('',#23);
#47=COLOUR_RGB('light gray',0.8,0.8,0.8);
#48=MANIFOLD_SOLID_BREP('',#50);
#49=MANIFOLD_SOLID_BREP('',#51);
#50=CLOSED_SHELL('',(#67,#68,#69,#70,#71,#72,#73,#74,#75,#76,#77));
#51=CLOSED_SHELL('',(#78,#79,#80,#81,#82));
#52=CYLINDRICAL_SURFACE('',#217,5.);
#53=CYLINDRICAL_SURFACE('',#225,3.75);
#54=CYLINDRICAL_SURFACE('',#230,6.);
#55=TOROIDAL_SURFACE('',#216,4.,1.);
#56=TOROIDAL_SURFACE('',#221,3.23153355821401,0.4);
#57=TOROIDAL_SURFACE('',#227,7.15,3.4);
#58=TOROIDAL_SURFACE('',#229,5.5,0.5);
#59=PLANE('',#214);
#60=PLANE('',#219);
#61=PLANE('',#232);
#62=PLANE('',#234);
#63=FACE_OUTER_BOUND('',#111,.T.);
#64=FACE_OUTER_BOUND('',#116,.T.);
#65=FACE_OUTER_BOUND('',#129,.T.);
#66=FACE_OUTER_BOUND('',#130,.T.);
#67=ADVANCED_FACE('',(#85,#86),#83,.F.);
#68=ADVANCED_FACE('',(#63),#59,.F.);
#69=ADVANCED_FACE('',(#87,#88),#55,.T.);
#70=ADVANCED_FACE('',(#89,#90),#52,.T.);
#71=ADVANCED_FACE('',(#64),#60,.F.);
#72=ADVANCED_FACE('',(#91,#92),#56,.T.);
#73=ADVANCED_FACE('',(#93,#94),#84,.T.);
#74=ADVANCED_FACE('',(#95,#96),#53,.T.);
#75=ADVANCED_FACE('',(#97,#98),#57,.F.);
#76=ADVANCED_FACE('',(#99,#100),#58,.T.);
#77=ADVANCED_FACE('',(#101,#102),#54,.T.);
#78=ADVANCED_FACE('',(#65),#61,.T.);
#79=ADVANCED_FACE('',(#66),#62,.F.);
#80=ADVANCED_FACE('',(#103,#104),#26,.T.);
#81=ADVANCED_FACE('',(#105,#106),#27,.T.);
#82=ADVANCED_FACE('',(#107,#108),#28,.T.);
#83=CONICAL_SURFACE('',#212,4.96046719124859,86.9999999999998);
#84=CONICAL_SURFACE('',#223,3.75,2.99999999999962);
#85=FACE_BOUND('',#109,.T.);
#86=FACE_BOUND('',#110,.T.);
#87=FACE_BOUND('',#112,.T.);
#88=FACE_BOUND('',#113,.T.);
#89=FACE_BOUND('',#114,.T.);
#90=FACE_BOUND('',#115,.T.);
#91=FACE_BOUND('',#117,.T.);
#92=FACE_BOUND('',#118,.T.);
#93=FACE_BOUND('',#119,.T.);
#94=FACE_BOUND('',#120,.T.);
#95=FACE_BOUND('',#121,.T.);
#96=FACE_BOUND('',#122,.T.);
#97=FACE_BOUND('',#123,.T.);
#98=FACE_BOUND('',#124,.T.);
#99=FACE_BOUND('',#125,.T.);
#100=FACE_BOUND('',#126,.T.);
#101=FACE_BOUND('',#127,.T.);
#102=FACE_BOUND('',#128,.T.);
#103=FACE_BOUND('',#131,.T.);
#104=FACE_BOUND('',#132,.T.);
#105=FACE_BOUND('',#133,.T.);
#106=FACE_BOUND('',#134,.T.);
#107=FACE_BOUND('',#135,.T.);
#108=FACE_BOUND('',#136,.T.);
#109=EDGE_LOOP('',(#137));
#110=EDGE_LOOP('',(#138));
#111=EDGE_LOOP('',(#139));
#112=EDGE_LOOP('',(#140));
#113=EDGE_LOOP('',(#141));
#114=EDGE_LOOP('',(#142));
#115=EDGE_LOOP('',(#143));
#116=EDGE_LOOP('',(#144));
#117=EDGE_LOOP('',(#145));
#118=EDGE_LOOP('',(#146));
#119=EDGE_LOOP('',(#147));
#120=EDGE_LOOP('',(#148));
#121=EDGE_LOOP('',(#149));
#122=EDGE_LOOP('',(#150));
#123=EDGE_LOOP('',(#151));
#124=EDGE_LOOP('',(#152));
#125=EDGE_LOOP('',(#153));
#126=EDGE_LOOP('',(#154));
#127=EDGE_LOOP('',(#155));
#128=EDGE_LOOP('',(#156));
#129=EDGE_LOOP('',(#157));
#130=EDGE_LOOP('',(#158));
#131=EDGE_LOOP('',(#159));
#132=EDGE_LOOP('',(#160));
#133=EDGE_LOOP('',(#161));
#134=EDGE_LOOP('',(#162));
#135=EDGE_LOOP('',(#163));
#136=EDGE_LOOP('',(#164));
#137=ORIENTED_EDGE('',*,*,#179,.F.);
#138=ORIENTED_EDGE('',*,*,#180,.T.);
#139=ORIENTED_EDGE('',*,*,#181,.F.);
#140=ORIENTED_EDGE('',*,*,#182,.F.);
#141=ORIENTED_EDGE('',*,*,#181,.T.);
#142=ORIENTED_EDGE('',*,*,#182,.T.);
#143=ORIENTED_EDGE('',*,*,#179,.T.);
#144=ORIENTED_EDGE('',*,*,#183,.T.);
#145=ORIENTED_EDGE('',*,*,#183,.F.);
#146=ORIENTED_EDGE('',*,*,#184,.T.);
#147=ORIENTED_EDGE('',*,*,#184,.F.);
#148=ORIENTED_EDGE('',*,*,#185,.T.);
#149=ORIENTED_EDGE('',*,*,#185,.F.);
#150=ORIENTED_EDGE('',*,*,#186,.T.);
#151=ORIENTED_EDGE('',*,*,#186,.F.);
#152=ORIENTED_EDGE('',*,*,#187,.T.);
#153=ORIENTED_EDGE('',*,*,#187,.F.);
#154=ORIENTED_EDGE('',*,*,#188,.T.);
#155=ORIENTED_EDGE('',*,*,#180,.F.);
#156=ORIENTED_EDGE('',*,*,#188,.F.);
#157=ORIENTED_EDGE('',*,*,#189,.T.);
#158=ORIENTED_EDGE('',*,*,#190,.F.);
#159=ORIENTED_EDGE('',*,*,#191,.F.);
#160=ORIENTED_EDGE('',*,*,#190,.T.);
#161=ORIENTED_EDGE('',*,*,#192,.F.);
#162=ORIENTED_EDGE('',*,*,#191,.T.);
#163=ORIENTED_EDGE('',*,*,#189,.F.);
#164=ORIENTED_EDGE('',*,*,#192,.T.);
#165=VERTEX_POINT('',#305);
#166=VERTEX_POINT('',#307);
#167=VERTEX_POINT('',#310);
#168=VERTEX_POINT('',#313);
#169=VERTEX_POINT('',#317);
#170=VERTEX_POINT('',#320);
#171=VERTEX_POINT('',#323);
#172=VERTEX_POINT('',#326);
#173=VERTEX_POINT('',#329);
#174=VERTEX_POINT('',#332);
#175=VERTEX_POINT('',#336);
#176=VERTEX_POINT('',#339);
#177=VERTEX_POINT('',#342);
#178=VERTEX_POINT('',#346);
#179=EDGE_CURVE('',#165,#165,#193,.T.);
#180=EDGE_CURVE('',#166,#166,#194,.T.);
#181=EDGE_CURVE('',#167,#167,#195,.T.);
#182=EDGE_CURVE('',#168,#168,#196,.T.);
#183=EDGE_CURVE('',#169,#169,#197,.T.);
#184=EDGE_CURVE('',#170,#170,#198,.T.);
#185=EDGE_CURVE('',#171,#171,#199,.T.);
#186=EDGE_CURVE('',#172,#172,#200,.T.);
#187=EDGE_CURVE('',#173,#173,#201,.T.);
#188=EDGE_CURVE('',#174,#174,#202,.T.);
#189=EDGE_CURVE('',#175,#175,#203,.T.);
#190=EDGE_CURVE('',#176,#176,#204,.T.);
#191=EDGE_CURVE('',#177,#177,#205,.T.);
#192=EDGE_CURVE('',#178,#178,#207,.T.);
#193=CIRCLE('',#210,5.);
#194=CIRCLE('',#211,6.);
#195=CIRCLE('',#213,4.);
#196=CIRCLE('',#215,5.);
#197=CIRCLE('',#218,3.23153355821401);
#198=CIRCLE('',#220,3.63098537211583);
#199=CIRCLE('',#222,3.75);
#200=CIRCLE('',#224,3.75);
#201=CIRCLE('',#226,5.71153846153846);
#202=CIRCLE('',#228,6.);
#203=CIRCLE('',#231,3.61280804431098);
#204=CIRCLE('',#233,3.31243157115992);
#205=CIRCLE('',#235,3.63802523462284);
#206=CIRCLE('',#236,0.326329263458258);
#207=CIRCLE('',#237,3.99938097421623);
#208=CIRCLE('',#238,0.4);
#209=AXIS2_PLACEMENT_3D('',#303,#239,#240);
#210=AXIS2_PLACEMENT_3D('',#304,#241,#242);
#211=AXIS2_PLACEMENT_3D('',#306,#243,#244);
#212=AXIS2_PLACEMENT_3D('',#308,#245,#246);
#213=AXIS2_PLACEMENT_3D('',#309,#247,#248);
#214=AXIS2_PLACEMENT_3D('',#311,#249,#250);
#215=AXIS2_PLACEMENT_3D('',#312,#251,#252);
#216=AXIS2_PLACEMENT_3D('',#314,#253,#254);
#217=AXIS2_PLACEMENT_3D('',#315,#255,#256);
#218=AXIS2_PLACEMENT_3D('',#316,#257,#258);
#219=AXIS2_PLACEMENT_3D('',#318,#259,#260);
#220=AXIS2_PLACEMENT_3D('',#319,#261,#262);
#221=AXIS2_PLACEMENT_3D('',#321,#263,#264);
#222=AXIS2_PLACEMENT_3D('',#322,#265,#266);
#223=AXIS2_PLACEMENT_3D('',#324,#267,#268);
#224=AXIS2_PLACEMENT_3D('',#325,#269,#270);
#225=AXIS2_PLACEMENT_3D('',#327,#271,#272);
#226=AXIS2_PLACEMENT_3D('',#328,#273,#274);
#227=AXIS2_PLACEMENT_3D('',#330,#275,#276);
#228=AXIS2_PLACEMENT_3D('',#331,#277,#278);
#229=AXIS2_PLACEMENT_3D('',#333,#279,#280);
#230=AXIS2_PLACEMENT_3D('',#334,#281,#282);
#231=AXIS2_PLACEMENT_3D('',#335,#283,#284);
#232=AXIS2_PLACEMENT_3D('',#337,#285,#286);
#233=AXIS2_PLACEMENT_3D('',#338,#287,#288);
#234=AXIS2_PLACEMENT_3D('',#340,#289,#290);
#235=AXIS2_PLACEMENT_3D('',#341,#291,#292);
#236=AXIS2_PLACEMENT_3D('',#343,#293,#294);
#237=AXIS2_PLACEMENT_3D('',#345,#296,#297);
#238=AXIS2_PLACEMENT_3D('',#349,#300,#301);
#239=DIRECTION('',(0.,0.,1.));
#240=DIRECTION('',(1.,0.,0.));
#241=DIRECTION('',(1.,0.,0.));
#242=DIRECTION('',(0.,0.,-1.));
#243=DIRECTION('',(1.,0.,0.));
#244=DIRECTION('',(0.,0.,-1.));
#245=DIRECTION('',(1.,0.,0.));
#246=DIRECTION('',(9.08893768011559E-19,0.,-0.999999999999999));
#247=DIRECTION('',(-1.,0.,0.));
#248=DIRECTION('',(0.,0.,1.));
#249=DIRECTION('',(-1.,0.,0.));
#250=DIRECTION('',(0.,0.,1.));
#251=DIRECTION('',(-1.,0.,0.));
#252=DIRECTION('',(0.,0.,1.));
#253=DIRECTION('',(-1.,0.,0.));
#254=DIRECTION('',(0.,0.,1.));
#255=DIRECTION('',(-1.,0.,0.));
#256=DIRECTION('',(0.,0.,1.));
#257=DIRECTION('',(-1.,0.,0.));
#258=DIRECTION('',(0.,0.,1.));
#259=DIRECTION('',(1.,0.,0.));
#260=DIRECTION('',(0.,0.,-1.));
#261=DIRECTION('',(-1.,0.,0.));
#262=DIRECTION('',(0.,0.,1.));
#263=DIRECTION('',(-1.,0.,0.));
#264=DIRECTION('',(0.,0.,1.));
#265=DIRECTION('',(-1.,0.,0.));
#266=DIRECTION('',(0.,0.,1.));
#267=DIRECTION('',(1.,0.,0.));
#268=DIRECTION('',(-1.93063576645568E-15,0.,-1.));
#269=DIRECTION('',(-1.,0.,0.));
#270=DIRECTION('',(0.,0.,1.));
#271=DIRECTION('',(-1.,0.,0.));
#272=DIRECTION('',(0.,0.,1.));
#273=DIRECTION('',(-1.,0.,0.));
#274=DIRECTION('',(0.,0.,1.));
#275=DIRECTION('',(-1.,0.,0.));
#276=DIRECTION('',(0.,0.,1.));
#277=DIRECTION('',(-1.,0.,0.));
#278=DIRECTION('',(0.,0.,1.));
#279=DIRECTION('',(-1.,0.,0.));
#280=DIRECTION('',(0.,0.,1.));
#281=DIRECTION('',(-1.,0.,0.));
#282=DIRECTION('',(0.,0.,1.));
#283=DIRECTION('',(-1.,0.,0.));
#284=DIRECTION('',(0.,0.,1.));
#285=DIRECTION('',(-1.,0.,0.));
#286=DIRECTION('',(0.,0.,1.));
#287=DIRECTION('',(-1.,0.,0.));
#288=DIRECTION('',(0.,0.,1.));
#289=DIRECTION('',(-1.,0.,0.));
#290=DIRECTION('',(0.,0.,1.));
#291=DIRECTION('',(-1.,0.,0.));
#292=DIRECTION('',(0.,0.,1.));
#293=DIRECTION('',(4.33680868994202E-19,0.139173100960066,-0.99026806874157));
#294=DIRECTION('',(1.22464679914735E-16,-0.99026806874157,-0.139173100960066));
#295=DIRECTION('',(-1.,0.,0.));
#296=DIRECTION('',(-1.,0.,0.));
#297=DIRECTION('',(0.,0.,1.));
#298=DIRECTION('',(-0.997855210145047,-0.064822705631026,-0.00911023715705186));
#299=DIRECTION('',(-1.,0.,0.));
#300=DIRECTION('',(-5.55111512312578E-17,0.139173100960066,-0.99026806874157));
#301=DIRECTION('',(-0.999847695156391,-0.0172825608175417,-0.00242890552309211));
#302=DIRECTION('',(-1.,0.,0.));
#303=CARTESIAN_POINT('',(0.,0.,0.));
#304=CARTESIAN_POINT('',(21.9790368882868,0.,0.));
#305=CARTESIAN_POINT('',(21.9790368882868,0.,-5.));
#306=CARTESIAN_POINT('',(22.0314446675698,0.,0.));
#307=CARTESIAN_POINT('',(22.0314446675698,0.,-6.));
#308=CARTESIAN_POINT('',(21.9769650615713,0.,0.));
#309=CARTESIAN_POINT('',(60.,0.,0.));
#310=CARTESIAN_POINT('',(60.,0.,4.));
#311=CARTESIAN_POINT('',(60.,4.,0.));
#312=CARTESIAN_POINT('',(59.,0.,0.));
#313=CARTESIAN_POINT('',(59.,0.,5.));
#314=CARTESIAN_POINT('',(59.,0.,0.));
#315=CARTESIAN_POINT('',(0.,0.,0.));
#316=CARTESIAN_POINT('',(0.35,0.,0.));
#317=CARTESIAN_POINT('',(0.35,0.,3.23153355821401));
#318=CARTESIAN_POINT('',(0.35,0.,0.));
#319=CARTESIAN_POINT('',(0.729065617502825,0.,0.));
#320=CARTESIAN_POINT('',(0.729065617502825,0.,3.63098537211583));
#321=CARTESIAN_POINT('',(0.75,0.,0.));
#322=CARTESIAN_POINT('',(3.,0.,0.));
#323=CARTESIAN_POINT('',(3.,0.,3.75));
#324=CARTESIAN_POINT('',(3.,0.,0.));
#325=CARTESIAN_POINT('',(17.,0.,0.));
#326=CARTESIAN_POINT('',(17.,0.,3.75));
#327=CARTESIAN_POINT('',(0.,0.,0.));
#328=CARTESIAN_POINT('',(20.0807188126096,0.,0.));
#329=CARTESIAN_POINT('',(20.0807188126096,0.,5.71153846153846));
#330=CARTESIAN_POINT('',(17.,0.,0.));
#331=CARTESIAN_POINT('',(20.5337656968169,0.,0.));
#332=CARTESIAN_POINT('',(20.5337656968169,0.,6.));
#333=CARTESIAN_POINT('',(20.5337656968169,0.,0.));
#334=CARTESIAN_POINT('',(0.,0.,0.));
#335=CARTESIAN_POINT('',(6.09174250827032E-5,0.,0.));
#336=CARTESIAN_POINT('',(6.09174250827032E-5,0.,3.61280804431098));
#337=CARTESIAN_POINT('',(6.09174250827032E-5,0.,0.));
#338=CARTESIAN_POINT('',(6.32201372210552,0.,0.));
#339=CARTESIAN_POINT('',(6.32201372210552,0.,3.31243157115992));
#340=CARTESIAN_POINT('',(6.32201372210552,0.,0.));
#341=CARTESIAN_POINT('',(6.01281291422786,0.,0.));
#342=CARTESIAN_POINT('',(6.01281291422786,0.,3.63802523462284));
#343=CARTESIAN_POINT('',(5.99573416017472,-3.31213406236704,0.197446227629143));
#344=CARTESIAN_POINT('',(0.,0.,0.));
#345=CARTESIAN_POINT('',(0.42093437798482,0.,0.));
#346=CARTESIAN_POINT('',(0.42093437798482,0.,3.99938097421623));
#347=CARTESIAN_POINT('',(6.01281291422786,-3.63484464129424,0.152092213499422));
#348=CARTESIAN_POINT('',(0.,0.,0.));
#349=CARTESIAN_POINT('',(0.399999995487639,-3.60254007722569,0.156632323898312));
#350=CARTESIAN_POINT('',(0.,0.,0.));
#351=(
GEOMETRIC_REPRESENTATION_CONTEXT(3)
GLOBAL_UNCERTAINTY_ASSIGNED_CONTEXT((#352))
GLOBAL_UNIT_ASSIGNED_CONTEXT((#358,#354,#353))
REPRESENTATION_CONTEXT('AEKR-D2.25X8 XC.','TOP_LEVEL_ASSEMBLY_PART')
);
#352=UNCERTAINTY_MEASURE_WITH_UNIT(LENGTH_MEASURE(2.E-5),#358,
'DISTANCE_ACCURACY_VALUE','Maximum Tolerance applied to model');
#353=(
NAMED_UNIT(*)
SI_UNIT($,.STERADIAN.)
SOLID_ANGLE_UNIT()
);
#354=(
CONVERSION_BASED_UNIT('DEGREE',#356)
NAMED_UNIT(#355)
PLANE_ANGLE_UNIT()
);
#355=DIMENSIONAL_EXPONENTS(0.,0.,0.,0.,0.,0.,0.);
#356=PLANE_ANGLE_MEASURE_WITH_UNIT(PLANE_ANGLE_MEASURE(0.0174532925),#357);
#357=(
NAMED_UNIT(*)
PLANE_ANGLE_UNIT()
SI_UNIT($,.RADIAN.)
);
#358=(
LENGTH_UNIT()
NAMED_UNIT(*)
SI_UNIT(.MILLI.,.METRE.)
);
ENDSEC;
END-ISO-10303-21;
