ISO-10303-21;
HEADER;
/* Generated by software containing ST-Developer
 * from STEP Tools, Inc. (www.steptools.com) 
 */
/* OPTION: using custom schema-name function */

FILE_DESCRIPTION(
/* description */ (''),
/* implementation_level */ '2;1');

FILE_NAME(
/* name */ 'AEKR-D2.25X32 XC.. 170504.stp',
/* time_stamp */ '2023-10-31T02:19:17+03:00',
/* author */ (''),
/* organization */ (''),
/* preprocessor_version */ 'ST-DEVELOPER v19.4',
/* originating_system */ 'SIEMENS PLM Software NX2306.3001',
/* authorisation */ '');

FILE_SCHEMA (('AUTOMOTIVE_DESIGN { 1 0 10303 214 3 1 1 1 }'));
ENDSEC;

DATA;
#10=SHAPE_REPRESENTATION_RELATIONSHIP('None',
'relationship between AEKL-D2.25X32 XC.. 170504_XT-None and AEKL-D2.25
X32 XC.. 170504_XT-None',#22,#11);
#11=ADVANCED_BREP_SHAPE_REPRESENTATION(
'AEKL-D2.25X32 XC.. 170504_XT-None',(#48,#49),#391);
#12=SHAPE_DEFINITION_REPRESENTATION(#13,#22);
#13=PRODUCT_DEFINITION_SHAPE('','',#14);
#14=PRODUCT_DEFINITION(' ','',#16,#15);
#15=PRODUCT_DEFINITION_CONTEXT('part definition',#21,'design');
#16=PRODUCT_DEFINITION_FORMATION_WITH_SPECIFIED_SOURCE(' ',' ',#18,
 .NOT_KNOWN.);
#17=PRODUCT_RELATED_PRODUCT_CATEGORY('part','',(#18));
#18=PRODUCT('AEKL-D2.25X32 XC.. 170504_XT',
'AEKL-D2.25X32 XC.. 170504_XT',' ',(#19));
#19=PRODUCT_CONTEXT(' ',#21,'mechanical');
#20=APPLICATION_PROTOCOL_DEFINITION('international standard',
'automotive_design',2010,#21);
#21=APPLICATION_CONTEXT(
'core data for automotive mechanical design processes');
#22=SHAPE_REPRESENTATION('AEKL-D2.25X32 XC.. 170504_XT-None',(#231),#391);
#23=DRAUGHTING_PRE_DEFINED_COLOUR('yellow');
#24=LINE('',#387,#25);
#25=VECTOR('',#332,15.8175490406147);
#26=SURFACE_OF_REVOLUTION('',#228,#29);
#27=SURFACE_OF_REVOLUTION('',#24,#30);
#28=SURFACE_OF_REVOLUTION('',#230,#31);
#29=AXIS1_PLACEMENT('',#384,#329);
#30=AXIS1_PLACEMENT('',#388,#333);
#31=AXIS1_PLACEMENT('',#390,#336);
#32=PRESENTATION_LAYER_ASSIGNMENT('1','Layer 1',(#48,#49));
#33=STYLED_ITEM('',(#35),#48);
#34=STYLED_ITEM('',(#36),#49);
#35=PRESENTATION_STYLE_ASSIGNMENT((#37));
#36=PRESENTATION_STYLE_ASSIGNMENT((#38));
#37=SURFACE_STYLE_USAGE(.BOTH.,#39);
#38=SURFACE_STYLE_USAGE(.BOTH.,#40);
#39=SURFACE_SIDE_STYLE('',(#41));
#40=SURFACE_SIDE_STYLE('',(#42));
#41=SURFACE_STYLE_FILL_AREA(#43);
#42=SURFACE_STYLE_FILL_AREA(#44);
#43=FILL_AREA_STYLE('',(#45));
#44=FILL_AREA_STYLE('',(#46));
#45=FILL_AREA_STYLE_COLOUR('',#47);
#46=FILL_AREA_STYLE_COLOUR('',#23);
#47=COLOUR_RGB('light gray',0.8,0.8,0.8);
#48=MANIFOLD_SOLID_BREP('',#50);
#49=MANIFOLD_SOLID_BREP('',#51);
#50=CLOSED_SHELL('',(#90,#91,#92,#93,#94,#95,#96,#97,#98,#99,#100,#101,
#102));
#51=CLOSED_SHELL('',(#103,#104,#105,#106,#107));
#52=CYLINDRICAL_SURFACE('',#239,15.5);
#53=CYLINDRICAL_SURFACE('',#247,22.);
#54=CYLINDRICAL_SURFACE('',#256,16.);
#55=CONICAL_SURFACE('',#237,15.5,2.99999999999962);
#56=CONICAL_SURFACE('',#243,21.7071067811865,45.);
#57=TOROIDAL_SURFACE('',#235,14.1841809783039,1.);
#58=TOROIDAL_SURFACE('',#241,29.5,14.);
#59=TOROIDAL_SURFACE('',#245,21.,1.);
#60=TOROIDAL_SURFACE('',#249,21.5,0.5);
#61=TOROIDAL_SURFACE('',#255,14.,2.);
#62=FACE_BOUND('',#118,.T.);
#63=FACE_BOUND('',#119,.T.);
#64=FACE_BOUND('',#120,.T.);
#65=FACE_BOUND('',#121,.T.);
#66=FACE_BOUND('',#122,.T.);
#67=FACE_BOUND('',#123,.T.);
#68=FACE_BOUND('',#124,.T.);
#69=FACE_BOUND('',#125,.T.);
#70=FACE_BOUND('',#126,.T.);
#71=FACE_BOUND('',#127,.T.);
#72=FACE_BOUND('',#128,.T.);
#73=FACE_BOUND('',#129,.T.);
#74=FACE_BOUND('',#130,.T.);
#75=FACE_BOUND('',#131,.T.);
#76=FACE_BOUND('',#132,.T.);
#77=FACE_BOUND('',#133,.T.);
#78=FACE_BOUND('',#134,.T.);
#79=FACE_BOUND('',#135,.T.);
#80=FACE_BOUND('',#137,.T.);
#81=FACE_BOUND('',#138,.T.);
#82=FACE_BOUND('',#139,.T.);
#83=FACE_BOUND('',#140,.T.);
#84=FACE_BOUND('',#143,.T.);
#85=FACE_BOUND('',#144,.T.);
#86=FACE_BOUND('',#145,.T.);
#87=FACE_BOUND('',#146,.T.);
#88=FACE_BOUND('',#147,.T.);
#89=FACE_BOUND('',#148,.T.);
#90=ADVANCED_FACE('',(#113),#108,.F.);
#91=ADVANCED_FACE('',(#62,#63),#57,.T.);
#92=ADVANCED_FACE('',(#64,#65),#55,.T.);
#93=ADVANCED_FACE('',(#66,#67),#52,.T.);
#94=ADVANCED_FACE('',(#68,#69),#58,.F.);
#95=ADVANCED_FACE('',(#70,#71),#56,.T.);
#96=ADVANCED_FACE('',(#72,#73),#59,.T.);
#97=ADVANCED_FACE('',(#74,#75),#53,.T.);
#98=ADVANCED_FACE('',(#76,#77),#60,.T.);
#99=ADVANCED_FACE('',(#78,#79),#109,.F.);
#100=ADVANCED_FACE('',(#114),#110,.F.);
#101=ADVANCED_FACE('',(#80,#81),#61,.T.);
#102=ADVANCED_FACE('',(#82,#83),#54,.T.);
#103=ADVANCED_FACE('',(#115),#111,.F.);
#104=ADVANCED_FACE('',(#116),#112,.T.);
#105=ADVANCED_FACE('',(#84,#85),#26,.F.);
#106=ADVANCED_FACE('',(#86,#87),#27,.F.);
#107=ADVANCED_FACE('',(#88,#89),#28,.F.);
#108=PLANE('',#233);
#109=PLANE('',#251);
#110=PLANE('',#253);
#111=PLANE('',#258);
#112=PLANE('',#260);
#113=FACE_OUTER_BOUND('',#117,.T.);
#114=FACE_OUTER_BOUND('',#136,.T.);
#115=FACE_OUTER_BOUND('',#141,.T.);
#116=FACE_OUTER_BOUND('',#142,.T.);
#117=EDGE_LOOP('',(#149));
#118=EDGE_LOOP('',(#150));
#119=EDGE_LOOP('',(#151));
#120=EDGE_LOOP('',(#152));
#121=EDGE_LOOP('',(#153));
#122=EDGE_LOOP('',(#154));
#123=EDGE_LOOP('',(#155));
#124=EDGE_LOOP('',(#156));
#125=EDGE_LOOP('',(#157));
#126=EDGE_LOOP('',(#158));
#127=EDGE_LOOP('',(#159));
#128=EDGE_LOOP('',(#160));
#129=EDGE_LOOP('',(#161));
#130=EDGE_LOOP('',(#162));
#131=EDGE_LOOP('',(#163));
#132=EDGE_LOOP('',(#164));
#133=EDGE_LOOP('',(#165));
#134=EDGE_LOOP('',(#166));
#135=EDGE_LOOP('',(#167));
#136=EDGE_LOOP('',(#168));
#137=EDGE_LOOP('',(#169));
#138=EDGE_LOOP('',(#170));
#139=EDGE_LOOP('',(#171));
#140=EDGE_LOOP('',(#172));
#141=EDGE_LOOP('',(#173));
#142=EDGE_LOOP('',(#174));
#143=EDGE_LOOP('',(#175));
#144=EDGE_LOOP('',(#176));
#145=EDGE_LOOP('',(#177));
#146=EDGE_LOOP('',(#178));
#147=EDGE_LOOP('',(#179));
#148=EDGE_LOOP('',(#180));
#149=ORIENTED_EDGE('',*,*,#197,.T.);
#150=ORIENTED_EDGE('',*,*,#197,.F.);
#151=ORIENTED_EDGE('',*,*,#198,.T.);
#152=ORIENTED_EDGE('',*,*,#198,.F.);
#153=ORIENTED_EDGE('',*,*,#199,.T.);
#154=ORIENTED_EDGE('',*,*,#199,.F.);
#155=ORIENTED_EDGE('',*,*,#200,.T.);
#156=ORIENTED_EDGE('',*,*,#200,.F.);
#157=ORIENTED_EDGE('',*,*,#201,.T.);
#158=ORIENTED_EDGE('',*,*,#201,.F.);
#159=ORIENTED_EDGE('',*,*,#202,.T.);
#160=ORIENTED_EDGE('',*,*,#202,.F.);
#161=ORIENTED_EDGE('',*,*,#203,.T.);
#162=ORIENTED_EDGE('',*,*,#203,.F.);
#163=ORIENTED_EDGE('',*,*,#204,.T.);
#164=ORIENTED_EDGE('',*,*,#204,.F.);
#165=ORIENTED_EDGE('',*,*,#205,.T.);
#166=ORIENTED_EDGE('',*,*,#206,.F.);
#167=ORIENTED_EDGE('',*,*,#205,.F.);
#168=ORIENTED_EDGE('',*,*,#207,.F.);
#169=ORIENTED_EDGE('',*,*,#208,.F.);
#170=ORIENTED_EDGE('',*,*,#207,.T.);
#171=ORIENTED_EDGE('',*,*,#208,.T.);
#172=ORIENTED_EDGE('',*,*,#206,.T.);
#173=ORIENTED_EDGE('',*,*,#209,.F.);
#174=ORIENTED_EDGE('',*,*,#210,.T.);
#175=ORIENTED_EDGE('',*,*,#211,.T.);
#176=ORIENTED_EDGE('',*,*,#210,.F.);
#177=ORIENTED_EDGE('',*,*,#212,.T.);
#178=ORIENTED_EDGE('',*,*,#211,.F.);
#179=ORIENTED_EDGE('',*,*,#209,.T.);
#180=ORIENTED_EDGE('',*,*,#212,.F.);
#181=VERTEX_POINT('',#339);
#182=VERTEX_POINT('',#342);
#183=VERTEX_POINT('',#345);
#184=VERTEX_POINT('',#348);
#185=VERTEX_POINT('',#351);
#186=VERTEX_POINT('',#354);
#187=VERTEX_POINT('',#357);
#188=VERTEX_POINT('',#360);
#189=VERTEX_POINT('',#363);
#190=VERTEX_POINT('',#366);
#191=VERTEX_POINT('',#369);
#192=VERTEX_POINT('',#372);
#193=VERTEX_POINT('',#376);
#194=VERTEX_POINT('',#379);
#195=VERTEX_POINT('',#382);
#196=VERTEX_POINT('',#386);
#197=EDGE_CURVE('',#181,#181,#213,.T.);
#198=EDGE_CURVE('',#182,#182,#214,.T.);
#199=EDGE_CURVE('',#183,#183,#215,.T.);
#200=EDGE_CURVE('',#184,#184,#216,.T.);
#201=EDGE_CURVE('',#185,#185,#217,.T.);
#202=EDGE_CURVE('',#186,#186,#218,.T.);
#203=EDGE_CURVE('',#187,#187,#219,.T.);
#204=EDGE_CURVE('',#188,#188,#220,.T.);
#205=EDGE_CURVE('',#189,#189,#221,.T.);
#206=EDGE_CURVE('',#190,#190,#222,.T.);
#207=EDGE_CURVE('',#191,#191,#223,.T.);
#208=EDGE_CURVE('',#192,#192,#224,.T.);
#209=EDGE_CURVE('',#193,#193,#225,.T.);
#210=EDGE_CURVE('',#194,#194,#226,.T.);
#211=EDGE_CURVE('',#195,#195,#227,.T.);
#212=EDGE_CURVE('',#196,#196,#229,.T.);
#213=CIRCLE('',#232,14.1841809783039);
#214=CIRCLE('',#234,15.1828105130584);
#215=CIRCLE('',#236,15.5);
#216=CIRCLE('',#238,15.5);
#217=CIRCLE('',#240,19.6005050633883);
#218=CIRCLE('',#242,21.7071067811865);
#219=CIRCLE('',#244,22.);
#220=CIRCLE('',#246,22.);
#221=CIRCLE('',#248,21.5);
#222=CIRCLE('',#250,16.);
#223=CIRCLE('',#252,14.);
#224=CIRCLE('',#254,16.);
#225=CIRCLE('',#257,15.211172674144);
#226=CIRCLE('',#259,14.2808355974612);
#227=CIRCLE('',#261,15.1131589276796);
#228=CIRCLE('',#262,0.828101614735934);
#229=CIRCLE('',#263,15.9989541776616);
#230=CIRCLE('',#264,0.8);
#231=AXIS2_PLACEMENT_3D('',#337,#265,#266);
#232=AXIS2_PLACEMENT_3D('',#338,#267,#268);
#233=AXIS2_PLACEMENT_3D('',#340,#269,#270);
#234=AXIS2_PLACEMENT_3D('',#341,#271,#272);
#235=AXIS2_PLACEMENT_3D('',#343,#273,#274);
#236=AXIS2_PLACEMENT_3D('',#344,#275,#276);
#237=AXIS2_PLACEMENT_3D('',#346,#277,#278);
#238=AXIS2_PLACEMENT_3D('',#347,#279,#280);
#239=AXIS2_PLACEMENT_3D('',#349,#281,#282);
#240=AXIS2_PLACEMENT_3D('',#350,#283,#284);
#241=AXIS2_PLACEMENT_3D('',#352,#285,#286);
#242=AXIS2_PLACEMENT_3D('',#353,#287,#288);
#243=AXIS2_PLACEMENT_3D('',#355,#289,#290);
#244=AXIS2_PLACEMENT_3D('',#356,#291,#292);
#245=AXIS2_PLACEMENT_3D('',#358,#293,#294);
#246=AXIS2_PLACEMENT_3D('',#359,#295,#296);
#247=AXIS2_PLACEMENT_3D('',#361,#297,#298);
#248=AXIS2_PLACEMENT_3D('',#362,#299,#300);
#249=AXIS2_PLACEMENT_3D('',#364,#301,#302);
#250=AXIS2_PLACEMENT_3D('',#365,#303,#304);
#251=AXIS2_PLACEMENT_3D('',#367,#305,#306);
#252=AXIS2_PLACEMENT_3D('',#368,#307,#308);
#253=AXIS2_PLACEMENT_3D('',#370,#309,#310);
#254=AXIS2_PLACEMENT_3D('',#371,#311,#312);
#255=AXIS2_PLACEMENT_3D('',#373,#313,#314);
#256=AXIS2_PLACEMENT_3D('',#374,#315,#316);
#257=AXIS2_PLACEMENT_3D('',#375,#317,#318);
#258=AXIS2_PLACEMENT_3D('',#377,#319,#320);
#259=AXIS2_PLACEMENT_3D('',#378,#321,#322);
#260=AXIS2_PLACEMENT_3D('',#380,#323,#324);
#261=AXIS2_PLACEMENT_3D('',#381,#325,#326);
#262=AXIS2_PLACEMENT_3D('',#383,#327,#328);
#263=AXIS2_PLACEMENT_3D('',#385,#330,#331);
#264=AXIS2_PLACEMENT_3D('',#389,#334,#335);
#265=DIRECTION('',(0.,0.,1.));
#266=DIRECTION('',(1.,0.,0.));
#267=DIRECTION('',(-1.,0.,0.));
#268=DIRECTION('',(0.,0.,1.));
#269=DIRECTION('',(1.,0.,0.));
#270=DIRECTION('',(0.,0.,-1.));
#271=DIRECTION('',(-1.,0.,0.));
#272=DIRECTION('',(0.,0.,1.));
#273=DIRECTION('',(-1.,0.,0.));
#274=DIRECTION('',(0.,0.,1.));
#275=DIRECTION('',(-1.,0.,0.));
#276=DIRECTION('',(0.,0.,1.));
#277=DIRECTION('',(1.,0.,0.));
#278=DIRECTION('',(1.02181134137614E-16,0.,-1.));
#279=DIRECTION('',(-1.,0.,0.));
#280=DIRECTION('',(0.,0.,1.));
#281=DIRECTION('',(-1.,0.,0.));
#282=DIRECTION('',(0.,0.,1.));
#283=DIRECTION('',(-1.,0.,0.));
#284=DIRECTION('',(0.,0.,1.));
#285=DIRECTION('',(-1.,0.,0.));
#286=DIRECTION('',(0.,0.,1.));
#287=DIRECTION('',(-1.,0.,0.));
#288=DIRECTION('',(0.,0.,1.));
#289=DIRECTION('',(1.,0.,0.));
#290=DIRECTION('',(-5.43317657896515E-17,0.,-1.));
#291=DIRECTION('',(-1.,0.,0.));
#292=DIRECTION('',(0.,0.,1.));
#293=DIRECTION('',(-1.,0.,0.));
#294=DIRECTION('',(0.,0.,1.));
#295=DIRECTION('',(-1.,0.,0.));
#296=DIRECTION('',(0.,0.,1.));
#297=DIRECTION('',(-1.,0.,0.));
#298=DIRECTION('',(0.,0.,1.));
#299=DIRECTION('',(-1.,0.,0.));
#300=DIRECTION('',(0.,0.,1.));
#301=DIRECTION('',(-1.,0.,0.));
#302=DIRECTION('',(0.,0.,1.));
#303=DIRECTION('',(1.,0.,0.));
#304=DIRECTION('',(0.,0.,1.));
#305=DIRECTION('',(-1.,0.,0.));
#306=DIRECTION('',(0.,0.,1.));
#307=DIRECTION('',(-1.,0.,0.));
#308=DIRECTION('',(0.,0.,1.));
#309=DIRECTION('',(-1.,0.,0.));
#310=DIRECTION('',(0.,0.,1.));
#311=DIRECTION('',(-1.,0.,0.));
#312=DIRECTION('',(0.,0.,1.));
#313=DIRECTION('',(-1.,0.,0.));
#314=DIRECTION('',(0.,0.,1.));
#315=DIRECTION('',(-1.,0.,0.));
#316=DIRECTION('',(0.,0.,1.));
#317=DIRECTION('',(1.,0.,0.));
#318=DIRECTION('',(0.,0.,-1.));
#319=DIRECTION('',(1.,0.,0.));
#320=DIRECTION('',(0.,0.,-1.));
#321=DIRECTION('',(1.,0.,0.));
#322=DIRECTION('',(0.,0.,-1.));
#323=DIRECTION('',(1.,0.,0.));
#324=DIRECTION('',(0.,0.,-1.));
#325=DIRECTION('',(1.,0.,0.));
#326=DIRECTION('',(0.,0.,-1.));
#327=DIRECTION('',(-2.16840434497102E-19,0.081938508630041,-0.996637386818037));
#328=DIRECTION('',(1.22464679914735E-16,-0.996637386818037,-0.081938508630041));
#329=DIRECTION('',(1.,0.,0.));
#330=DIRECTION('',(1.,0.,0.));
#331=DIRECTION('',(0.,0.,-1.));
#332=DIRECTION('',(-0.998418591124138,-0.0560276608953628,-0.00460631222199361));
#333=DIRECTION('',(1.,0.,0.));
#334=DIRECTION('',(-4.16333634234434E-17,0.081938508630041,-0.996637386818037));
#335=DIRECTION('',(-0.999945169365512,-0.0104365715569383,-0.000858042373180934));
#336=DIRECTION('',(1.,0.,0.));
#337=CARTESIAN_POINT('',(0.,0.,0.));
#338=CARTESIAN_POINT('',(1.,0.,0.));
#339=CARTESIAN_POINT('',(1.,0.,14.1841809783039));
#340=CARTESIAN_POINT('',(1.,0.,0.));
#341=CARTESIAN_POINT('',(1.94766404375706,0.,0.));
#342=CARTESIAN_POINT('',(1.94766404375706,0.,15.1828105130584));
#343=CARTESIAN_POINT('',(2.,0.,0.));
#344=CARTESIAN_POINT('',(8.,0.,0.));
#345=CARTESIAN_POINT('',(8.,0.,15.5));
#346=CARTESIAN_POINT('',(8.,0.,0.));
#347=CARTESIAN_POINT('',(72.,0.,0.));
#348=CARTESIAN_POINT('',(72.,0.,15.5));
#349=CARTESIAN_POINT('',(0.,0.,0.));
#350=CARTESIAN_POINT('',(81.8994949366117,0.,0.));
#351=CARTESIAN_POINT('',(81.8994949366117,0.,19.6005050633883));
#352=CARTESIAN_POINT('',(72.,0.,0.));
#353=CARTESIAN_POINT('',(84.0060966544099,0.,0.));
#354=CARTESIAN_POINT('',(84.0060966544099,0.,21.7071067811865));
#355=CARTESIAN_POINT('',(84.0060966544099,0.,0.));
#356=CARTESIAN_POINT('',(84.7132034355964,0.,0.));
#357=CARTESIAN_POINT('',(84.7132034355964,0.,22.));
#358=CARTESIAN_POINT('',(84.7132034355964,0.,0.));
#359=CARTESIAN_POINT('',(87.5,0.,0.));
#360=CARTESIAN_POINT('',(87.5,0.,22.));
#361=CARTESIAN_POINT('',(0.,0.,0.));
#362=CARTESIAN_POINT('',(88.,0.,0.));
#363=CARTESIAN_POINT('',(88.,0.,21.5));
#364=CARTESIAN_POINT('',(87.5,0.,0.));
#365=CARTESIAN_POINT('',(88.,0.,0.));
#366=CARTESIAN_POINT('',(88.,0.,16.));
#367=CARTESIAN_POINT('',(88.,21.5,0.));
#368=CARTESIAN_POINT('',(148.,0.,0.));
#369=CARTESIAN_POINT('',(148.,0.,14.));
#370=CARTESIAN_POINT('',(148.,14.,0.));
#371=CARTESIAN_POINT('',(146.,0.,0.));
#372=CARTESIAN_POINT('',(146.,0.,16.));
#373=CARTESIAN_POINT('',(146.,0.,0.));
#374=CARTESIAN_POINT('',(0.,0.,0.));
#375=CARTESIAN_POINT('',(4.38627070049272E-5,0.,0.));
#376=CARTESIAN_POINT('',(4.38627070049272E-5,0.,-15.211172674144));
#377=CARTESIAN_POINT('',(4.38627070049272E-5,0.,0.));
#378=CARTESIAN_POINT('',(17.4193164625502,0.,0.));
#379=CARTESIAN_POINT('',(17.4193164625502,0.,-14.2808355974612));
#380=CARTESIAN_POINT('',(17.4193164625502,0.,0.));
#381=CARTESIAN_POINT('',(16.6288254168703,0.,0.));
#382=CARTESIAN_POINT('',(16.6288254168703,0.,-15.1131589276796));
#383=CARTESIAN_POINT('',(16.5912602531512,-14.2881859879644,0.191394450109038));
#384=CARTESIAN_POINT('',(1.,0.,0.));
#385=CARTESIAN_POINT('',(0.836290388702816,0.,0.));
#386=CARTESIAN_POINT('',(0.836290388702816,0.,-15.9989541776616));
#387=CARTESIAN_POINT('',(16.6288254168703,-15.1126534110124,0.123610889154849));
#388=CARTESIAN_POINT('',(1.,0.,0.));
#389=CARTESIAN_POINT('',(0.799999998199415,-15.2023845503083,0.116233646610243));
#390=CARTESIAN_POINT('',(1.,0.,0.));
#391=(
GEOMETRIC_REPRESENTATION_CONTEXT(3)
GLOBAL_UNCERTAINTY_ASSIGNED_CONTEXT((#392))
GLOBAL_UNIT_ASSIGNED_CONTEXT((#398,#394,#393))
REPRESENTATION_CONTEXT('AEKR-D2.25X32 XC.','TOP_LEVEL_ASSEMBLY_PART')
);
#392=UNCERTAINTY_MEASURE_WITH_UNIT(LENGTH_MEASURE(2.E-5),#398,
'DISTANCE_ACCURACY_VALUE','Maximum Tolerance applied to model');
#393=(
NAMED_UNIT(*)
SI_UNIT($,.STERADIAN.)
SOLID_ANGLE_UNIT()
);
#394=(
CONVERSION_BASED_UNIT('DEGREE',#396)
NAMED_UNIT(#395)
PLANE_ANGLE_UNIT()
);
#395=DIMENSIONAL_EXPONENTS(0.,0.,0.,0.,0.,0.,0.);
#396=PLANE_ANGLE_MEASURE_WITH_UNIT(PLANE_ANGLE_MEASURE(0.0174532925),#397);
#397=(
NAMED_UNIT(*)
PLANE_ANGLE_UNIT()
SI_UNIT($,.RADIAN.)
);
#398=(
LENGTH_UNIT()
NAMED_UNIT(*)
SI_UNIT(.MILLI.,.METRE.)
);
ENDSEC;
END-ISO-10303-21;
