ISO-10303-21;
HEADER;
/* Generated by software containing ST-Developer
 * from STEP Tools, Inc. (www.steptools.com) 
 */
/* OPTION: using custom schema-name function */

FILE_DESCRIPTION(
/* description */ (''),
/* implementation_level */ '2;1');

FILE_NAME(
/* name */ 'AEM90-AN1207-D32-W32-L150-Z03.stp',
/* time_stamp */ '2023-10-03T11:29:05+03:00',
/* author */ (''),
/* organization */ (''),
/* preprocessor_version */ 'ST-DEVELOPER v19.4',
/* originating_system */ 'SIEMENS PLM Software NX2306.3001',
/* authorisation */ '');

FILE_SCHEMA (('AUTOMOTIVE_DESIGN { 1 0 10303 214 3 1 1 1 }'));
ENDSEC;

DATA;
#10=SHAPE_REPRESENTATION_RELATIONSHIP('None',
'relationship between AEM90-AN1207-D32-W32-L150-Z03-None and AEM90-AN1
207-D32-W32-L150-Z03-None',#22,#11);
#11=ADVANCED_BREP_SHAPE_REPRESENTATION(
'AEM90-AN1207-D32-W32-L150-Z03-None',(#168,#169),#620);
#12=SHAPE_DEFINITION_REPRESENTATION(#13,#22);
#13=PRODUCT_DEFINITION_SHAPE('','',#14);
#14=PRODUCT_DEFINITION(' ','',#16,#15);
#15=PRODUCT_DEFINITION_CONTEXT('part definition',#21,'design');
#16=PRODUCT_DEFINITION_FORMATION_WITH_SPECIFIED_SOURCE(' ',' ',#18,
 .NOT_KNOWN.);
#17=PRODUCT_RELATED_PRODUCT_CATEGORY('part','',(#18));
#18=PRODUCT('AEM90-AN1207-D32-W32-L150-Z03',
'AEM90-AN1207-D32-W32-L150-Z03',' ',(#19));
#19=PRODUCT_CONTEXT(' ',#21,'mechanical');
#20=APPLICATION_PROTOCOL_DEFINITION('international standard',
'automotive_design',2010,#21);
#21=APPLICATION_CONTEXT(
'core data for automotive mechanical design processes');
#22=SHAPE_REPRESENTATION('AEM90-AN1207-D32-W32-L150-Z03-None',(#406),#620);
#23=DRAUGHTING_PRE_DEFINED_COLOUR('yellow');
#24=LINE('',#588,#30);
#25=LINE('',#592,#31);
#26=LINE('',#600,#32);
#27=LINE('',#608,#33);
#28=LINE('',#612,#34);
#29=LINE('',#618,#35);
#30=VECTOR('',#507,10.9175756645508);
#31=VECTOR('',#511,0.282879432952054);
#32=VECTOR('',#520,8.66217705085856);
#33=VECTOR('',#529,10.9175756645509);
#34=VECTOR('',#533,0.282879432952077);
#35=VECTOR('',#540,8.66217705085856);
#36=SURFACE_OF_REVOLUTION('',#56,#46);
#37=SURFACE_OF_REVOLUTION('',#24,#47);
#38=SURFACE_OF_REVOLUTION('',#25,#48);
#39=SURFACE_OF_REVOLUTION('',#57,#49);
#40=SURFACE_OF_REVOLUTION('',#26,#50);
#41=SURFACE_OF_REVOLUTION('',#58,#51);
#42=SURFACE_OF_REVOLUTION('',#27,#52);
#43=SURFACE_OF_REVOLUTION('',#28,#53);
#44=SURFACE_OF_REVOLUTION('',#59,#54);
#45=SURFACE_OF_REVOLUTION('',#29,#55);
#46=AXIS1_PLACEMENT('',#585,#504);
#47=AXIS1_PLACEMENT('',#589,#508);
#48=AXIS1_PLACEMENT('',#593,#512);
#49=AXIS1_PLACEMENT('',#597,#517);
#50=AXIS1_PLACEMENT('',#601,#521);
#51=AXIS1_PLACEMENT('',#605,#526);
#52=AXIS1_PLACEMENT('',#609,#530);
#53=AXIS1_PLACEMENT('',#613,#534);
#54=AXIS1_PLACEMENT('',#617,#539);
#55=AXIS1_PLACEMENT('',#619,#541);
#56=ELLIPSE('',#434,0.407491764424407,0.4);
#57=ELLIPSE('',#438,0.407491764424407,0.4);
#58=ELLIPSE('',#441,0.407491764424407,0.4);
#59=ELLIPSE('',#445,0.407491764424407,0.4);
#60=OVER_RIDING_STYLED_ITEM('',(#77),#224,#74);
#61=OVER_RIDING_STYLED_ITEM('',(#78),#225,#74);
#62=OVER_RIDING_STYLED_ITEM('',(#79),#226,#74);
#63=OVER_RIDING_STYLED_ITEM('',(#80),#227,#74);
#64=OVER_RIDING_STYLED_ITEM('',(#81),#228,#74);
#65=OVER_RIDING_STYLED_ITEM('',(#82),#229,#74);
#66=OVER_RIDING_STYLED_ITEM('',(#83),#230,#74);
#67=OVER_RIDING_STYLED_ITEM('',(#84),#231,#74);
#68=OVER_RIDING_STYLED_ITEM('',(#85),#232,#74);
#69=OVER_RIDING_STYLED_ITEM('',(#86),#233,#74);
#70=OVER_RIDING_STYLED_ITEM('',(#87),#234,#74);
#71=OVER_RIDING_STYLED_ITEM('',(#88),#235,#74);
#72=OVER_RIDING_STYLED_ITEM('',(#89),#236,#74);
#73=PRESENTATION_LAYER_ASSIGNMENT('1','Layer 1',(#168,#169));
#74=STYLED_ITEM('',(#76),#168);
#75=STYLED_ITEM('',(#90),#169);
#76=PRESENTATION_STYLE_ASSIGNMENT((#91));
#77=PRESENTATION_STYLE_ASSIGNMENT((#92));
#78=PRESENTATION_STYLE_ASSIGNMENT((#93));
#79=PRESENTATION_STYLE_ASSIGNMENT((#94));
#80=PRESENTATION_STYLE_ASSIGNMENT((#95));
#81=PRESENTATION_STYLE_ASSIGNMENT((#96));
#82=PRESENTATION_STYLE_ASSIGNMENT((#97));
#83=PRESENTATION_STYLE_ASSIGNMENT((#98));
#84=PRESENTATION_STYLE_ASSIGNMENT((#99));
#85=PRESENTATION_STYLE_ASSIGNMENT((#100));
#86=PRESENTATION_STYLE_ASSIGNMENT((#101));
#87=PRESENTATION_STYLE_ASSIGNMENT((#102));
#88=PRESENTATION_STYLE_ASSIGNMENT((#103));
#89=PRESENTATION_STYLE_ASSIGNMENT((#104));
#90=PRESENTATION_STYLE_ASSIGNMENT((#105));
#91=SURFACE_STYLE_USAGE(.BOTH.,#106);
#92=SURFACE_STYLE_USAGE(.BOTH.,#107);
#93=SURFACE_STYLE_USAGE(.BOTH.,#108);
#94=SURFACE_STYLE_USAGE(.BOTH.,#109);
#95=SURFACE_STYLE_USAGE(.BOTH.,#110);
#96=SURFACE_STYLE_USAGE(.BOTH.,#111);
#97=SURFACE_STYLE_USAGE(.BOTH.,#112);
#98=SURFACE_STYLE_USAGE(.BOTH.,#113);
#99=SURFACE_STYLE_USAGE(.BOTH.,#114);
#100=SURFACE_STYLE_USAGE(.BOTH.,#115);
#101=SURFACE_STYLE_USAGE(.BOTH.,#116);
#102=SURFACE_STYLE_USAGE(.BOTH.,#117);
#103=SURFACE_STYLE_USAGE(.BOTH.,#118);
#104=SURFACE_STYLE_USAGE(.BOTH.,#119);
#105=SURFACE_STYLE_USAGE(.BOTH.,#120);
#106=SURFACE_SIDE_STYLE('',(#121));
#107=SURFACE_SIDE_STYLE('',(#122));
#108=SURFACE_SIDE_STYLE('',(#123));
#109=SURFACE_SIDE_STYLE('',(#124));
#110=SURFACE_SIDE_STYLE('',(#125));
#111=SURFACE_SIDE_STYLE('',(#126));
#112=SURFACE_SIDE_STYLE('',(#127));
#113=SURFACE_SIDE_STYLE('',(#128));
#114=SURFACE_SIDE_STYLE('',(#129));
#115=SURFACE_SIDE_STYLE('',(#130));
#116=SURFACE_SIDE_STYLE('',(#131));
#117=SURFACE_SIDE_STYLE('',(#132));
#118=SURFACE_SIDE_STYLE('',(#133));
#119=SURFACE_SIDE_STYLE('',(#134));
#120=SURFACE_SIDE_STYLE('',(#135));
#121=SURFACE_STYLE_FILL_AREA(#136);
#122=SURFACE_STYLE_FILL_AREA(#137);
#123=SURFACE_STYLE_FILL_AREA(#138);
#124=SURFACE_STYLE_FILL_AREA(#139);
#125=SURFACE_STYLE_FILL_AREA(#140);
#126=SURFACE_STYLE_FILL_AREA(#141);
#127=SURFACE_STYLE_FILL_AREA(#142);
#128=SURFACE_STYLE_FILL_AREA(#143);
#129=SURFACE_STYLE_FILL_AREA(#144);
#130=SURFACE_STYLE_FILL_AREA(#145);
#131=SURFACE_STYLE_FILL_AREA(#146);
#132=SURFACE_STYLE_FILL_AREA(#147);
#133=SURFACE_STYLE_FILL_AREA(#148);
#134=SURFACE_STYLE_FILL_AREA(#149);
#135=SURFACE_STYLE_FILL_AREA(#150);
#136=FILL_AREA_STYLE('',(#151));
#137=FILL_AREA_STYLE('',(#152));
#138=FILL_AREA_STYLE('',(#153));
#139=FILL_AREA_STYLE('',(#154));
#140=FILL_AREA_STYLE('',(#155));
#141=FILL_AREA_STYLE('',(#156));
#142=FILL_AREA_STYLE('',(#157));
#143=FILL_AREA_STYLE('',(#158));
#144=FILL_AREA_STYLE('',(#159));
#145=FILL_AREA_STYLE('',(#160));
#146=FILL_AREA_STYLE('',(#161));
#147=FILL_AREA_STYLE('',(#162));
#148=FILL_AREA_STYLE('',(#163));
#149=FILL_AREA_STYLE('',(#164));
#150=FILL_AREA_STYLE('',(#165));
#151=FILL_AREA_STYLE_COLOUR('',#166);
#152=FILL_AREA_STYLE_COLOUR('',#167);
#153=FILL_AREA_STYLE_COLOUR('',#167);
#154=FILL_AREA_STYLE_COLOUR('',#167);
#155=FILL_AREA_STYLE_COLOUR('',#167);
#156=FILL_AREA_STYLE_COLOUR('',#167);
#157=FILL_AREA_STYLE_COLOUR('',#167);
#158=FILL_AREA_STYLE_COLOUR('',#167);
#159=FILL_AREA_STYLE_COLOUR('',#167);
#160=FILL_AREA_STYLE_COLOUR('',#167);
#161=FILL_AREA_STYLE_COLOUR('',#167);
#162=FILL_AREA_STYLE_COLOUR('',#167);
#163=FILL_AREA_STYLE_COLOUR('',#167);
#164=FILL_AREA_STYLE_COLOUR('',#167);
#165=FILL_AREA_STYLE_COLOUR('',#23);
#166=COLOUR_RGB('Medium Steel',0.611764705882353,0.658823529411765,0.670588235294118);
#167=COLOUR_RGB('silver gray',0.6,0.6,0.6);
#168=MANIFOLD_SOLID_BREP('',#170);
#169=MANIFOLD_SOLID_BREP('',#171);
#170=CLOSED_SHELL('',(#224,#225,#226,#227,#228,#229,#230,#231,#232,#233,
#234,#235,#236));
#171=CLOSED_SHELL('',(#237,#238,#239,#240,#241,#242,#243,#244,#245,#246));
#172=CYLINDRICAL_SURFACE('',#420,14.5);
#173=CYLINDRICAL_SURFACE('',#424,16.);
#174=CYLINDRICAL_SURFACE('',#428,15.75);
#175=CONICAL_SURFACE('',#412,10.3535533905933,45.0000000000004);
#176=CONICAL_SURFACE('',#422,16.,30.);
#177=CONICAL_SURFACE('',#426,15.75,9.99999999999998);
#178=TOROIDAL_SURFACE('',#410,9.79289321881345,0.5);
#179=TOROIDAL_SURFACE('',#414,10.7071067811865,0.5);
#180=TOROIDAL_SURFACE('',#418,13.3,1.2);
#181=TOROIDAL_SURFACE('',#430,14.75,1.);
#182=FACE_BOUND('',#253,.T.);
#183=FACE_BOUND('',#254,.T.);
#184=FACE_BOUND('',#255,.T.);
#185=FACE_BOUND('',#256,.T.);
#186=FACE_BOUND('',#257,.T.);
#187=FACE_BOUND('',#258,.T.);
#188=FACE_BOUND('',#259,.T.);
#189=FACE_BOUND('',#260,.T.);
#190=FACE_BOUND('',#261,.T.);
#191=FACE_BOUND('',#262,.T.);
#192=FACE_BOUND('',#263,.T.);
#193=FACE_BOUND('',#264,.T.);
#194=FACE_BOUND('',#265,.T.);
#195=FACE_BOUND('',#266,.T.);
#196=FACE_BOUND('',#267,.T.);
#197=FACE_BOUND('',#268,.T.);
#198=FACE_BOUND('',#269,.T.);
#199=FACE_BOUND('',#270,.T.);
#200=FACE_BOUND('',#271,.T.);
#201=FACE_BOUND('',#272,.T.);
#202=FACE_BOUND('',#273,.T.);
#203=FACE_BOUND('',#274,.T.);
#204=FACE_BOUND('',#276,.T.);
#205=FACE_BOUND('',#277,.T.);
#206=FACE_BOUND('',#278,.T.);
#207=FACE_BOUND('',#279,.T.);
#208=FACE_BOUND('',#280,.T.);
#209=FACE_BOUND('',#281,.T.);
#210=FACE_BOUND('',#282,.T.);
#211=FACE_BOUND('',#283,.T.);
#212=FACE_BOUND('',#284,.T.);
#213=FACE_BOUND('',#285,.T.);
#214=FACE_BOUND('',#286,.T.);
#215=FACE_BOUND('',#287,.T.);
#216=FACE_BOUND('',#288,.T.);
#217=FACE_BOUND('',#289,.T.);
#218=FACE_BOUND('',#290,.T.);
#219=FACE_BOUND('',#291,.T.);
#220=FACE_BOUND('',#292,.T.);
#221=FACE_BOUND('',#293,.T.);
#222=FACE_BOUND('',#294,.T.);
#223=FACE_BOUND('',#295,.T.);
#224=ADVANCED_FACE('',(#250),#247,.F.);
#225=ADVANCED_FACE('',(#182,#183),#178,.F.);
#226=ADVANCED_FACE('',(#184,#185),#175,.F.);
#227=ADVANCED_FACE('',(#186,#187),#179,.T.);
#228=ADVANCED_FACE('',(#188,#189),#248,.F.);
#229=ADVANCED_FACE('',(#190,#191),#180,.T.);
#230=ADVANCED_FACE('',(#192,#193),#172,.T.);
#231=ADVANCED_FACE('',(#194,#195),#176,.T.);
#232=ADVANCED_FACE('',(#196,#197),#173,.T.);
#233=ADVANCED_FACE('',(#198,#199),#177,.T.);
#234=ADVANCED_FACE('',(#200,#201),#174,.T.);
#235=ADVANCED_FACE('',(#202,#203),#181,.T.);
#236=ADVANCED_FACE('',(#251),#249,.F.);
#237=ADVANCED_FACE('',(#204,#205),#36,.T.);
#238=ADVANCED_FACE('',(#206,#207),#37,.T.);
#239=ADVANCED_FACE('',(#208,#209),#38,.T.);
#240=ADVANCED_FACE('',(#210,#211),#39,.T.);
#241=ADVANCED_FACE('',(#212,#213),#40,.T.);
#242=ADVANCED_FACE('',(#214,#215),#41,.T.);
#243=ADVANCED_FACE('',(#216,#217),#42,.T.);
#244=ADVANCED_FACE('',(#218,#219),#43,.T.);
#245=ADVANCED_FACE('',(#220,#221),#44,.T.);
#246=ADVANCED_FACE('',(#222,#223),#45,.T.);
#247=PLANE('',#408);
#248=PLANE('',#416);
#249=PLANE('',#431);
#250=FACE_OUTER_BOUND('',#252,.T.);
#251=FACE_OUTER_BOUND('',#275,.T.);
#252=EDGE_LOOP('',(#296));
#253=EDGE_LOOP('',(#297));
#254=EDGE_LOOP('',(#298));
#255=EDGE_LOOP('',(#299));
#256=EDGE_LOOP('',(#300));
#257=EDGE_LOOP('',(#301));
#258=EDGE_LOOP('',(#302));
#259=EDGE_LOOP('',(#303));
#260=EDGE_LOOP('',(#304));
#261=EDGE_LOOP('',(#305));
#262=EDGE_LOOP('',(#306));
#263=EDGE_LOOP('',(#307));
#264=EDGE_LOOP('',(#308));
#265=EDGE_LOOP('',(#309));
#266=EDGE_LOOP('',(#310));
#267=EDGE_LOOP('',(#311));
#268=EDGE_LOOP('',(#312));
#269=EDGE_LOOP('',(#313));
#270=EDGE_LOOP('',(#314));
#271=EDGE_LOOP('',(#315));
#272=EDGE_LOOP('',(#316));
#273=EDGE_LOOP('',(#317));
#274=EDGE_LOOP('',(#318));
#275=EDGE_LOOP('',(#319));
#276=EDGE_LOOP('',(#320));
#277=EDGE_LOOP('',(#321));
#278=EDGE_LOOP('',(#322));
#279=EDGE_LOOP('',(#323));
#280=EDGE_LOOP('',(#324));
#281=EDGE_LOOP('',(#325));
#282=EDGE_LOOP('',(#326));
#283=EDGE_LOOP('',(#327));
#284=EDGE_LOOP('',(#328));
#285=EDGE_LOOP('',(#329));
#286=EDGE_LOOP('',(#330));
#287=EDGE_LOOP('',(#331));
#288=EDGE_LOOP('',(#332));
#289=EDGE_LOOP('',(#333));
#290=EDGE_LOOP('',(#334));
#291=EDGE_LOOP('',(#335));
#292=EDGE_LOOP('',(#336));
#293=EDGE_LOOP('',(#337));
#294=EDGE_LOOP('',(#338));
#295=EDGE_LOOP('',(#339));
#296=ORIENTED_EDGE('',*,*,#362,.T.);
#297=ORIENTED_EDGE('',*,*,#362,.F.);
#298=ORIENTED_EDGE('',*,*,#363,.T.);
#299=ORIENTED_EDGE('',*,*,#363,.F.);
#300=ORIENTED_EDGE('',*,*,#364,.T.);
#301=ORIENTED_EDGE('',*,*,#364,.F.);
#302=ORIENTED_EDGE('',*,*,#365,.T.);
#303=ORIENTED_EDGE('',*,*,#365,.F.);
#304=ORIENTED_EDGE('',*,*,#366,.T.);
#305=ORIENTED_EDGE('',*,*,#366,.F.);
#306=ORIENTED_EDGE('',*,*,#367,.T.);
#307=ORIENTED_EDGE('',*,*,#367,.F.);
#308=ORIENTED_EDGE('',*,*,#368,.T.);
#309=ORIENTED_EDGE('',*,*,#368,.F.);
#310=ORIENTED_EDGE('',*,*,#369,.T.);
#311=ORIENTED_EDGE('',*,*,#369,.F.);
#312=ORIENTED_EDGE('',*,*,#370,.T.);
#313=ORIENTED_EDGE('',*,*,#370,.F.);
#314=ORIENTED_EDGE('',*,*,#371,.T.);
#315=ORIENTED_EDGE('',*,*,#371,.F.);
#316=ORIENTED_EDGE('',*,*,#372,.T.);
#317=ORIENTED_EDGE('',*,*,#372,.F.);
#318=ORIENTED_EDGE('',*,*,#373,.T.);
#319=ORIENTED_EDGE('',*,*,#373,.F.);
#320=ORIENTED_EDGE('',*,*,#374,.F.);
#321=ORIENTED_EDGE('',*,*,#375,.T.);
#322=ORIENTED_EDGE('',*,*,#376,.F.);
#323=ORIENTED_EDGE('',*,*,#374,.T.);
#324=ORIENTED_EDGE('',*,*,#377,.F.);
#325=ORIENTED_EDGE('',*,*,#376,.T.);
#326=ORIENTED_EDGE('',*,*,#378,.F.);
#327=ORIENTED_EDGE('',*,*,#377,.T.);
#328=ORIENTED_EDGE('',*,*,#379,.F.);
#329=ORIENTED_EDGE('',*,*,#378,.T.);
#330=ORIENTED_EDGE('',*,*,#380,.F.);
#331=ORIENTED_EDGE('',*,*,#379,.T.);
#332=ORIENTED_EDGE('',*,*,#381,.F.);
#333=ORIENTED_EDGE('',*,*,#380,.T.);
#334=ORIENTED_EDGE('',*,*,#382,.F.);
#335=ORIENTED_EDGE('',*,*,#381,.T.);
#336=ORIENTED_EDGE('',*,*,#383,.F.);
#337=ORIENTED_EDGE('',*,*,#382,.T.);
#338=ORIENTED_EDGE('',*,*,#375,.F.);
#339=ORIENTED_EDGE('',*,*,#383,.T.);
#340=VERTEX_POINT('',#544);
#341=VERTEX_POINT('',#547);
#342=VERTEX_POINT('',#550);
#343=VERTEX_POINT('',#553);
#344=VERTEX_POINT('',#556);
#345=VERTEX_POINT('',#559);
#346=VERTEX_POINT('',#562);
#347=VERTEX_POINT('',#565);
#348=VERTEX_POINT('',#568);
#349=VERTEX_POINT('',#571);
#350=VERTEX_POINT('',#574);
#351=VERTEX_POINT('',#577);
#352=VERTEX_POINT('',#581);
#353=VERTEX_POINT('',#583);
#354=VERTEX_POINT('',#587);
#355=VERTEX_POINT('',#591);
#356=VERTEX_POINT('',#595);
#357=VERTEX_POINT('',#599);
#358=VERTEX_POINT('',#603);
#359=VERTEX_POINT('',#607);
#360=VERTEX_POINT('',#611);
#361=VERTEX_POINT('',#615);
#362=EDGE_CURVE('',#340,#340,#384,.T.);
#363=EDGE_CURVE('',#341,#341,#385,.T.);
#364=EDGE_CURVE('',#342,#342,#386,.T.);
#365=EDGE_CURVE('',#343,#343,#387,.T.);
#366=EDGE_CURVE('',#344,#344,#388,.T.);
#367=EDGE_CURVE('',#345,#345,#389,.T.);
#368=EDGE_CURVE('',#346,#346,#390,.T.);
#369=EDGE_CURVE('',#347,#347,#391,.T.);
#370=EDGE_CURVE('',#348,#348,#392,.T.);
#371=EDGE_CURVE('',#349,#349,#393,.T.);
#372=EDGE_CURVE('',#350,#350,#394,.T.);
#373=EDGE_CURVE('',#351,#351,#395,.T.);
#374=EDGE_CURVE('',#352,#352,#396,.T.);
#375=EDGE_CURVE('',#353,#353,#397,.T.);
#376=EDGE_CURVE('',#354,#354,#398,.T.);
#377=EDGE_CURVE('',#355,#355,#399,.T.);
#378=EDGE_CURVE('',#356,#356,#400,.T.);
#379=EDGE_CURVE('',#357,#357,#401,.T.);
#380=EDGE_CURVE('',#358,#358,#402,.T.);
#381=EDGE_CURVE('',#359,#359,#403,.T.);
#382=EDGE_CURVE('',#360,#360,#404,.T.);
#383=EDGE_CURVE('',#361,#361,#405,.T.);
#384=CIRCLE('',#407,9.79289321881345);
#385=CIRCLE('',#409,10.1464466094067);
#386=CIRCLE('',#411,10.3535533905933);
#387=CIRCLE('',#413,10.7071067811865);
#388=CIRCLE('',#415,13.3);
#389=CIRCLE('',#417,14.5);
#390=CIRCLE('',#419,14.5);
#391=CIRCLE('',#421,16.);
#392=CIRCLE('',#423,16.);
#393=CIRCLE('',#425,15.75);
#394=CIRCLE('',#427,15.75);
#395=CIRCLE('',#429,14.75);
#396=CIRCLE('',#432,15.9999987807073);
#397=CIRCLE('',#433,15.6061507408721);
#398=CIRCLE('',#435,16.7118165011112);
#399=CIRCLE('',#436,16.7223304396249);
#400=CIRCLE('',#437,16.3860463843133);
#401=CIRCLE('',#439,9.66924737144012);
#402=CIRCLE('',#440,9.39327942024282);
#403=CIRCLE('',#442,8.33193545870266);
#404=CIRCLE('',#443,8.3107903485276);
#405=CIRCLE('',#444,8.53334001979642);
#406=AXIS2_PLACEMENT_3D('',#542,#446,#447);
#407=AXIS2_PLACEMENT_3D('',#543,#448,#449);
#408=AXIS2_PLACEMENT_3D('',#545,#450,#451);
#409=AXIS2_PLACEMENT_3D('',#546,#452,#453);
#410=AXIS2_PLACEMENT_3D('',#548,#454,#455);
#411=AXIS2_PLACEMENT_3D('',#549,#456,#457);
#412=AXIS2_PLACEMENT_3D('',#551,#458,#459);
#413=AXIS2_PLACEMENT_3D('',#552,#460,#461);
#414=AXIS2_PLACEMENT_3D('',#554,#462,#463);
#415=AXIS2_PLACEMENT_3D('',#555,#464,#465);
#416=AXIS2_PLACEMENT_3D('',#557,#466,#467);
#417=AXIS2_PLACEMENT_3D('',#558,#468,#469);
#418=AXIS2_PLACEMENT_3D('',#560,#470,#471);
#419=AXIS2_PLACEMENT_3D('',#561,#472,#473);
#420=AXIS2_PLACEMENT_3D('',#563,#474,#475);
#421=AXIS2_PLACEMENT_3D('',#564,#476,#477);
#422=AXIS2_PLACEMENT_3D('',#566,#478,#479);
#423=AXIS2_PLACEMENT_3D('',#567,#480,#481);
#424=AXIS2_PLACEMENT_3D('',#569,#482,#483);
#425=AXIS2_PLACEMENT_3D('',#570,#484,#485);
#426=AXIS2_PLACEMENT_3D('',#572,#486,#487);
#427=AXIS2_PLACEMENT_3D('',#573,#488,#489);
#428=AXIS2_PLACEMENT_3D('',#575,#490,#491);
#429=AXIS2_PLACEMENT_3D('',#576,#492,#493);
#430=AXIS2_PLACEMENT_3D('',#578,#494,#495);
#431=AXIS2_PLACEMENT_3D('',#579,#496,#497);
#432=AXIS2_PLACEMENT_3D('',#580,#498,#499);
#433=AXIS2_PLACEMENT_3D('',#582,#500,#501);
#434=AXIS2_PLACEMENT_3D('',#584,#502,#503);
#435=AXIS2_PLACEMENT_3D('',#586,#505,#506);
#436=AXIS2_PLACEMENT_3D('',#590,#509,#510);
#437=AXIS2_PLACEMENT_3D('',#594,#513,#514);
#438=AXIS2_PLACEMENT_3D('',#596,#515,#516);
#439=AXIS2_PLACEMENT_3D('',#598,#518,#519);
#440=AXIS2_PLACEMENT_3D('',#602,#522,#523);
#441=AXIS2_PLACEMENT_3D('',#604,#524,#525);
#442=AXIS2_PLACEMENT_3D('',#606,#527,#528);
#443=AXIS2_PLACEMENT_3D('',#610,#531,#532);
#444=AXIS2_PLACEMENT_3D('',#614,#535,#536);
#445=AXIS2_PLACEMENT_3D('',#616,#537,#538);
#446=DIRECTION('',(0.,0.,1.));
#447=DIRECTION('',(1.,0.,0.));
#448=DIRECTION('',(-1.,0.,0.));
#449=DIRECTION('',(0.,0.,1.));
#450=DIRECTION('',(1.,0.,0.));
#451=DIRECTION('',(0.,0.,-1.));
#452=DIRECTION('',(-1.,0.,0.));
#453=DIRECTION('',(0.,0.,1.));
#454=DIRECTION('',(-1.,0.,0.));
#455=DIRECTION('',(0.,0.,1.));
#456=DIRECTION('',(-1.,0.,0.));
#457=DIRECTION('',(0.,0.,1.));
#458=DIRECTION('',(-1.,0.,0.));
#459=DIRECTION('',(2.42518760051309E-17,0.,1.));
#460=DIRECTION('',(-1.,0.,0.));
#461=DIRECTION('',(0.,0.,1.));
#462=DIRECTION('',(-1.,0.,0.));
#463=DIRECTION('',(0.,0.,1.));
#464=DIRECTION('',(-1.,0.,0.));
#465=DIRECTION('',(0.,0.,1.));
#466=DIRECTION('',(1.,0.,0.));
#467=DIRECTION('',(0.,0.,-1.));
#468=DIRECTION('',(-1.,0.,0.));
#469=DIRECTION('',(0.,0.,1.));
#470=DIRECTION('',(-1.,0.,0.));
#471=DIRECTION('',(0.,0.,1.));
#472=DIRECTION('',(-1.,0.,0.));
#473=DIRECTION('',(0.,0.,1.));
#474=DIRECTION('',(-1.,0.,0.));
#475=DIRECTION('',(0.,0.,1.));
#476=DIRECTION('',(-1.,0.,0.));
#477=DIRECTION('',(0.,0.,1.));
#478=DIRECTION('',(1.,0.,0.));
#479=DIRECTION('',(7.01665872340541E-17,0.,-1.));
#480=DIRECTION('',(-1.,0.,0.));
#481=DIRECTION('',(0.,0.,1.));
#482=DIRECTION('',(-1.,0.,0.));
#483=DIRECTION('',(0.,0.,1.));
#484=DIRECTION('',(-1.,0.,0.));
#485=DIRECTION('',(0.,0.,1.));
#486=DIRECTION('',(-1.,0.,0.));
#487=DIRECTION('',(1.44502352719488E-16,0.,1.));
#488=DIRECTION('',(-1.,0.,0.));
#489=DIRECTION('',(0.,0.,1.));
#490=DIRECTION('',(-1.,0.,0.));
#491=DIRECTION('',(0.,0.,1.));
#492=DIRECTION('',(-1.,0.,0.));
#493=DIRECTION('',(0.,0.,1.));
#494=DIRECTION('',(-1.,0.,0.));
#495=DIRECTION('',(0.,0.,1.));
#496=DIRECTION('',(-1.,0.,0.));
#497=DIRECTION('',(0.,0.,1.));
#498=DIRECTION('',(1.,0.,0.));
#499=DIRECTION('',(0.,0.,-1.));
#500=DIRECTION('',(1.,0.,0.));
#501=DIRECTION('',(0.,0.,-1.));
#502=DIRECTION('',(-0.104528463267654,-0.396564679803871,0.912036323344063));
#503=DIRECTION('',(-0.0138856940543603,-0.91638873060938,-0.400048599438566));
#504=DIRECTION('',(1.,0.,0.));
#505=DIRECTION('',(1.,0.,0.));
#506=DIRECTION('',(0.,0.,-1.));
#507=DIRECTION('',(0.994279855392454,-0.061901734280854,0.0870387525978173));
#508=DIRECTION('',(1.,0.,0.));
#509=DIRECTION('',(1.,0.,0.));
#510=DIRECTION('',(0.,0.,-1.));
#511=DIRECTION('',(0.994447673861534,-0.0304737930700713,0.100723244026922));
#512=DIRECTION('',(1.,0.,0.));
#513=DIRECTION('',(1.,0.,0.));
#514=DIRECTION('',(0.,0.,-1.));
#515=DIRECTION('',(-0.104528463267654,-0.396564679803871,0.912036323344063));
#516=DIRECTION('',(0.0138856940543603,0.91638873060938,0.400048599438566));
#517=DIRECTION('',(1.,0.,0.));
#518=DIRECTION('',(1.,0.,0.));
#519=DIRECTION('',(0.,0.,-1.));
#520=DIRECTION('',(0.013885694054361,0.91638873060938,0.400048599438566));
#521=DIRECTION('',(1.,0.,0.));
#522=DIRECTION('',(1.,0.,0.));
#523=DIRECTION('',(0.,0.,-1.));
#524=DIRECTION('',(-0.104528463267654,-0.396564679803871,0.912036323344063));
#525=DIRECTION('',(0.0138856940543603,0.91638873060938,0.400048599438566));
#526=DIRECTION('',(1.,0.,0.));
#527=DIRECTION('',(1.,0.,0.));
#528=DIRECTION('',(0.,0.,-1.));
#529=DIRECTION('',(-0.994279855392454,0.0619017342808542,-0.0870387525978174));
#530=DIRECTION('',(1.,0.,0.));
#531=DIRECTION('',(1.,0.,0.));
#532=DIRECTION('',(0.,0.,-1.));
#533=DIRECTION('',(-0.994447673861534,0.0304737930700618,-0.100723244026923));
#534=DIRECTION('',(1.,0.,0.));
#535=DIRECTION('',(1.,0.,0.));
#536=DIRECTION('',(0.,0.,-1.));
#537=DIRECTION('',(-0.104528463267654,-0.396564679803871,0.912036323344063));
#538=DIRECTION('',(-0.0138856940543603,-0.91638873060938,-0.400048599438566));
#539=DIRECTION('',(1.,0.,0.));
#540=DIRECTION('',(-0.0138856940543605,-0.91638873060938,-0.400048599438566));
#541=DIRECTION('',(1.,0.,0.));
#542=CARTESIAN_POINT('',(0.,0.,0.));
#543=CARTESIAN_POINT('',(1.7,0.,0.));
#544=CARTESIAN_POINT('',(1.7,0.,9.79289321881345));
#545=CARTESIAN_POINT('',(1.7,9.79289321881345,0.));
#546=CARTESIAN_POINT('',(1.55355339059328,0.,0.));
#547=CARTESIAN_POINT('',(1.55355339059328,0.,10.1464466094067));
#548=CARTESIAN_POINT('',(1.2,0.,0.));
#549=CARTESIAN_POINT('',(1.34644660940672,0.,0.));
#550=CARTESIAN_POINT('',(1.34644660940672,0.,10.3535533905933));
#551=CARTESIAN_POINT('',(1.34644660940672,0.,0.));
#552=CARTESIAN_POINT('',(1.2,0.,0.));
#553=CARTESIAN_POINT('',(1.2,0.,10.7071067811865));
#554=CARTESIAN_POINT('',(1.7,0.,0.));
#555=CARTESIAN_POINT('',(1.2,0.,0.));
#556=CARTESIAN_POINT('',(1.2,0.,13.3));
#557=CARTESIAN_POINT('',(1.2,10.7071067811865,0.));
#558=CARTESIAN_POINT('',(2.4,0.,0.));
#559=CARTESIAN_POINT('',(2.4,0.,14.5));
#560=CARTESIAN_POINT('',(2.4,0.,0.));
#561=CARTESIAN_POINT('',(47.4019237886467,0.,0.));
#562=CARTESIAN_POINT('',(47.4019237886467,0.,14.5));
#563=CARTESIAN_POINT('',(0.,0.,0.));
#564=CARTESIAN_POINT('',(50.,0.,0.));
#565=CARTESIAN_POINT('',(50.,0.,16.));
#566=CARTESIAN_POINT('',(50.,0.,0.));
#567=CARTESIAN_POINT('',(144.582179545096,0.,0.));
#568=CARTESIAN_POINT('',(144.582179545096,0.,16.));
#569=CARTESIAN_POINT('',(0.,0.,0.));
#570=CARTESIAN_POINT('',(146.,0.,0.));
#571=CARTESIAN_POINT('',(146.,0.,15.75));
#572=CARTESIAN_POINT('',(146.,0.,0.));
#573=CARTESIAN_POINT('',(149.,0.,0.));
#574=CARTESIAN_POINT('',(149.,0.,15.75));
#575=CARTESIAN_POINT('',(0.,0.,0.));
#576=CARTESIAN_POINT('',(150.,0.,0.));
#577=CARTESIAN_POINT('',(150.,0.,14.75));
#578=CARTESIAN_POINT('',(149.,0.,0.));
#579=CARTESIAN_POINT('',(150.,14.75,0.));
#580=CARTESIAN_POINT('',(0.412185508150066,0.,0.));
#581=CARTESIAN_POINT('',(0.412185508150066,0.,-15.9999987807073));
#582=CARTESIAN_POINT('',(0.00985086537425017,0.,0.));
#583=CARTESIAN_POINT('',(0.00985086537425017,0.,-15.6061507408721));
#584=CARTESIAN_POINT('',(0.407620846718751,-15.6253622604919,0.319917527554522));
#585=CARTESIAN_POINT('',(50.,0.,0.));
#586=CARTESIAN_POINT('',(11.2673110611358,0.,0.));
#587=CARTESIAN_POINT('',(11.2673110611358,0.,-16.7118165011112));
#588=CARTESIAN_POINT('',(0.412185508150064,-15.9992197935914,0.157882801438309));
#589=CARTESIAN_POINT('',(50.,0.,0.));
#590=CARTESIAN_POINT('',(11.5486198552183,0.,0.));
#591=CARTESIAN_POINT('',(11.5486198552183,0.,-16.7223304396249));
#592=CARTESIAN_POINT('',(11.2673110611358,-16.6750366613695,1.1081349686731));
#593=CARTESIAN_POINT('',(50.,0.,0.));
#594=CARTESIAN_POINT('',(11.9418251751315,0.,0.));
#595=CARTESIAN_POINT('',(11.9418251751315,0.,-16.3860463843133));
#596=CARTESIAN_POINT('',(11.544055193787,-16.3097995375736,1.29866222894475));
#597=CARTESIAN_POINT('',(50.,0.,0.));
#598=CARTESIAN_POINT('',(12.0621055155044,0.,0.));
#599=CARTESIAN_POINT('',(12.0621055155044,0.,-9.66924737144012));
#600=CARTESIAN_POINT('',(11.9418251751315,-16.3315918266472,1.33477508092469));
#601=CARTESIAN_POINT('',(50.,0.,0.));
#602=CARTESIAN_POINT('',(11.6597708727286,0.,0.));
#603=CARTESIAN_POINT('',(11.6597708727286,0.,-9.39327942024282));
#604=CARTESIAN_POINT('',(11.6643355341599,-8.37187810562361,4.7639540262296));
#605=CARTESIAN_POINT('',(50.,0.,0.));
#606=CARTESIAN_POINT('',(0.804645319742822,0.,0.));
#607=CARTESIAN_POINT('',(0.804645319742822,0.,-8.33193545870266));
#608=CARTESIAN_POINT('',(11.6597708727286,-7.99802057252417,4.92598875234583));
#609=CARTESIAN_POINT('',(50.,0.,0.));
#610=CARTESIAN_POINT('',(0.523336525660362,0.,0.));
#611=CARTESIAN_POINT('',(0.523336525660362,0.,-8.3107903485276));
#612=CARTESIAN_POINT('',(0.804645319742823,-7.32220370474602,3.97573658511103));
#613=CARTESIAN_POINT('',(50.,0.,0.));
#614=CARTESIAN_POINT('',(0.130131205747175,0.,0.));
#615=CARTESIAN_POINT('',(0.130131205747175,0.,-8.53334001979642));
#616=CARTESIAN_POINT('',(0.527901187091673,-7.68744082854192,3.78520932483939));
#617=CARTESIAN_POINT('',(50.,0.,0.));
#618=CARTESIAN_POINT('',(0.130131205747172,-7.66564853946827,3.74909647285944));
#619=CARTESIAN_POINT('',(50.,0.,0.));
#620=(
GEOMETRIC_REPRESENTATION_CONTEXT(3)
GLOBAL_UNCERTAINTY_ASSIGNED_CONTEXT((#621))
GLOBAL_UNIT_ASSIGNED_CONTEXT((#627,#623,#622))
REPRESENTATION_CONTEXT('AEM90-AN1207-D32-W32-L150-Z03',
'TOP_LEVEL_ASSEMBLY_PART')
);
#621=UNCERTAINTY_MEASURE_WITH_UNIT(LENGTH_MEASURE(2.E-5),#627,
'DISTANCE_ACCURACY_VALUE','Maximum Tolerance applied to model');
#622=(
NAMED_UNIT(*)
SI_UNIT($,.STERADIAN.)
SOLID_ANGLE_UNIT()
);
#623=(
CONVERSION_BASED_UNIT('DEGREE',#625)
NAMED_UNIT(#624)
PLANE_ANGLE_UNIT()
);
#624=DIMENSIONAL_EXPONENTS(0.,0.,0.,0.,0.,0.,0.);
#625=PLANE_ANGLE_MEASURE_WITH_UNIT(PLANE_ANGLE_MEASURE(0.0174532925),#626);
#626=(
NAMED_UNIT(*)
PLANE_ANGLE_UNIT()
SI_UNIT($,.RADIAN.)
);
#627=(
LENGTH_UNIT()
NAMED_UNIT(*)
SI_UNIT(.MILLI.,.METRE.)
);
ENDSEC;
END-ISO-10303-21;
