ISO-10303-21;
HEADER;
/* Generated by software containing ST-Developer
 * from STEP Tools, Inc. (www.steptools.com) 
 */
/* OPTION: using custom schema-name function */

FILE_DESCRIPTION(
/* description */ (''),
/* implementation_level */ '2;1');

FILE_NAME(
/* name */ 'AEM90-AP1135-D20-W20-L150-Z03.stp',
/* time_stamp */ '2023-10-11T02:32:56+03:00',
/* author */ (''),
/* organization */ (''),
/* preprocessor_version */ 'ST-DEVELOPER v19.4',
/* originating_system */ 'SIEMENS PLM Software NX2306.3001',
/* authorisation */ '');

FILE_SCHEMA (('AUTOMOTIVE_DESIGN { 1 0 10303 214 3 1 1 1 }'));
ENDSEC;

DATA;
#10=SHAPE_REPRESENTATION_RELATIONSHIP('None',
'relationship between AEM90-AP1135-D20-W20-L150-Z03-None and AEM90-AP1
135-D20-W20-L150-Z03-None',#22,#11);
#11=ADVANCED_BREP_SHAPE_REPRESENTATION(
'AEM90-AP1135-D20-W20-L150-Z03-None',(#184,#185),#672);
#12=SHAPE_DEFINITION_REPRESENTATION(#13,#22);
#13=PRODUCT_DEFINITION_SHAPE('','',#14);
#14=PRODUCT_DEFINITION(' ','',#16,#15);
#15=PRODUCT_DEFINITION_CONTEXT('part definition',#21,'design');
#16=PRODUCT_DEFINITION_FORMATION_WITH_SPECIFIED_SOURCE(' ',' ',#18,
 .NOT_KNOWN.);
#17=PRODUCT_RELATED_PRODUCT_CATEGORY('part','',(#18));
#18=PRODUCT('AEM90-AP1135-D20-W20-L150-Z03',
'AEM90-AP1135-D20-W20-L150-Z03',' ',(#19));
#19=PRODUCT_CONTEXT(' ',#21,'mechanical');
#20=APPLICATION_PROTOCOL_DEFINITION('international standard',
'automotive_design',2010,#21);
#21=APPLICATION_CONTEXT(
'core data for automotive mechanical design processes');
#22=SHAPE_REPRESENTATION('AEM90-AP1135-D20-W20-L150-Z03-None',(#444),#672);
#23=DRAUGHTING_PRE_DEFINED_COLOUR('yellow');
#24=ELLIPSE('',#477,0.842693006708361,0.8);
#25=ELLIPSE('',#483,0.842693006708361,0.8);
#26=SURFACE_OF_REVOLUTION('',#46,#36);
#27=SURFACE_OF_REVOLUTION('',#24,#37);
#28=SURFACE_OF_REVOLUTION('',#47,#38);
#29=SURFACE_OF_REVOLUTION('',#48,#39);
#30=SURFACE_OF_REVOLUTION('',#49,#40);
#31=SURFACE_OF_REVOLUTION('',#50,#41);
#32=SURFACE_OF_REVOLUTION('',#25,#42);
#33=SURFACE_OF_REVOLUTION('',#51,#43);
#34=SURFACE_OF_REVOLUTION('',#52,#44);
#35=SURFACE_OF_REVOLUTION('',#53,#45);
#36=AXIS1_PLACEMENT('',#637,#551);
#37=AXIS1_PLACEMENT('',#641,#556);
#38=AXIS1_PLACEMENT('',#645,#560);
#39=AXIS1_PLACEMENT('',#649,#564);
#40=AXIS1_PLACEMENT('',#653,#568);
#41=AXIS1_PLACEMENT('',#657,#572);
#42=AXIS1_PLACEMENT('',#661,#577);
#43=AXIS1_PLACEMENT('',#665,#581);
#44=AXIS1_PLACEMENT('',#669,#585);
#45=AXIS1_PLACEMENT('',#671,#587);
#46=LINE('',#636,#54);
#47=LINE('',#644,#55);
#48=LINE('',#648,#56);
#49=LINE('',#652,#57);
#50=LINE('',#656,#58);
#51=LINE('',#664,#59);
#52=LINE('',#668,#60);
#53=LINE('',#670,#61);
#54=VECTOR('',#550,0.829162926376731);
#55=VECTOR('',#559,9.04884166539874);
#56=VECTOR('',#563,0.982098085334454);
#57=VECTOR('',#567,3.87012498121828);
#58=VECTOR('',#571,0.829162926376726);
#59=VECTOR('',#580,9.04884166539875);
#60=VECTOR('',#584,0.98209808533447);
#61=VECTOR('',#586,3.87012498121827);
#62=OVER_RIDING_STYLED_ITEM('',(#81),#246,#78);
#63=OVER_RIDING_STYLED_ITEM('',(#82),#247,#78);
#64=OVER_RIDING_STYLED_ITEM('',(#83),#248,#78);
#65=OVER_RIDING_STYLED_ITEM('',(#84),#249,#78);
#66=OVER_RIDING_STYLED_ITEM('',(#85),#250,#78);
#67=OVER_RIDING_STYLED_ITEM('',(#86),#251,#78);
#68=OVER_RIDING_STYLED_ITEM('',(#87),#252,#78);
#69=OVER_RIDING_STYLED_ITEM('',(#88),#253,#78);
#70=OVER_RIDING_STYLED_ITEM('',(#89),#254,#78);
#71=OVER_RIDING_STYLED_ITEM('',(#90),#255,#78);
#72=OVER_RIDING_STYLED_ITEM('',(#91),#256,#78);
#73=OVER_RIDING_STYLED_ITEM('',(#92),#257,#78);
#74=OVER_RIDING_STYLED_ITEM('',(#93),#258,#78);
#75=OVER_RIDING_STYLED_ITEM('',(#94),#259,#78);
#76=OVER_RIDING_STYLED_ITEM('',(#95),#260,#78);
#77=PRESENTATION_LAYER_ASSIGNMENT('1','Layer 1',(#184,#185));
#78=STYLED_ITEM('',(#80),#184);
#79=STYLED_ITEM('',(#96),#185);
#80=PRESENTATION_STYLE_ASSIGNMENT((#97));
#81=PRESENTATION_STYLE_ASSIGNMENT((#98));
#82=PRESENTATION_STYLE_ASSIGNMENT((#99));
#83=PRESENTATION_STYLE_ASSIGNMENT((#100));
#84=PRESENTATION_STYLE_ASSIGNMENT((#101));
#85=PRESENTATION_STYLE_ASSIGNMENT((#102));
#86=PRESENTATION_STYLE_ASSIGNMENT((#103));
#87=PRESENTATION_STYLE_ASSIGNMENT((#104));
#88=PRESENTATION_STYLE_ASSIGNMENT((#105));
#89=PRESENTATION_STYLE_ASSIGNMENT((#106));
#90=PRESENTATION_STYLE_ASSIGNMENT((#107));
#91=PRESENTATION_STYLE_ASSIGNMENT((#108));
#92=PRESENTATION_STYLE_ASSIGNMENT((#109));
#93=PRESENTATION_STYLE_ASSIGNMENT((#110));
#94=PRESENTATION_STYLE_ASSIGNMENT((#111));
#95=PRESENTATION_STYLE_ASSIGNMENT((#112));
#96=PRESENTATION_STYLE_ASSIGNMENT((#113));
#97=SURFACE_STYLE_USAGE(.BOTH.,#114);
#98=SURFACE_STYLE_USAGE(.BOTH.,#115);
#99=SURFACE_STYLE_USAGE(.BOTH.,#116);
#100=SURFACE_STYLE_USAGE(.BOTH.,#117);
#101=SURFACE_STYLE_USAGE(.BOTH.,#118);
#102=SURFACE_STYLE_USAGE(.BOTH.,#119);
#103=SURFACE_STYLE_USAGE(.BOTH.,#120);
#104=SURFACE_STYLE_USAGE(.BOTH.,#121);
#105=SURFACE_STYLE_USAGE(.BOTH.,#122);
#106=SURFACE_STYLE_USAGE(.BOTH.,#123);
#107=SURFACE_STYLE_USAGE(.BOTH.,#124);
#108=SURFACE_STYLE_USAGE(.BOTH.,#125);
#109=SURFACE_STYLE_USAGE(.BOTH.,#126);
#110=SURFACE_STYLE_USAGE(.BOTH.,#127);
#111=SURFACE_STYLE_USAGE(.BOTH.,#128);
#112=SURFACE_STYLE_USAGE(.BOTH.,#129);
#113=SURFACE_STYLE_USAGE(.BOTH.,#130);
#114=SURFACE_SIDE_STYLE('',(#131));
#115=SURFACE_SIDE_STYLE('',(#132));
#116=SURFACE_SIDE_STYLE('',(#133));
#117=SURFACE_SIDE_STYLE('',(#134));
#118=SURFACE_SIDE_STYLE('',(#135));
#119=SURFACE_SIDE_STYLE('',(#136));
#120=SURFACE_SIDE_STYLE('',(#137));
#121=SURFACE_SIDE_STYLE('',(#138));
#122=SURFACE_SIDE_STYLE('',(#139));
#123=SURFACE_SIDE_STYLE('',(#140));
#124=SURFACE_SIDE_STYLE('',(#141));
#125=SURFACE_SIDE_STYLE('',(#142));
#126=SURFACE_SIDE_STYLE('',(#143));
#127=SURFACE_SIDE_STYLE('',(#144));
#128=SURFACE_SIDE_STYLE('',(#145));
#129=SURFACE_SIDE_STYLE('',(#146));
#130=SURFACE_SIDE_STYLE('',(#147));
#131=SURFACE_STYLE_FILL_AREA(#148);
#132=SURFACE_STYLE_FILL_AREA(#149);
#133=SURFACE_STYLE_FILL_AREA(#150);
#134=SURFACE_STYLE_FILL_AREA(#151);
#135=SURFACE_STYLE_FILL_AREA(#152);
#136=SURFACE_STYLE_FILL_AREA(#153);
#137=SURFACE_STYLE_FILL_AREA(#154);
#138=SURFACE_STYLE_FILL_AREA(#155);
#139=SURFACE_STYLE_FILL_AREA(#156);
#140=SURFACE_STYLE_FILL_AREA(#157);
#141=SURFACE_STYLE_FILL_AREA(#158);
#142=SURFACE_STYLE_FILL_AREA(#159);
#143=SURFACE_STYLE_FILL_AREA(#160);
#144=SURFACE_STYLE_FILL_AREA(#161);
#145=SURFACE_STYLE_FILL_AREA(#162);
#146=SURFACE_STYLE_FILL_AREA(#163);
#147=SURFACE_STYLE_FILL_AREA(#164);
#148=FILL_AREA_STYLE('',(#165));
#149=FILL_AREA_STYLE('',(#166));
#150=FILL_AREA_STYLE('',(#167));
#151=FILL_AREA_STYLE('',(#168));
#152=FILL_AREA_STYLE('',(#169));
#153=FILL_AREA_STYLE('',(#170));
#154=FILL_AREA_STYLE('',(#171));
#155=FILL_AREA_STYLE('',(#172));
#156=FILL_AREA_STYLE('',(#173));
#157=FILL_AREA_STYLE('',(#174));
#158=FILL_AREA_STYLE('',(#175));
#159=FILL_AREA_STYLE('',(#176));
#160=FILL_AREA_STYLE('',(#177));
#161=FILL_AREA_STYLE('',(#178));
#162=FILL_AREA_STYLE('',(#179));
#163=FILL_AREA_STYLE('',(#180));
#164=FILL_AREA_STYLE('',(#181));
#165=FILL_AREA_STYLE_COLOUR('',#182);
#166=FILL_AREA_STYLE_COLOUR('',#183);
#167=FILL_AREA_STYLE_COLOUR('',#183);
#168=FILL_AREA_STYLE_COLOUR('',#183);
#169=FILL_AREA_STYLE_COLOUR('',#183);
#170=FILL_AREA_STYLE_COLOUR('',#183);
#171=FILL_AREA_STYLE_COLOUR('',#183);
#172=FILL_AREA_STYLE_COLOUR('',#183);
#173=FILL_AREA_STYLE_COLOUR('',#183);
#174=FILL_AREA_STYLE_COLOUR('',#183);
#175=FILL_AREA_STYLE_COLOUR('',#183);
#176=FILL_AREA_STYLE_COLOUR('',#183);
#177=FILL_AREA_STYLE_COLOUR('',#183);
#178=FILL_AREA_STYLE_COLOUR('',#183);
#179=FILL_AREA_STYLE_COLOUR('',#183);
#180=FILL_AREA_STYLE_COLOUR('',#183);
#181=FILL_AREA_STYLE_COLOUR('',#23);
#182=COLOUR_RGB('Medium Steel',0.611764705882353,0.658823529411765,0.670588235294118);
#183=COLOUR_RGB('silver gray',0.6,0.6,0.6);
#184=MANIFOLD_SOLID_BREP('',#186);
#185=MANIFOLD_SOLID_BREP('',#187);
#186=CLOSED_SHELL('',(#246,#247,#248,#249,#250,#251,#252,#253,#254,#255,
#256,#257,#258,#259,#260));
#187=CLOSED_SHELL('',(#261,#262,#263,#264,#265,#266,#267,#268,#269,#270));
#188=CONICAL_SURFACE('',#452,9.75,15.);
#189=CONICAL_SURFACE('',#456,10.,30.);
#190=CONICAL_SURFACE('',#460,9.5,3.00000000000004);
#191=CONICAL_SURFACE('',#466,6.,83.9999999999999);
#192=CONICAL_SURFACE('',#470,4.79146156715937,39.0000000000001);
#193=CYLINDRICAL_SURFACE('',#450,9.75);
#194=CYLINDRICAL_SURFACE('',#454,10.);
#195=CYLINDRICAL_SURFACE('',#458,9.5);
#196=TOROIDAL_SURFACE('',#448,8.75,1.);
#197=TOROIDAL_SURFACE('',#462,8.57551771664255,0.5);
#198=TOROIDAL_SURFACE('',#468,5.41317833632495,0.8);
#199=TOROIDAL_SURFACE('',#472,4.13668248214428,0.8);
#200=FACE_BOUND('',#277,.T.);
#201=FACE_BOUND('',#278,.T.);
#202=FACE_BOUND('',#279,.T.);
#203=FACE_BOUND('',#280,.T.);
#204=FACE_BOUND('',#281,.T.);
#205=FACE_BOUND('',#282,.T.);
#206=FACE_BOUND('',#283,.T.);
#207=FACE_BOUND('',#284,.T.);
#208=FACE_BOUND('',#285,.T.);
#209=FACE_BOUND('',#286,.T.);
#210=FACE_BOUND('',#287,.T.);
#211=FACE_BOUND('',#288,.T.);
#212=FACE_BOUND('',#289,.T.);
#213=FACE_BOUND('',#290,.T.);
#214=FACE_BOUND('',#291,.T.);
#215=FACE_BOUND('',#292,.T.);
#216=FACE_BOUND('',#293,.T.);
#217=FACE_BOUND('',#294,.T.);
#218=FACE_BOUND('',#295,.T.);
#219=FACE_BOUND('',#296,.T.);
#220=FACE_BOUND('',#297,.T.);
#221=FACE_BOUND('',#298,.T.);
#222=FACE_BOUND('',#299,.T.);
#223=FACE_BOUND('',#300,.T.);
#224=FACE_BOUND('',#301,.T.);
#225=FACE_BOUND('',#302,.T.);
#226=FACE_BOUND('',#304,.T.);
#227=FACE_BOUND('',#305,.T.);
#228=FACE_BOUND('',#306,.T.);
#229=FACE_BOUND('',#307,.T.);
#230=FACE_BOUND('',#308,.T.);
#231=FACE_BOUND('',#309,.T.);
#232=FACE_BOUND('',#310,.T.);
#233=FACE_BOUND('',#311,.T.);
#234=FACE_BOUND('',#312,.T.);
#235=FACE_BOUND('',#313,.T.);
#236=FACE_BOUND('',#314,.T.);
#237=FACE_BOUND('',#315,.T.);
#238=FACE_BOUND('',#316,.T.);
#239=FACE_BOUND('',#317,.T.);
#240=FACE_BOUND('',#318,.T.);
#241=FACE_BOUND('',#319,.T.);
#242=FACE_BOUND('',#320,.T.);
#243=FACE_BOUND('',#321,.T.);
#244=FACE_BOUND('',#322,.T.);
#245=FACE_BOUND('',#323,.T.);
#246=ADVANCED_FACE('',(#274),#271,.F.);
#247=ADVANCED_FACE('',(#200,#201),#196,.T.);
#248=ADVANCED_FACE('',(#202,#203),#193,.T.);
#249=ADVANCED_FACE('',(#204,#205),#188,.T.);
#250=ADVANCED_FACE('',(#206,#207),#194,.T.);
#251=ADVANCED_FACE('',(#208,#209),#189,.T.);
#252=ADVANCED_FACE('',(#210,#211),#195,.T.);
#253=ADVANCED_FACE('',(#212,#213),#190,.T.);
#254=ADVANCED_FACE('',(#214,#215),#197,.T.);
#255=ADVANCED_FACE('',(#216,#217),#272,.F.);
#256=ADVANCED_FACE('',(#218,#219),#191,.F.);
#257=ADVANCED_FACE('',(#220,#221),#198,.T.);
#258=ADVANCED_FACE('',(#222,#223),#192,.F.);
#259=ADVANCED_FACE('',(#224,#225),#199,.F.);
#260=ADVANCED_FACE('',(#275),#273,.F.);
#261=ADVANCED_FACE('',(#226,#227),#26,.T.);
#262=ADVANCED_FACE('',(#228,#229),#27,.T.);
#263=ADVANCED_FACE('',(#230,#231),#28,.T.);
#264=ADVANCED_FACE('',(#232,#233),#29,.T.);
#265=ADVANCED_FACE('',(#234,#235),#30,.T.);
#266=ADVANCED_FACE('',(#236,#237),#31,.T.);
#267=ADVANCED_FACE('',(#238,#239),#32,.T.);
#268=ADVANCED_FACE('',(#240,#241),#33,.T.);
#269=ADVANCED_FACE('',(#242,#243),#34,.T.);
#270=ADVANCED_FACE('',(#244,#245),#35,.T.);
#271=PLANE('',#446);
#272=PLANE('',#464);
#273=PLANE('',#473);
#274=FACE_OUTER_BOUND('',#276,.T.);
#275=FACE_OUTER_BOUND('',#303,.T.);
#276=EDGE_LOOP('',(#324));
#277=EDGE_LOOP('',(#325));
#278=EDGE_LOOP('',(#326));
#279=EDGE_LOOP('',(#327));
#280=EDGE_LOOP('',(#328));
#281=EDGE_LOOP('',(#329));
#282=EDGE_LOOP('',(#330));
#283=EDGE_LOOP('',(#331));
#284=EDGE_LOOP('',(#332));
#285=EDGE_LOOP('',(#333));
#286=EDGE_LOOP('',(#334));
#287=EDGE_LOOP('',(#335));
#288=EDGE_LOOP('',(#336));
#289=EDGE_LOOP('',(#337));
#290=EDGE_LOOP('',(#338));
#291=EDGE_LOOP('',(#339));
#292=EDGE_LOOP('',(#340));
#293=EDGE_LOOP('',(#341));
#294=EDGE_LOOP('',(#342));
#295=EDGE_LOOP('',(#343));
#296=EDGE_LOOP('',(#344));
#297=EDGE_LOOP('',(#345));
#298=EDGE_LOOP('',(#346));
#299=EDGE_LOOP('',(#347));
#300=EDGE_LOOP('',(#348));
#301=EDGE_LOOP('',(#349));
#302=EDGE_LOOP('',(#350));
#303=EDGE_LOOP('',(#351));
#304=EDGE_LOOP('',(#352));
#305=EDGE_LOOP('',(#353));
#306=EDGE_LOOP('',(#354));
#307=EDGE_LOOP('',(#355));
#308=EDGE_LOOP('',(#356));
#309=EDGE_LOOP('',(#357));
#310=EDGE_LOOP('',(#358));
#311=EDGE_LOOP('',(#359));
#312=EDGE_LOOP('',(#360));
#313=EDGE_LOOP('',(#361));
#314=EDGE_LOOP('',(#362));
#315=EDGE_LOOP('',(#363));
#316=EDGE_LOOP('',(#364));
#317=EDGE_LOOP('',(#365));
#318=EDGE_LOOP('',(#366));
#319=EDGE_LOOP('',(#367));
#320=EDGE_LOOP('',(#368));
#321=EDGE_LOOP('',(#369));
#322=EDGE_LOOP('',(#370));
#323=EDGE_LOOP('',(#371));
#324=ORIENTED_EDGE('',*,*,#396,.F.);
#325=ORIENTED_EDGE('',*,*,#397,.F.);
#326=ORIENTED_EDGE('',*,*,#396,.T.);
#327=ORIENTED_EDGE('',*,*,#398,.F.);
#328=ORIENTED_EDGE('',*,*,#397,.T.);
#329=ORIENTED_EDGE('',*,*,#399,.F.);
#330=ORIENTED_EDGE('',*,*,#398,.T.);
#331=ORIENTED_EDGE('',*,*,#400,.F.);
#332=ORIENTED_EDGE('',*,*,#399,.T.);
#333=ORIENTED_EDGE('',*,*,#401,.F.);
#334=ORIENTED_EDGE('',*,*,#400,.T.);
#335=ORIENTED_EDGE('',*,*,#402,.F.);
#336=ORIENTED_EDGE('',*,*,#401,.T.);
#337=ORIENTED_EDGE('',*,*,#403,.F.);
#338=ORIENTED_EDGE('',*,*,#402,.T.);
#339=ORIENTED_EDGE('',*,*,#404,.F.);
#340=ORIENTED_EDGE('',*,*,#403,.T.);
#341=ORIENTED_EDGE('',*,*,#405,.F.);
#342=ORIENTED_EDGE('',*,*,#404,.T.);
#343=ORIENTED_EDGE('',*,*,#406,.F.);
#344=ORIENTED_EDGE('',*,*,#405,.T.);
#345=ORIENTED_EDGE('',*,*,#407,.F.);
#346=ORIENTED_EDGE('',*,*,#406,.T.);
#347=ORIENTED_EDGE('',*,*,#408,.F.);
#348=ORIENTED_EDGE('',*,*,#407,.T.);
#349=ORIENTED_EDGE('',*,*,#409,.F.);
#350=ORIENTED_EDGE('',*,*,#408,.T.);
#351=ORIENTED_EDGE('',*,*,#409,.T.);
#352=ORIENTED_EDGE('',*,*,#410,.F.);
#353=ORIENTED_EDGE('',*,*,#411,.T.);
#354=ORIENTED_EDGE('',*,*,#412,.F.);
#355=ORIENTED_EDGE('',*,*,#410,.T.);
#356=ORIENTED_EDGE('',*,*,#413,.F.);
#357=ORIENTED_EDGE('',*,*,#412,.T.);
#358=ORIENTED_EDGE('',*,*,#414,.F.);
#359=ORIENTED_EDGE('',*,*,#413,.T.);
#360=ORIENTED_EDGE('',*,*,#415,.F.);
#361=ORIENTED_EDGE('',*,*,#414,.T.);
#362=ORIENTED_EDGE('',*,*,#416,.F.);
#363=ORIENTED_EDGE('',*,*,#415,.T.);
#364=ORIENTED_EDGE('',*,*,#417,.F.);
#365=ORIENTED_EDGE('',*,*,#416,.T.);
#366=ORIENTED_EDGE('',*,*,#418,.F.);
#367=ORIENTED_EDGE('',*,*,#417,.T.);
#368=ORIENTED_EDGE('',*,*,#419,.F.);
#369=ORIENTED_EDGE('',*,*,#418,.T.);
#370=ORIENTED_EDGE('',*,*,#411,.F.);
#371=ORIENTED_EDGE('',*,*,#419,.T.);
#372=VERTEX_POINT('',#590);
#373=VERTEX_POINT('',#593);
#374=VERTEX_POINT('',#596);
#375=VERTEX_POINT('',#599);
#376=VERTEX_POINT('',#602);
#377=VERTEX_POINT('',#605);
#378=VERTEX_POINT('',#608);
#379=VERTEX_POINT('',#611);
#380=VERTEX_POINT('',#614);
#381=VERTEX_POINT('',#617);
#382=VERTEX_POINT('',#620);
#383=VERTEX_POINT('',#623);
#384=VERTEX_POINT('',#626);
#385=VERTEX_POINT('',#629);
#386=VERTEX_POINT('',#633);
#387=VERTEX_POINT('',#635);
#388=VERTEX_POINT('',#639);
#389=VERTEX_POINT('',#643);
#390=VERTEX_POINT('',#647);
#391=VERTEX_POINT('',#651);
#392=VERTEX_POINT('',#655);
#393=VERTEX_POINT('',#659);
#394=VERTEX_POINT('',#663);
#395=VERTEX_POINT('',#667);
#396=EDGE_CURVE('',#372,#372,#420,.T.);
#397=EDGE_CURVE('',#373,#373,#421,.T.);
#398=EDGE_CURVE('',#374,#374,#422,.T.);
#399=EDGE_CURVE('',#375,#375,#423,.T.);
#400=EDGE_CURVE('',#376,#376,#424,.T.);
#401=EDGE_CURVE('',#377,#377,#425,.T.);
#402=EDGE_CURVE('',#378,#378,#426,.T.);
#403=EDGE_CURVE('',#379,#379,#427,.T.);
#404=EDGE_CURVE('',#380,#380,#428,.T.);
#405=EDGE_CURVE('',#381,#381,#429,.T.);
#406=EDGE_CURVE('',#382,#382,#430,.T.);
#407=EDGE_CURVE('',#383,#383,#431,.T.);
#408=EDGE_CURVE('',#384,#384,#432,.T.);
#409=EDGE_CURVE('',#385,#385,#433,.T.);
#410=EDGE_CURVE('',#386,#386,#434,.T.);
#411=EDGE_CURVE('',#387,#387,#435,.T.);
#412=EDGE_CURVE('',#388,#388,#436,.T.);
#413=EDGE_CURVE('',#389,#389,#437,.T.);
#414=EDGE_CURVE('',#390,#390,#438,.T.);
#415=EDGE_CURVE('',#391,#391,#439,.T.);
#416=EDGE_CURVE('',#392,#392,#440,.T.);
#417=EDGE_CURVE('',#393,#393,#441,.T.);
#418=EDGE_CURVE('',#394,#394,#442,.T.);
#419=EDGE_CURVE('',#395,#395,#443,.T.);
#420=CIRCLE('',#445,8.75);
#421=CIRCLE('',#447,9.75);
#422=CIRCLE('',#449,9.75);
#423=CIRCLE('',#451,10.);
#424=CIRCLE('',#453,10.);
#425=CIRCLE('',#455,9.5);
#426=CIRCLE('',#457,9.5);
#427=CIRCLE('',#459,9.07483248401984);
#428=CIRCLE('',#461,8.57551771664255);
#429=CIRCLE('',#463,6.);
#430=CIRCLE('',#465,5.32955556571083);
#431=CIRCLE('',#467,4.79146156715937);
#432=CIRCLE('',#469,4.75839925130986);
#433=CIRCLE('',#471,4.13668248214428);
#434=CIRCLE('',#474,9.23152565627522);
#435=CIRCLE('',#475,8.43305915410131);
#436=CIRCLE('',#476,9.99977443100306);
#437=CIRCLE('',#478,10.0783848999821);
#438=CIRCLE('',#479,9.5457330643503);
#439=CIRCLE('',#480,5.81056979478543);
#440=CIRCLE('',#481,5.01820311967242);
#441=CIRCLE('',#482,4.28163072172796);
#442=CIRCLE('',#484,4.380915114601);
#443=CIRCLE('',#485,4.86958805120079);
#444=AXIS2_PLACEMENT_3D('',#588,#486,#487);
#445=AXIS2_PLACEMENT_3D('',#589,#488,#489);
#446=AXIS2_PLACEMENT_3D('',#591,#490,#491);
#447=AXIS2_PLACEMENT_3D('',#592,#492,#493);
#448=AXIS2_PLACEMENT_3D('',#594,#494,#495);
#449=AXIS2_PLACEMENT_3D('',#595,#496,#497);
#450=AXIS2_PLACEMENT_3D('',#597,#498,#499);
#451=AXIS2_PLACEMENT_3D('',#598,#500,#501);
#452=AXIS2_PLACEMENT_3D('',#600,#502,#503);
#453=AXIS2_PLACEMENT_3D('',#601,#504,#505);
#454=AXIS2_PLACEMENT_3D('',#603,#506,#507);
#455=AXIS2_PLACEMENT_3D('',#604,#508,#509);
#456=AXIS2_PLACEMENT_3D('',#606,#510,#511);
#457=AXIS2_PLACEMENT_3D('',#607,#512,#513);
#458=AXIS2_PLACEMENT_3D('',#609,#514,#515);
#459=AXIS2_PLACEMENT_3D('',#610,#516,#517);
#460=AXIS2_PLACEMENT_3D('',#612,#518,#519);
#461=AXIS2_PLACEMENT_3D('',#613,#520,#521);
#462=AXIS2_PLACEMENT_3D('',#615,#522,#523);
#463=AXIS2_PLACEMENT_3D('',#616,#524,#525);
#464=AXIS2_PLACEMENT_3D('',#618,#526,#527);
#465=AXIS2_PLACEMENT_3D('',#619,#528,#529);
#466=AXIS2_PLACEMENT_3D('',#621,#530,#531);
#467=AXIS2_PLACEMENT_3D('',#622,#532,#533);
#468=AXIS2_PLACEMENT_3D('',#624,#534,#535);
#469=AXIS2_PLACEMENT_3D('',#625,#536,#537);
#470=AXIS2_PLACEMENT_3D('',#627,#538,#539);
#471=AXIS2_PLACEMENT_3D('',#628,#540,#541);
#472=AXIS2_PLACEMENT_3D('',#630,#542,#543);
#473=AXIS2_PLACEMENT_3D('',#631,#544,#545);
#474=AXIS2_PLACEMENT_3D('',#632,#546,#547);
#475=AXIS2_PLACEMENT_3D('',#634,#548,#549);
#476=AXIS2_PLACEMENT_3D('',#638,#552,#553);
#477=AXIS2_PLACEMENT_3D('',#640,#554,#555);
#478=AXIS2_PLACEMENT_3D('',#642,#557,#558);
#479=AXIS2_PLACEMENT_3D('',#646,#561,#562);
#480=AXIS2_PLACEMENT_3D('',#650,#565,#566);
#481=AXIS2_PLACEMENT_3D('',#654,#569,#570);
#482=AXIS2_PLACEMENT_3D('',#658,#573,#574);
#483=AXIS2_PLACEMENT_3D('',#660,#575,#576);
#484=AXIS2_PLACEMENT_3D('',#662,#578,#579);
#485=AXIS2_PLACEMENT_3D('',#666,#582,#583);
#486=DIRECTION('',(0.,0.,1.));
#487=DIRECTION('',(1.,0.,0.));
#488=DIRECTION('',(-1.,0.,0.));
#489=DIRECTION('',(0.,0.,1.));
#490=DIRECTION('',(-1.,0.,0.));
#491=DIRECTION('',(0.,0.,1.));
#492=DIRECTION('',(-1.,0.,0.));
#493=DIRECTION('',(0.,0.,1.));
#494=DIRECTION('',(-1.,0.,0.));
#495=DIRECTION('',(0.,0.,1.));
#496=DIRECTION('',(-1.,0.,0.));
#497=DIRECTION('',(0.,0.,1.));
#498=DIRECTION('',(-1.,0.,0.));
#499=DIRECTION('',(0.,0.,1.));
#500=DIRECTION('',(-1.,0.,0.));
#501=DIRECTION('',(0.,0.,1.));
#502=DIRECTION('',(-1.,0.,0.));
#503=DIRECTION('',(9.99483483284277E-17,0.,1.));
#504=DIRECTION('',(-1.,0.,0.));
#505=DIRECTION('',(0.,0.,1.));
#506=DIRECTION('',(-1.,0.,0.));
#507=DIRECTION('',(0.,0.,1.));
#508=DIRECTION('',(-1.,0.,0.));
#509=DIRECTION('',(0.,0.,1.));
#510=DIRECTION('',(1.,0.,0.));
#511=DIRECTION('',(7.08833648461341E-17,0.,-1.));
#512=DIRECTION('',(-1.,0.,0.));
#513=DIRECTION('',(0.,0.,1.));
#514=DIRECTION('',(-1.,0.,0.));
#515=DIRECTION('',(0.,0.,1.));
#516=DIRECTION('',(-1.,0.,0.));
#517=DIRECTION('',(0.,0.,1.));
#518=DIRECTION('',(1.,0.,0.));
#519=DIRECTION('',(-1.65324433000082E-15,0.,-1.));
#520=DIRECTION('',(-1.,0.,0.));
#521=DIRECTION('',(0.,0.,1.));
#522=DIRECTION('',(-1.,0.,0.));
#523=DIRECTION('',(0.,0.,1.));
#524=DIRECTION('',(-1.,0.,0.));
#525=DIRECTION('',(0.,0.,1.));
#526=DIRECTION('',(1.,0.,0.));
#527=DIRECTION('',(0.,0.,-1.));
#528=DIRECTION('',(-1.,0.,0.));
#529=DIRECTION('',(0.,0.,1.));
#530=DIRECTION('',(-1.,0.,0.));
#531=DIRECTION('',(1.25270665368814E-18,0.,0.999999999999999));
#532=DIRECTION('',(-1.,0.,0.));
#533=DIRECTION('',(0.,0.,1.));
#534=DIRECTION('',(-1.,0.,0.));
#535=DIRECTION('',(0.,0.,1.));
#536=DIRECTION('',(-1.,0.,0.));
#537=DIRECTION('',(0.,0.,1.));
#538=DIRECTION('',(-1.,0.,0.));
#539=DIRECTION('',(6.09599230754348E-17,0.,1.));
#540=DIRECTION('',(-1.,0.,0.));
#541=DIRECTION('',(0.,0.,1.));
#542=DIRECTION('',(-1.,0.,0.));
#543=DIRECTION('',(0.,0.,1.));
#544=DIRECTION('',(1.,0.,0.));
#545=DIRECTION('',(0.,0.,-1.));
#546=DIRECTION('',(1.,0.,0.));
#547=DIRECTION('',(0.,0.,-1.));
#548=DIRECTION('',(1.,0.,0.));
#549=DIRECTION('',(0.,0.,-1.));
#550=DIRECTION('',(-0.0400340335029672,-0.971019692433315,-0.235622649735111));
#551=DIRECTION('',(1.,0.,0.));
#552=DIRECTION('',(1.,0.,0.));
#553=DIRECTION('',(0.,0.,-1.));
#554=DIRECTION('',(0.0697564737441254,-0.23795240206457,0.968768645612814));
#555=DIRECTION('',(-0.830327943008171,-0.55209326281113,-0.0758191019359921));
#556=DIRECTION('',(1.,0.,0.));
#557=DIRECTION('',(1.,0.,0.));
#558=DIRECTION('',(0.,0.,-1.));
#559=DIRECTION('',(0.997297027518659,-0.0058334355396825,-0.0732434975424616));
#560=DIRECTION('',(1.,0.,0.));
#561=DIRECTION('',(1.,0.,0.));
#562=DIRECTION('',(0.,0.,-1.));
#563=DIRECTION('',(0.839460903974673,0.538648005299404,0.0718590083775021));
#564=DIRECTION('',(1.,0.,0.));
#565=DIRECTION('',(1.,0.,0.));
#566=DIRECTION('',(0.,0.,-1.));
#567=DIRECTION('',(0.165993164733604,0.960364043177769,0.223935646633069));
#568=DIRECTION('',(1.,0.,0.));
#569=DIRECTION('',(1.,0.,0.));
#570=DIRECTION('',(0.,0.,-1.));
#571=DIRECTION('',(0.0400340335029675,0.971019692433315,0.235622649735111));
#572=DIRECTION('',(1.,0.,0.));
#573=DIRECTION('',(1.,0.,0.));
#574=DIRECTION('',(0.,0.,-1.));
#575=DIRECTION('',(0.0697564737441254,-0.23795240206457,0.968768645612814));
#576=DIRECTION('',(0.830327943008171,0.55209326281113,0.0758191019359921));
#577=DIRECTION('',(1.,0.,0.));
#578=DIRECTION('',(1.,0.,0.));
#579=DIRECTION('',(0.,0.,-1.));
#580=DIRECTION('',(-0.997297027518659,0.00583343553968221,0.0732434975424615));
#581=DIRECTION('',(1.,0.,0.));
#582=DIRECTION('',(1.,0.,0.));
#583=DIRECTION('',(0.,0.,-1.));
#584=DIRECTION('',(-0.839460903974673,-0.538648005299404,-0.0718590083775023));
#585=DIRECTION('',(1.,0.,0.));
#586=DIRECTION('',(-0.165993164733605,-0.960364043177769,-0.223935646633069));
#587=DIRECTION('',(1.,0.,0.));
#588=CARTESIAN_POINT('',(0.,0.,0.));
#589=CARTESIAN_POINT('',(150.,0.,0.));
#590=CARTESIAN_POINT('',(150.,0.,8.75));
#591=CARTESIAN_POINT('',(150.,0.,0.));
#592=CARTESIAN_POINT('',(149.,0.,0.));
#593=CARTESIAN_POINT('',(149.,0.,9.75));
#594=CARTESIAN_POINT('',(149.,0.,0.));
#595=CARTESIAN_POINT('',(146.,0.,0.));
#596=CARTESIAN_POINT('',(146.,0.,9.75));
#597=CARTESIAN_POINT('',(0.,0.,0.));
#598=CARTESIAN_POINT('',(145.066987298108,0.,0.));
#599=CARTESIAN_POINT('',(145.066987298108,0.,10.));
#600=CARTESIAN_POINT('',(146.,0.,0.));
#601=CARTESIAN_POINT('',(50.,0.,0.));
#602=CARTESIAN_POINT('',(50.,0.,10.));
#603=CARTESIAN_POINT('',(0.,0.,0.));
#604=CARTESIAN_POINT('',(49.1339745962156,0.,0.));
#605=CARTESIAN_POINT('',(49.1339745962156,0.,9.5));
#606=CARTESIAN_POINT('',(50.,0.,0.));
#607=CARTESIAN_POINT('',(9.48651150947765,0.,0.));
#608=CARTESIAN_POINT('',(9.48651150947765,0.,9.5));
#609=CARTESIAN_POINT('',(0.,0.,0.));
#610=CARTESIAN_POINT('',(1.37383202187853,0.,0.));
#611=CARTESIAN_POINT('',(1.37383202187853,0.,9.07483248401984));
#612=CARTESIAN_POINT('',(9.48651150947765,0.,0.));
#613=CARTESIAN_POINT('',(0.9,0.,0.));
#614=CARTESIAN_POINT('',(0.9,0.,8.57551771664255));
#615=CARTESIAN_POINT('',(1.4,0.,0.));
#616=CARTESIAN_POINT('',(0.9,0.,0.));
#617=CARTESIAN_POINT('',(0.9,0.,6.));
#618=CARTESIAN_POINT('',(0.9,8.57551771664255,0.));
#619=CARTESIAN_POINT('',(0.970466549554094,0.,0.));
#620=CARTESIAN_POINT('',(0.970466549554094,0.,5.32955556571083));
#621=CARTESIAN_POINT('',(0.9,0.,0.));
#622=CARTESIAN_POINT('',(1.26262775300884,0.,0.));
#623=CARTESIAN_POINT('',(1.26262775300884,0.,4.79146156715937));
#624=CARTESIAN_POINT('',(1.76608406584871,0.,0.));
#625=CARTESIAN_POINT('',(1.30345631283987,0.,0.));
#626=CARTESIAN_POINT('',(1.30345631283987,0.,4.75839925130986));
#627=CARTESIAN_POINT('',(1.26262775300884,0.,0.));
#628=CARTESIAN_POINT('',(1.6,0.,0.));
#629=CARTESIAN_POINT('',(1.6,0.,4.13668248214428));
#630=CARTESIAN_POINT('',(0.8,0.,0.));
#631=CARTESIAN_POINT('',(1.6,4.13668248214428,0.));
#632=CARTESIAN_POINT('',(0.0310154024426905,0.,0.));
#633=CARTESIAN_POINT('',(0.0310154024426905,0.,-9.23152565627522));
#634=CARTESIAN_POINT('',(0.0642101388166749,0.,0.));
#635=CARTESIAN_POINT('',(0.0642101388166749,0.,-8.43305915410131));
#636=CARTESIAN_POINT('',(0.0642101388166749,-8.42458715980838,0.377912534012414));
#637=CARTESIAN_POINT('',(0.,0.,0.));
#638=CARTESIAN_POINT('',(0.784768658036677,0.,0.));
#639=CARTESIAN_POINT('',(0.784768658036677,0.,-9.99977443100306));
#640=CARTESIAN_POINT('',(0.858164516843114,-9.20914828940902,0.128036916984499));
#641=CARTESIAN_POINT('',(0.,0.,0.));
#642=CARTESIAN_POINT('',(9.80915155342583,0.,0.));
#643=CARTESIAN_POINT('',(9.80915155342583,0.,-10.0783848999821));
#644=CARTESIAN_POINT('',(0.784768658036677,-9.99958941581537,-0.0608291546517449));
#645=CARTESIAN_POINT('',(0.,0.,0.));
#646=CARTESIAN_POINT('',(10.6335844999325,0.,0.));
#647=CARTESIAN_POINT('',(10.6335844999325,0.,-9.5457330643503));
#648=CARTESIAN_POINT('',(9.80915155342583,-10.0523752503793,-0.723597966933501));
#649=CARTESIAN_POINT('',(0.,0.,0.));
#650=CARTESIAN_POINT('',(11.2759987934795,0.,0.));
#651=CARTESIAN_POINT('',(11.2759987934795,0.,-5.81056979478543));
#652=CARTESIAN_POINT('',(10.6335844999325,-9.5233700757055,-0.653025372391925));
#653=CARTESIAN_POINT('',(0.,0.,0.));
#654=CARTESIAN_POINT('',(11.3091935298535,0.,0.));
#655=CARTESIAN_POINT('',(11.3091935298535,0.,-5.01820311967242));
#656=CARTESIAN_POINT('',(11.2759987934795,-5.80664120113943,0.213633567827987));
#657=CARTESIAN_POINT('',(0.,0.,0.));
#658=CARTESIAN_POINT('',(10.5554402742595,0.,0.));
#659=CARTESIAN_POINT('',(10.5554402742595,0.,-4.28163072172796));
#660=CARTESIAN_POINT('',(10.4820444154531,-5.02208007153878,0.463509184855902));
#661=CARTESIAN_POINT('',(0.,0.,0.));
#662=CARTESIAN_POINT('',(1.53105737887035,0.,0.));
#663=CARTESIAN_POINT('',(1.53105737887035,0.,-4.380915114601));
#664=CARTESIAN_POINT('',(10.5554402742595,-4.23163894513243,0.652375256492145));
#665=CARTESIAN_POINT('',(0.,0.,0.));
#666=CARTESIAN_POINT('',(0.706624432363682,0.,0.));
#667=CARTESIAN_POINT('',(0.706624432363682,0.,-4.86958805120079));
#668=CARTESIAN_POINT('',(1.53105737887035,-4.17885311056854,1.3151440687739));
#669=CARTESIAN_POINT('',(0.,0.,0.));
#670=CARTESIAN_POINT('',(0.70662443236368,-4.70785828524232,1.24457147423232));
#671=CARTESIAN_POINT('',(0.,0.,0.));
#672=(
GEOMETRIC_REPRESENTATION_CONTEXT(3)
GLOBAL_UNCERTAINTY_ASSIGNED_CONTEXT((#673))
GLOBAL_UNIT_ASSIGNED_CONTEXT((#679,#675,#674))
REPRESENTATION_CONTEXT('AEM90-AP1135-D20-W20-L150-Z03',
'TOP_LEVEL_ASSEMBLY_PART')
);
#673=UNCERTAINTY_MEASURE_WITH_UNIT(LENGTH_MEASURE(2.E-5),#679,
'DISTANCE_ACCURACY_VALUE','Maximum Tolerance applied to model');
#674=(
NAMED_UNIT(*)
SI_UNIT($,.STERADIAN.)
SOLID_ANGLE_UNIT()
);
#675=(
CONVERSION_BASED_UNIT('DEGREE',#677)
NAMED_UNIT(#676)
PLANE_ANGLE_UNIT()
);
#676=DIMENSIONAL_EXPONENTS(0.,0.,0.,0.,0.,0.,0.);
#677=PLANE_ANGLE_MEASURE_WITH_UNIT(PLANE_ANGLE_MEASURE(0.0174532925),#678);
#678=(
NAMED_UNIT(*)
PLANE_ANGLE_UNIT()
SI_UNIT($,.RADIAN.)
);
#679=(
LENGTH_UNIT()
NAMED_UNIT(*)
SI_UNIT(.MILLI.,.METRE.)
);
ENDSEC;
END-ISO-10303-21;
