ISO-10303-21;
HEADER;
/* Generated by software containing ST-Developer
 * from STEP Tools, Inc. (www.steptools.com) 
 */
/* OPTION: using custom schema-name function */

FILE_DESCRIPTION(
/* description */ (''),
/* implementation_level */ '2;1');

FILE_NAME(
/* name */ 'AEM90-AP1135A-D20-C20-L150-Z03_1.stp',
/* time_stamp */ '2023-10-11T02:01:48+03:00',
/* author */ (''),
/* organization */ (''),
/* preprocessor_version */ 'ST-DEVELOPER v19.4',
/* originating_system */ 'SIEMENS PLM Software NX2306.3001',
/* authorisation */ '');

FILE_SCHEMA (('AUTOMOTIVE_DESIGN { 1 0 10303 214 3 1 1 1 }'));
ENDSEC;

DATA;
#10=SHAPE_REPRESENTATION_RELATIONSHIP('None',
'relationship between AEM90-AP1135A-D20-C20-L150-Z03-None and AEM90-AP
1135A-D20-C20-L150-Z03-None',#22,#11);
#11=ADVANCED_BREP_SHAPE_REPRESENTATION(
'AEM90-AP1135A-D20-C20-L150-Z03-None',(#175,#176),#645);
#12=SHAPE_DEFINITION_REPRESENTATION(#13,#22);
#13=PRODUCT_DEFINITION_SHAPE('','',#14);
#14=PRODUCT_DEFINITION(' ','',#16,#15);
#15=PRODUCT_DEFINITION_CONTEXT('part definition',#21,'design');
#16=PRODUCT_DEFINITION_FORMATION_WITH_SPECIFIED_SOURCE(' ',' ',#18,
 .NOT_KNOWN.);
#17=PRODUCT_RELATED_PRODUCT_CATEGORY('part','',(#18));
#18=PRODUCT('AEM90-AP1135A-D20-C20-L150-Z03',
'AEM90-AP1135A-D20-C20-L150-Z03',' ',(#19));
#19=PRODUCT_CONTEXT(' ',#21,'mechanical');
#20=APPLICATION_PROTOCOL_DEFINITION('international standard',
'automotive_design',2010,#21);
#21=APPLICATION_CONTEXT(
'core data for automotive mechanical design processes');
#22=SHAPE_REPRESENTATION('AEM90-AP1135A-D20-C20-L150-Z03-None',(#426),#645);
#23=DRAUGHTING_PRE_DEFINED_COLOUR('yellow');
#24=SURFACE_OF_REVOLUTION('',#44,#34);
#25=SURFACE_OF_REVOLUTION('',#417,#35);
#26=SURFACE_OF_REVOLUTION('',#45,#36);
#27=SURFACE_OF_REVOLUTION('',#46,#37);
#28=SURFACE_OF_REVOLUTION('',#47,#38);
#29=SURFACE_OF_REVOLUTION('',#48,#39);
#30=SURFACE_OF_REVOLUTION('',#423,#40);
#31=SURFACE_OF_REVOLUTION('',#49,#41);
#32=SURFACE_OF_REVOLUTION('',#50,#42);
#33=SURFACE_OF_REVOLUTION('',#51,#43);
#34=AXIS1_PLACEMENT('',#610,#527);
#35=AXIS1_PLACEMENT('',#614,#532);
#36=AXIS1_PLACEMENT('',#618,#536);
#37=AXIS1_PLACEMENT('',#622,#540);
#38=AXIS1_PLACEMENT('',#626,#544);
#39=AXIS1_PLACEMENT('',#630,#548);
#40=AXIS1_PLACEMENT('',#634,#553);
#41=AXIS1_PLACEMENT('',#638,#557);
#42=AXIS1_PLACEMENT('',#642,#561);
#43=AXIS1_PLACEMENT('',#644,#563);
#44=LINE('',#609,#52);
#45=LINE('',#617,#53);
#46=LINE('',#621,#54);
#47=LINE('',#625,#55);
#48=LINE('',#629,#56);
#49=LINE('',#637,#57);
#50=LINE('',#641,#58);
#51=LINE('',#643,#59);
#52=VECTOR('',#526,1.18058154492087);
#53=VECTOR('',#535,9.03506736873705);
#54=VECTOR('',#539,1.29733290164094);
#55=VECTOR('',#543,3.59780993209805);
#56=VECTOR('',#547,1.18058154492087);
#57=VECTOR('',#556,9.03506736873706);
#58=VECTOR('',#560,1.29733367262693);
#59=VECTOR('',#562,3.59780934168813);
#60=OVER_RIDING_STYLED_ITEM('',(#78),#235,#75);
#61=OVER_RIDING_STYLED_ITEM('',(#79),#236,#75);
#62=OVER_RIDING_STYLED_ITEM('',(#80),#237,#75);
#63=OVER_RIDING_STYLED_ITEM('',(#81),#238,#75);
#64=OVER_RIDING_STYLED_ITEM('',(#82),#239,#75);
#65=OVER_RIDING_STYLED_ITEM('',(#83),#240,#75);
#66=OVER_RIDING_STYLED_ITEM('',(#84),#241,#75);
#67=OVER_RIDING_STYLED_ITEM('',(#85),#242,#75);
#68=OVER_RIDING_STYLED_ITEM('',(#86),#243,#75);
#69=OVER_RIDING_STYLED_ITEM('',(#87),#244,#75);
#70=OVER_RIDING_STYLED_ITEM('',(#88),#245,#75);
#71=OVER_RIDING_STYLED_ITEM('',(#89),#246,#75);
#72=OVER_RIDING_STYLED_ITEM('',(#90),#247,#75);
#73=OVER_RIDING_STYLED_ITEM('',(#91),#248,#75);
#74=PRESENTATION_LAYER_ASSIGNMENT('1','Layer 1',(#175,#176));
#75=STYLED_ITEM('',(#77),#175);
#76=STYLED_ITEM('',(#92),#176);
#77=PRESENTATION_STYLE_ASSIGNMENT((#93));
#78=PRESENTATION_STYLE_ASSIGNMENT((#94));
#79=PRESENTATION_STYLE_ASSIGNMENT((#95));
#80=PRESENTATION_STYLE_ASSIGNMENT((#96));
#81=PRESENTATION_STYLE_ASSIGNMENT((#97));
#82=PRESENTATION_STYLE_ASSIGNMENT((#98));
#83=PRESENTATION_STYLE_ASSIGNMENT((#99));
#84=PRESENTATION_STYLE_ASSIGNMENT((#100));
#85=PRESENTATION_STYLE_ASSIGNMENT((#101));
#86=PRESENTATION_STYLE_ASSIGNMENT((#102));
#87=PRESENTATION_STYLE_ASSIGNMENT((#103));
#88=PRESENTATION_STYLE_ASSIGNMENT((#104));
#89=PRESENTATION_STYLE_ASSIGNMENT((#105));
#90=PRESENTATION_STYLE_ASSIGNMENT((#106));
#91=PRESENTATION_STYLE_ASSIGNMENT((#107));
#92=PRESENTATION_STYLE_ASSIGNMENT((#108));
#93=SURFACE_STYLE_USAGE(.BOTH.,#109);
#94=SURFACE_STYLE_USAGE(.BOTH.,#110);
#95=SURFACE_STYLE_USAGE(.BOTH.,#111);
#96=SURFACE_STYLE_USAGE(.BOTH.,#112);
#97=SURFACE_STYLE_USAGE(.BOTH.,#113);
#98=SURFACE_STYLE_USAGE(.BOTH.,#114);
#99=SURFACE_STYLE_USAGE(.BOTH.,#115);
#100=SURFACE_STYLE_USAGE(.BOTH.,#116);
#101=SURFACE_STYLE_USAGE(.BOTH.,#117);
#102=SURFACE_STYLE_USAGE(.BOTH.,#118);
#103=SURFACE_STYLE_USAGE(.BOTH.,#119);
#104=SURFACE_STYLE_USAGE(.BOTH.,#120);
#105=SURFACE_STYLE_USAGE(.BOTH.,#121);
#106=SURFACE_STYLE_USAGE(.BOTH.,#122);
#107=SURFACE_STYLE_USAGE(.BOTH.,#123);
#108=SURFACE_STYLE_USAGE(.BOTH.,#124);
#109=SURFACE_SIDE_STYLE('',(#125));
#110=SURFACE_SIDE_STYLE('',(#126));
#111=SURFACE_SIDE_STYLE('',(#127));
#112=SURFACE_SIDE_STYLE('',(#128));
#113=SURFACE_SIDE_STYLE('',(#129));
#114=SURFACE_SIDE_STYLE('',(#130));
#115=SURFACE_SIDE_STYLE('',(#131));
#116=SURFACE_SIDE_STYLE('',(#132));
#117=SURFACE_SIDE_STYLE('',(#133));
#118=SURFACE_SIDE_STYLE('',(#134));
#119=SURFACE_SIDE_STYLE('',(#135));
#120=SURFACE_SIDE_STYLE('',(#136));
#121=SURFACE_SIDE_STYLE('',(#137));
#122=SURFACE_SIDE_STYLE('',(#138));
#123=SURFACE_SIDE_STYLE('',(#139));
#124=SURFACE_SIDE_STYLE('',(#140));
#125=SURFACE_STYLE_FILL_AREA(#141);
#126=SURFACE_STYLE_FILL_AREA(#142);
#127=SURFACE_STYLE_FILL_AREA(#143);
#128=SURFACE_STYLE_FILL_AREA(#144);
#129=SURFACE_STYLE_FILL_AREA(#145);
#130=SURFACE_STYLE_FILL_AREA(#146);
#131=SURFACE_STYLE_FILL_AREA(#147);
#132=SURFACE_STYLE_FILL_AREA(#148);
#133=SURFACE_STYLE_FILL_AREA(#149);
#134=SURFACE_STYLE_FILL_AREA(#150);
#135=SURFACE_STYLE_FILL_AREA(#151);
#136=SURFACE_STYLE_FILL_AREA(#152);
#137=SURFACE_STYLE_FILL_AREA(#153);
#138=SURFACE_STYLE_FILL_AREA(#154);
#139=SURFACE_STYLE_FILL_AREA(#155);
#140=SURFACE_STYLE_FILL_AREA(#156);
#141=FILL_AREA_STYLE('',(#157));
#142=FILL_AREA_STYLE('',(#158));
#143=FILL_AREA_STYLE('',(#159));
#144=FILL_AREA_STYLE('',(#160));
#145=FILL_AREA_STYLE('',(#161));
#146=FILL_AREA_STYLE('',(#162));
#147=FILL_AREA_STYLE('',(#163));
#148=FILL_AREA_STYLE('',(#164));
#149=FILL_AREA_STYLE('',(#165));
#150=FILL_AREA_STYLE('',(#166));
#151=FILL_AREA_STYLE('',(#167));
#152=FILL_AREA_STYLE('',(#168));
#153=FILL_AREA_STYLE('',(#169));
#154=FILL_AREA_STYLE('',(#170));
#155=FILL_AREA_STYLE('',(#171));
#156=FILL_AREA_STYLE('',(#172));
#157=FILL_AREA_STYLE_COLOUR('',#173);
#158=FILL_AREA_STYLE_COLOUR('',#174);
#159=FILL_AREA_STYLE_COLOUR('',#174);
#160=FILL_AREA_STYLE_COLOUR('',#174);
#161=FILL_AREA_STYLE_COLOUR('',#174);
#162=FILL_AREA_STYLE_COLOUR('',#174);
#163=FILL_AREA_STYLE_COLOUR('',#174);
#164=FILL_AREA_STYLE_COLOUR('',#174);
#165=FILL_AREA_STYLE_COLOUR('',#174);
#166=FILL_AREA_STYLE_COLOUR('',#174);
#167=FILL_AREA_STYLE_COLOUR('',#174);
#168=FILL_AREA_STYLE_COLOUR('',#174);
#169=FILL_AREA_STYLE_COLOUR('',#174);
#170=FILL_AREA_STYLE_COLOUR('',#174);
#171=FILL_AREA_STYLE_COLOUR('',#174);
#172=FILL_AREA_STYLE_COLOUR('',#23);
#173=COLOUR_RGB('Medium Steel',0.611764705882353,0.658823529411765,0.670588235294118);
#174=COLOUR_RGB('silver gray',0.6,0.6,0.6);
#175=MANIFOLD_SOLID_BREP('',#177);
#176=MANIFOLD_SOLID_BREP('',#178);
#177=CLOSED_SHELL('',(#235,#236,#237,#238,#239,#240,#241,#242,#243,#244,
#245,#246,#247,#248));
#178=CLOSED_SHELL('',(#249,#250,#251,#252,#253,#254,#255,#256,#257,#258));
#179=CYLINDRICAL_SURFACE('',#442,9.5);
#180=CYLINDRICAL_SURFACE('',#446,10.);
#181=CYLINDRICAL_SURFACE('',#450,9.75);
#182=CONICAL_SURFACE('',#432,5.50277232400355,70.0000000000003);
#183=CONICAL_SURFACE('',#436,7.85779119614507,89.);
#184=CONICAL_SURFACE('',#440,9.5,4.39999999999961);
#185=CONICAL_SURFACE('',#444,10.,29.9999999999999);
#186=CONICAL_SURFACE('',#448,9.75,10.);
#187=TOROIDAL_SURFACE('',#430,3.57367301929154,1.);
#188=TOROIDAL_SURFACE('',#434,5.84479246732921,1.);
#189=TOROIDAL_SURFACE('',#438,7.87524360258236,1.);
#190=TOROIDAL_SURFACE('',#452,8.75,1.);
#191=FACE_BOUND('',#264,.T.);
#192=FACE_BOUND('',#265,.T.);
#193=FACE_BOUND('',#266,.T.);
#194=FACE_BOUND('',#267,.T.);
#195=FACE_BOUND('',#268,.T.);
#196=FACE_BOUND('',#269,.T.);
#197=FACE_BOUND('',#270,.T.);
#198=FACE_BOUND('',#271,.T.);
#199=FACE_BOUND('',#272,.T.);
#200=FACE_BOUND('',#273,.T.);
#201=FACE_BOUND('',#274,.T.);
#202=FACE_BOUND('',#275,.T.);
#203=FACE_BOUND('',#276,.T.);
#204=FACE_BOUND('',#277,.T.);
#205=FACE_BOUND('',#278,.T.);
#206=FACE_BOUND('',#279,.T.);
#207=FACE_BOUND('',#280,.T.);
#208=FACE_BOUND('',#281,.T.);
#209=FACE_BOUND('',#282,.T.);
#210=FACE_BOUND('',#283,.T.);
#211=FACE_BOUND('',#284,.T.);
#212=FACE_BOUND('',#285,.T.);
#213=FACE_BOUND('',#286,.T.);
#214=FACE_BOUND('',#287,.T.);
#215=FACE_BOUND('',#289,.T.);
#216=FACE_BOUND('',#290,.T.);
#217=FACE_BOUND('',#291,.T.);
#218=FACE_BOUND('',#292,.T.);
#219=FACE_BOUND('',#293,.T.);
#220=FACE_BOUND('',#294,.T.);
#221=FACE_BOUND('',#295,.T.);
#222=FACE_BOUND('',#296,.T.);
#223=FACE_BOUND('',#297,.T.);
#224=FACE_BOUND('',#298,.T.);
#225=FACE_BOUND('',#299,.T.);
#226=FACE_BOUND('',#300,.T.);
#227=FACE_BOUND('',#301,.T.);
#228=FACE_BOUND('',#302,.T.);
#229=FACE_BOUND('',#303,.T.);
#230=FACE_BOUND('',#304,.T.);
#231=FACE_BOUND('',#305,.T.);
#232=FACE_BOUND('',#306,.T.);
#233=FACE_BOUND('',#307,.T.);
#234=FACE_BOUND('',#308,.T.);
#235=ADVANCED_FACE('',(#261),#259,.F.);
#236=ADVANCED_FACE('',(#191,#192),#187,.F.);
#237=ADVANCED_FACE('',(#193,#194),#182,.F.);
#238=ADVANCED_FACE('',(#195,#196),#188,.T.);
#239=ADVANCED_FACE('',(#197,#198),#183,.F.);
#240=ADVANCED_FACE('',(#199,#200),#189,.T.);
#241=ADVANCED_FACE('',(#201,#202),#184,.T.);
#242=ADVANCED_FACE('',(#203,#204),#179,.T.);
#243=ADVANCED_FACE('',(#205,#206),#185,.T.);
#244=ADVANCED_FACE('',(#207,#208),#180,.T.);
#245=ADVANCED_FACE('',(#209,#210),#186,.T.);
#246=ADVANCED_FACE('',(#211,#212),#181,.T.);
#247=ADVANCED_FACE('',(#213,#214),#190,.T.);
#248=ADVANCED_FACE('',(#262),#260,.F.);
#249=ADVANCED_FACE('',(#215,#216),#24,.T.);
#250=ADVANCED_FACE('',(#217,#218),#25,.T.);
#251=ADVANCED_FACE('',(#219,#220),#26,.T.);
#252=ADVANCED_FACE('',(#221,#222),#27,.T.);
#253=ADVANCED_FACE('',(#223,#224),#28,.T.);
#254=ADVANCED_FACE('',(#225,#226),#29,.T.);
#255=ADVANCED_FACE('',(#227,#228),#30,.T.);
#256=ADVANCED_FACE('',(#229,#230),#31,.T.);
#257=ADVANCED_FACE('',(#231,#232),#32,.T.);
#258=ADVANCED_FACE('',(#233,#234),#33,.T.);
#259=PLANE('',#428);
#260=PLANE('',#453);
#261=FACE_OUTER_BOUND('',#263,.T.);
#262=FACE_OUTER_BOUND('',#288,.T.);
#263=EDGE_LOOP('',(#309));
#264=EDGE_LOOP('',(#310));
#265=EDGE_LOOP('',(#311));
#266=EDGE_LOOP('',(#312));
#267=EDGE_LOOP('',(#313));
#268=EDGE_LOOP('',(#314));
#269=EDGE_LOOP('',(#315));
#270=EDGE_LOOP('',(#316));
#271=EDGE_LOOP('',(#317));
#272=EDGE_LOOP('',(#318));
#273=EDGE_LOOP('',(#319));
#274=EDGE_LOOP('',(#320));
#275=EDGE_LOOP('',(#321));
#276=EDGE_LOOP('',(#322));
#277=EDGE_LOOP('',(#323));
#278=EDGE_LOOP('',(#324));
#279=EDGE_LOOP('',(#325));
#280=EDGE_LOOP('',(#326));
#281=EDGE_LOOP('',(#327));
#282=EDGE_LOOP('',(#328));
#283=EDGE_LOOP('',(#329));
#284=EDGE_LOOP('',(#330));
#285=EDGE_LOOP('',(#331));
#286=EDGE_LOOP('',(#332));
#287=EDGE_LOOP('',(#333));
#288=EDGE_LOOP('',(#334));
#289=EDGE_LOOP('',(#335));
#290=EDGE_LOOP('',(#336));
#291=EDGE_LOOP('',(#337));
#292=EDGE_LOOP('',(#338));
#293=EDGE_LOOP('',(#339));
#294=EDGE_LOOP('',(#340));
#295=EDGE_LOOP('',(#341));
#296=EDGE_LOOP('',(#342));
#297=EDGE_LOOP('',(#343));
#298=EDGE_LOOP('',(#344));
#299=EDGE_LOOP('',(#345));
#300=EDGE_LOOP('',(#346));
#301=EDGE_LOOP('',(#347));
#302=EDGE_LOOP('',(#348));
#303=EDGE_LOOP('',(#349));
#304=EDGE_LOOP('',(#350));
#305=EDGE_LOOP('',(#351));
#306=EDGE_LOOP('',(#352));
#307=EDGE_LOOP('',(#353));
#308=EDGE_LOOP('',(#354));
#309=ORIENTED_EDGE('',*,*,#378,.T.);
#310=ORIENTED_EDGE('',*,*,#378,.F.);
#311=ORIENTED_EDGE('',*,*,#379,.T.);
#312=ORIENTED_EDGE('',*,*,#379,.F.);
#313=ORIENTED_EDGE('',*,*,#380,.T.);
#314=ORIENTED_EDGE('',*,*,#380,.F.);
#315=ORIENTED_EDGE('',*,*,#381,.T.);
#316=ORIENTED_EDGE('',*,*,#381,.F.);
#317=ORIENTED_EDGE('',*,*,#382,.T.);
#318=ORIENTED_EDGE('',*,*,#382,.F.);
#319=ORIENTED_EDGE('',*,*,#383,.T.);
#320=ORIENTED_EDGE('',*,*,#383,.F.);
#321=ORIENTED_EDGE('',*,*,#384,.T.);
#322=ORIENTED_EDGE('',*,*,#384,.F.);
#323=ORIENTED_EDGE('',*,*,#385,.T.);
#324=ORIENTED_EDGE('',*,*,#385,.F.);
#325=ORIENTED_EDGE('',*,*,#386,.T.);
#326=ORIENTED_EDGE('',*,*,#386,.F.);
#327=ORIENTED_EDGE('',*,*,#387,.T.);
#328=ORIENTED_EDGE('',*,*,#387,.F.);
#329=ORIENTED_EDGE('',*,*,#388,.T.);
#330=ORIENTED_EDGE('',*,*,#388,.F.);
#331=ORIENTED_EDGE('',*,*,#389,.T.);
#332=ORIENTED_EDGE('',*,*,#389,.F.);
#333=ORIENTED_EDGE('',*,*,#390,.T.);
#334=ORIENTED_EDGE('',*,*,#390,.F.);
#335=ORIENTED_EDGE('',*,*,#391,.F.);
#336=ORIENTED_EDGE('',*,*,#392,.T.);
#337=ORIENTED_EDGE('',*,*,#393,.F.);
#338=ORIENTED_EDGE('',*,*,#391,.T.);
#339=ORIENTED_EDGE('',*,*,#394,.F.);
#340=ORIENTED_EDGE('',*,*,#393,.T.);
#341=ORIENTED_EDGE('',*,*,#395,.F.);
#342=ORIENTED_EDGE('',*,*,#394,.T.);
#343=ORIENTED_EDGE('',*,*,#396,.F.);
#344=ORIENTED_EDGE('',*,*,#395,.T.);
#345=ORIENTED_EDGE('',*,*,#397,.F.);
#346=ORIENTED_EDGE('',*,*,#396,.T.);
#347=ORIENTED_EDGE('',*,*,#398,.F.);
#348=ORIENTED_EDGE('',*,*,#397,.T.);
#349=ORIENTED_EDGE('',*,*,#399,.F.);
#350=ORIENTED_EDGE('',*,*,#398,.T.);
#351=ORIENTED_EDGE('',*,*,#400,.F.);
#352=ORIENTED_EDGE('',*,*,#399,.T.);
#353=ORIENTED_EDGE('',*,*,#392,.F.);
#354=ORIENTED_EDGE('',*,*,#400,.T.);
#355=VERTEX_POINT('',#566);
#356=VERTEX_POINT('',#569);
#357=VERTEX_POINT('',#572);
#358=VERTEX_POINT('',#575);
#359=VERTEX_POINT('',#578);
#360=VERTEX_POINT('',#581);
#361=VERTEX_POINT('',#584);
#362=VERTEX_POINT('',#587);
#363=VERTEX_POINT('',#590);
#364=VERTEX_POINT('',#593);
#365=VERTEX_POINT('',#596);
#366=VERTEX_POINT('',#599);
#367=VERTEX_POINT('',#602);
#368=VERTEX_POINT('',#606);
#369=VERTEX_POINT('',#608);
#370=VERTEX_POINT('',#612);
#371=VERTEX_POINT('',#616);
#372=VERTEX_POINT('',#620);
#373=VERTEX_POINT('',#624);
#374=VERTEX_POINT('',#628);
#375=VERTEX_POINT('',#632);
#376=VERTEX_POINT('',#636);
#377=VERTEX_POINT('',#640);
#378=EDGE_CURVE('',#355,#355,#401,.T.);
#379=EDGE_CURVE('',#356,#356,#402,.T.);
#380=EDGE_CURVE('',#357,#357,#403,.T.);
#381=EDGE_CURVE('',#358,#358,#404,.T.);
#382=EDGE_CURVE('',#359,#359,#405,.T.);
#383=EDGE_CURVE('',#360,#360,#406,.T.);
#384=EDGE_CURVE('',#361,#361,#407,.T.);
#385=EDGE_CURVE('',#362,#362,#408,.T.);
#386=EDGE_CURVE('',#363,#363,#409,.T.);
#387=EDGE_CURVE('',#364,#364,#410,.T.);
#388=EDGE_CURVE('',#365,#365,#411,.T.);
#389=EDGE_CURVE('',#366,#366,#412,.T.);
#390=EDGE_CURVE('',#367,#367,#413,.T.);
#391=EDGE_CURVE('',#368,#368,#414,.T.);
#392=EDGE_CURVE('',#369,#369,#415,.T.);
#393=EDGE_CURVE('',#370,#370,#416,.T.);
#394=EDGE_CURVE('',#371,#371,#418,.T.);
#395=EDGE_CURVE('',#372,#372,#419,.T.);
#396=EDGE_CURVE('',#373,#373,#420,.T.);
#397=EDGE_CURVE('',#374,#374,#421,.T.);
#398=EDGE_CURVE('',#375,#375,#422,.T.);
#399=EDGE_CURVE('',#376,#376,#424,.T.);
#400=EDGE_CURVE('',#377,#377,#425,.T.);
#401=CIRCLE('',#427,3.57367301929154);
#402=CIRCLE('',#429,3.9156931626172);
#403=CIRCLE('',#431,5.50277232400355);
#404=CIRCLE('',#433,5.82734006089193);
#405=CIRCLE('',#435,7.85779119614507);
#406=CIRCLE('',#437,8.87229635480928);
#407=CIRCLE('',#439,9.5);
#408=CIRCLE('',#441,9.5);
#409=CIRCLE('',#443,10.);
#410=CIRCLE('',#445,10.);
#411=CIRCLE('',#447,9.75);
#412=CIRCLE('',#449,9.75);
#413=CIRCLE('',#451,8.75);
#414=CIRCLE('',#454,9.27478879409737);
#415=CIRCLE('',#455,8.16221260627908);
#416=CIRCLE('',#456,9.99984474855489);
#417=CIRCLE('',#457,0.8);
#418=CIRCLE('',#458,10.0731871230831);
#419=CIRCLE('',#459,9.37444715062617);
#420=CIRCLE('',#460,5.90233671180576);
#421=CIRCLE('',#461,4.78431593728534);
#422=CIRCLE('',#462,4.09471225278896);
#423=CIRCLE('',#463,0.8);
#424=CIRCLE('',#464,4.34389489366204);
#425=CIRCLE('',#465,4.96537477488553);
#426=AXIS2_PLACEMENT_3D('',#564,#466,#467);
#427=AXIS2_PLACEMENT_3D('',#565,#468,#469);
#428=AXIS2_PLACEMENT_3D('',#567,#470,#471);
#429=AXIS2_PLACEMENT_3D('',#568,#472,#473);
#430=AXIS2_PLACEMENT_3D('',#570,#474,#475);
#431=AXIS2_PLACEMENT_3D('',#571,#476,#477);
#432=AXIS2_PLACEMENT_3D('',#573,#478,#479);
#433=AXIS2_PLACEMENT_3D('',#574,#480,#481);
#434=AXIS2_PLACEMENT_3D('',#576,#482,#483);
#435=AXIS2_PLACEMENT_3D('',#577,#484,#485);
#436=AXIS2_PLACEMENT_3D('',#579,#486,#487);
#437=AXIS2_PLACEMENT_3D('',#580,#488,#489);
#438=AXIS2_PLACEMENT_3D('',#582,#490,#491);
#439=AXIS2_PLACEMENT_3D('',#583,#492,#493);
#440=AXIS2_PLACEMENT_3D('',#585,#494,#495);
#441=AXIS2_PLACEMENT_3D('',#586,#496,#497);
#442=AXIS2_PLACEMENT_3D('',#588,#498,#499);
#443=AXIS2_PLACEMENT_3D('',#589,#500,#501);
#444=AXIS2_PLACEMENT_3D('',#591,#502,#503);
#445=AXIS2_PLACEMENT_3D('',#592,#504,#505);
#446=AXIS2_PLACEMENT_3D('',#594,#506,#507);
#447=AXIS2_PLACEMENT_3D('',#595,#508,#509);
#448=AXIS2_PLACEMENT_3D('',#597,#510,#511);
#449=AXIS2_PLACEMENT_3D('',#598,#512,#513);
#450=AXIS2_PLACEMENT_3D('',#600,#514,#515);
#451=AXIS2_PLACEMENT_3D('',#601,#516,#517);
#452=AXIS2_PLACEMENT_3D('',#603,#518,#519);
#453=AXIS2_PLACEMENT_3D('',#604,#520,#521);
#454=AXIS2_PLACEMENT_3D('',#605,#522,#523);
#455=AXIS2_PLACEMENT_3D('',#607,#524,#525);
#456=AXIS2_PLACEMENT_3D('',#611,#528,#529);
#457=AXIS2_PLACEMENT_3D('',#613,#530,#531);
#458=AXIS2_PLACEMENT_3D('',#615,#533,#534);
#459=AXIS2_PLACEMENT_3D('',#619,#537,#538);
#460=AXIS2_PLACEMENT_3D('',#623,#541,#542);
#461=AXIS2_PLACEMENT_3D('',#627,#545,#546);
#462=AXIS2_PLACEMENT_3D('',#631,#549,#550);
#463=AXIS2_PLACEMENT_3D('',#633,#551,#552);
#464=AXIS2_PLACEMENT_3D('',#635,#554,#555);
#465=AXIS2_PLACEMENT_3D('',#639,#558,#559);
#466=DIRECTION('',(0.,0.,1.));
#467=DIRECTION('',(1.,0.,0.));
#468=DIRECTION('',(-1.,0.,0.));
#469=DIRECTION('',(0.,0.,1.));
#470=DIRECTION('',(1.,0.,0.));
#471=DIRECTION('',(0.,0.,-1.));
#472=DIRECTION('',(-1.,0.,0.));
#473=DIRECTION('',(0.,0.,1.));
#474=DIRECTION('',(-1.,0.,0.));
#475=DIRECTION('',(0.,0.,1.));
#476=DIRECTION('',(-1.,0.,0.));
#477=DIRECTION('',(0.,0.,1.));
#478=DIRECTION('',(-1.,0.,0.));
#479=DIRECTION('',(-1.66589472866879E-17,0.,1.));
#480=DIRECTION('',(-1.,0.,0.));
#481=DIRECTION('',(0.,0.,1.));
#482=DIRECTION('',(-1.,0.,0.));
#483=DIRECTION('',(0.,0.,1.));
#484=DIRECTION('',(-1.,0.,0.));
#485=DIRECTION('',(0.,0.,1.));
#486=DIRECTION('',(-1.,0.,0.));
#487=DIRECTION('',(-2.19497798131088E-19,0.,1.));
#488=DIRECTION('',(-1.,0.,0.));
#489=DIRECTION('',(0.,0.,1.));
#490=DIRECTION('',(-1.,0.,0.));
#491=DIRECTION('',(0.,0.,1.));
#492=DIRECTION('',(-1.,0.,0.));
#493=DIRECTION('',(0.,0.,1.));
#494=DIRECTION('',(1.,0.,0.));
#495=DIRECTION('',(1.20403074240891E-16,0.,-1.));
#496=DIRECTION('',(-1.,0.,0.));
#497=DIRECTION('',(0.,0.,1.));
#498=DIRECTION('',(-1.,0.,0.));
#499=DIRECTION('',(0.,0.,1.));
#500=DIRECTION('',(-1.,0.,0.));
#501=DIRECTION('',(0.,0.,1.));
#502=DIRECTION('',(1.,0.,0.));
#503=DIRECTION('',(7.08833648461344E-17,0.,-1.));
#504=DIRECTION('',(-1.,0.,0.));
#505=DIRECTION('',(0.,0.,1.));
#506=DIRECTION('',(-1.,0.,0.));
#507=DIRECTION('',(0.,0.,1.));
#508=DIRECTION('',(-1.,0.,0.));
#509=DIRECTION('',(0.,0.,1.));
#510=DIRECTION('',(-1.,0.,0.));
#511=DIRECTION('',(1.49161790512469E-16,0.,1.));
#512=DIRECTION('',(-1.,0.,0.));
#513=DIRECTION('',(0.,0.,1.));
#514=DIRECTION('',(-1.,0.,0.));
#515=DIRECTION('',(0.,0.,1.));
#516=DIRECTION('',(-1.,0.,0.));
#517=DIRECTION('',(0.,0.,1.));
#518=DIRECTION('',(-1.,0.,0.));
#519=DIRECTION('',(0.,0.,1.));
#520=DIRECTION('',(-1.,0.,0.));
#521=DIRECTION('',(0.,0.,1.));
#522=DIRECTION('',(1.,0.,0.));
#523=DIRECTION('',(0.,0.,-1.));
#524=DIRECTION('',(1.,0.,0.));
#525=DIRECTION('',(0.,0.,-1.));
#526=DIRECTION('',(0.019092276801559,-0.95656308107156,-0.290899564966015));
#527=DIRECTION('',(1.,0.,0.));
#528=DIRECTION('',(1.,0.,0.));
#529=DIRECTION('',(0.,0.,-1.));
#530=DIRECTION('',(0.104528463267654,-0.287448450518915,0.952075201158594));
#531=DIRECTION('',(-0.9932482680478,0.0182602492470484,0.114561954057534));
#532=DIRECTION('',(1.,0.,0.));
#533=DIRECTION('',(1.,0.,0.));
#534=DIRECTION('',(0.,0.,-1.));
#535=DIRECTION('',(0.99396713915037,-0.00177573124217024,-0.109663909595564));
#536=DIRECTION('',(1.,0.,0.));
#537=DIRECTION('',(1.,0.,0.));
#538=DIRECTION('',(0.,0.,-1.));
#539=DIRECTION('',(0.842481347540054,0.534311437394754,0.0688219944221794));
#540=DIRECTION('',(1.,0.,0.));
#541=DIRECTION('',(1.,0.,0.));
#542=DIRECTION('',(0.,0.,-1.));
#543=DIRECTION('',(0.152878389601324,0.950585365004625,0.270214103688036));
#544=DIRECTION('',(1.,0.,0.));
#545=DIRECTION('',(1.,0.,0.));
#546=DIRECTION('',(0.,0.,-1.));
#547=DIRECTION('',(-0.0190922768015588,0.95656308107156,0.290899564966015));
#548=DIRECTION('',(1.,0.,0.));
#549=DIRECTION('',(1.,0.,0.));
#550=DIRECTION('',(0.,0.,-1.));
#551=DIRECTION('',(0.104528463267654,-0.287448450518915,0.952075201158594));
#552=DIRECTION('',(0.9932482680478,-0.0182602492470479,-0.114561954057534));
#553=DIRECTION('',(1.,0.,0.));
#554=DIRECTION('',(1.,0.,0.));
#555=DIRECTION('',(0.,0.,-1.));
#556=DIRECTION('',(-0.99396713915037,0.00177573124217014,0.109663909595564));
#557=DIRECTION('',(1.,0.,0.));
#558=DIRECTION('',(1.,0.,0.));
#559=DIRECTION('',(0.,0.,-1.));
#560=DIRECTION('',(-0.84248130160253,-0.534311506490574,-0.0688220203269246));
#561=DIRECTION('',(1.,0.,0.));
#562=DIRECTION('',(-0.15287825071567,-0.950585381583622,-0.270214123941805));
#563=DIRECTION('',(1.,0.,0.));
#564=CARTESIAN_POINT('',(0.,0.,0.));
#565=CARTESIAN_POINT('',(1.5,0.,0.));
#566=CARTESIAN_POINT('',(1.5,0.,3.57367301929154));
#567=CARTESIAN_POINT('',(1.5,0.,0.));
#568=CARTESIAN_POINT('',(1.43969262078591,0.,0.));
#569=CARTESIAN_POINT('',(1.43969262078591,0.,3.9156931626172));
#570=CARTESIAN_POINT('',(0.5,0.,0.));
#571=CARTESIAN_POINT('',(0.862043046617124,0.,0.));
#572=CARTESIAN_POINT('',(0.862043046617124,0.,5.50277232400355));
#573=CARTESIAN_POINT('',(0.862043046617124,0.,0.));
#574=CARTESIAN_POINT('',(0.801887972246643,0.,0.));
#575=CARTESIAN_POINT('',(0.801887972246643,0.,5.82734006089193));
#576=CARTESIAN_POINT('',(1.80173566740303,0.,0.));
#577=CARTESIAN_POINT('',(0.766446315847226,0.,0.));
#578=CARTESIAN_POINT('',(0.766446315847226,0.,7.85779119614507));
#579=CARTESIAN_POINT('',(0.766446315847226,0.,0.));
#580=CARTESIAN_POINT('',(1.6895749828768,0.,0.));
#581=CARTESIAN_POINT('',(1.6895749828768,0.,8.87229635480928));
#582=CARTESIAN_POINT('',(1.76629401100361,0.,0.));
#583=CARTESIAN_POINT('',(9.84731188728304,0.,0.));
#584=CARTESIAN_POINT('',(9.84731188728304,0.,9.5));
#585=CARTESIAN_POINT('',(9.84731188728304,0.,0.));
#586=CARTESIAN_POINT('',(49.1339745962156,0.,0.));
#587=CARTESIAN_POINT('',(49.1339745962156,0.,9.5));
#588=CARTESIAN_POINT('',(0.,0.,0.));
#589=CARTESIAN_POINT('',(50.,0.,0.));
#590=CARTESIAN_POINT('',(50.,0.,10.));
#591=CARTESIAN_POINT('',(50.,0.,0.));
#592=CARTESIAN_POINT('',(144.582179545096,0.,0.));
#593=CARTESIAN_POINT('',(144.582179545096,0.,10.));
#594=CARTESIAN_POINT('',(0.,0.,0.));
#595=CARTESIAN_POINT('',(146.,0.,0.));
#596=CARTESIAN_POINT('',(146.,0.,9.75));
#597=CARTESIAN_POINT('',(146.,0.,0.));
#598=CARTESIAN_POINT('',(149.,0.,0.));
#599=CARTESIAN_POINT('',(149.,0.,9.75));
#600=CARTESIAN_POINT('',(0.,0.,0.));
#601=CARTESIAN_POINT('',(150.,0.,0.));
#602=CARTESIAN_POINT('',(150.,0.,8.75));
#603=CARTESIAN_POINT('',(149.,0.,0.));
#604=CARTESIAN_POINT('',(150.,8.75,0.));
#605=CARTESIAN_POINT('',(-0.014243068916936,0.,0.));
#606=CARTESIAN_POINT('',(-0.014243068916936,0.,-9.27478879409737));
#607=CARTESIAN_POINT('',(-0.0367830585593775,0.,0.));
#608=CARTESIAN_POINT('',(-0.0367830585593775,0.,-8.16221260627908));
#609=CARTESIAN_POINT('',(-0.0367830585593775,-8.14294883678103,0.56044524412974));
#610=CARTESIAN_POINT('',(0.,0.,0.));
#611=CARTESIAN_POINT('',(0.740975195387746,0.,0.));
#612=CARTESIAN_POINT('',(0.740975195387746,0.,-9.99984474855489));
#613=CARTESIAN_POINT('',(0.781227824713624,-9.23338190263274,0.141414567505753));
#614=CARTESIAN_POINT('',(0.,0.,0.));
#615=CARTESIAN_POINT('',(9.72153525992218,0.,0.));
#616=CARTESIAN_POINT('',(9.72153525992218,0.,-10.0731871230831));
#617=CARTESIAN_POINT('',(0.740975195387746,-9.9994795263196,-0.0854646003648483));
#618=CARTESIAN_POINT('',(0.,0.,0.));
#619=CARTESIAN_POINT('',(10.8145140311047,0.,0.));
#620=CARTESIAN_POINT('',(10.8145140311047,0.,-9.37444715062617));
#621=CARTESIAN_POINT('',(9.72153525992218,-10.0155233777214,-1.07628541147986));
#622=CARTESIAN_POINT('',(0.,0.,0.));
#623=CARTESIAN_POINT('',(11.3645414196155,0.,0.));
#624=CARTESIAN_POINT('',(11.3645414196155,0.,-5.90233671180576));
#625=CARTESIAN_POINT('',(10.8145140311047,-9.3223435702661,-0.987000373759414));
#626=CARTESIAN_POINT('',(0.,0.,0.));
#627=CARTESIAN_POINT('',(11.342001429973,0.,0.));
#628=CARTESIAN_POINT('',(11.342001429973,0.,-4.78431593728534));
#629=CARTESIAN_POINT('',(11.3645414196155,-5.90231810274541,-0.0148213877176246));
#630=CARTESIAN_POINT('',(0.,0.,0.));
#631=CARTESIAN_POINT('',(10.5867831656684,0.,0.));
#632=CARTESIAN_POINT('',(10.5867831656684,0.,-4.09471225278896));
#633=CARTESIAN_POINT('',(10.5465305363425,-4.81188503689372,0.404209288906354));
#634=CARTESIAN_POINT('',(0.,0.,0.));
#635=CARTESIAN_POINT('',(1.60622310113393,0.,0.));
#636=CARTESIAN_POINT('',(1.60622310113393,0.,-4.34389489366204));
#637=CARTESIAN_POINT('',(10.5867831656684,-4.04578741320683,0.631088456776965));
#638=CARTESIAN_POINT('',(0.,0.,0.));
#639=CARTESIAN_POINT('',(0.513243740006397,0.,0.));
#640=CARTESIAN_POINT('',(0.513243740006397,0.,-4.96537477488553));
#641=CARTESIAN_POINT('',(1.60622310113393,-4.02974356180505,1.62190926789197));
#642=CARTESIAN_POINT('',(0.,0.,0.));
#643=CARTESIAN_POINT('',(0.513243740006397,-4.7229238708473,1.53262414350364));
#644=CARTESIAN_POINT('',(0.,0.,0.));
#645=(
GEOMETRIC_REPRESENTATION_CONTEXT(3)
GLOBAL_UNCERTAINTY_ASSIGNED_CONTEXT((#646))
GLOBAL_UNIT_ASSIGNED_CONTEXT((#652,#648,#647))
REPRESENTATION_CONTEXT('AEM90-AP1135A-D20-C20-L150-Z03_1',
'TOP_LEVEL_ASSEMBLY_PART')
);
#646=UNCERTAINTY_MEASURE_WITH_UNIT(LENGTH_MEASURE(2.E-5),#652,
'DISTANCE_ACCURACY_VALUE','Maximum Tolerance applied to model');
#647=(
NAMED_UNIT(*)
SI_UNIT($,.STERADIAN.)
SOLID_ANGLE_UNIT()
);
#648=(
CONVERSION_BASED_UNIT('DEGREE',#650)
NAMED_UNIT(#649)
PLANE_ANGLE_UNIT()
);
#649=DIMENSIONAL_EXPONENTS(0.,0.,0.,0.,0.,0.,0.);
#650=PLANE_ANGLE_MEASURE_WITH_UNIT(PLANE_ANGLE_MEASURE(0.0174532925),#651);
#651=(
NAMED_UNIT(*)
PLANE_ANGLE_UNIT()
SI_UNIT($,.RADIAN.)
);
#652=(
LENGTH_UNIT()
NAMED_UNIT(*)
SI_UNIT(.MILLI.,.METRE.)
);
ENDSEC;
END-ISO-10303-21;
