ISO-10303-21;
HEADER;
/* Generated by software containing ST-Developer
 * from STEP Tools, Inc. (www.steptools.com) 
 */
/* OPTION: using custom schema-name function */

FILE_DESCRIPTION(
/* description */ (''),
/* implementation_level */ '2;1');

FILE_NAME(
/* name */ 'AEM90-AP1135Y-D21-C20-L150-Z03.stp',
/* time_stamp */ '2023-10-13T01:40:04+03:00',
/* author */ (''),
/* organization */ (''),
/* preprocessor_version */ 'ST-DEVELOPER v19.4',
/* originating_system */ 'SIEMENS PLM Software NX2306.3001',
/* authorisation */ '');

FILE_SCHEMA (('AUTOMOTIVE_DESIGN { 1 0 10303 214 3 1 1 1 }'));
ENDSEC;

DATA;
#10=SHAPE_REPRESENTATION_RELATIONSHIP('None',
'relationship between AEM90-AP1135Y-D21-C20-L150-Z03-None and AEM90-AP
1135Y-D21-C20-L150-Z03-None',#22,#11);
#11=ADVANCED_BREP_SHAPE_REPRESENTATION(
'AEM90-AP1135Y-D21-C20-L150-Z03-None',(#161,#162),#591);
#12=SHAPE_DEFINITION_REPRESENTATION(#13,#22);
#13=PRODUCT_DEFINITION_SHAPE('','',#14);
#14=PRODUCT_DEFINITION(' ','',#16,#15);
#15=PRODUCT_DEFINITION_CONTEXT('part definition',#21,'design');
#16=PRODUCT_DEFINITION_FORMATION_WITH_SPECIFIED_SOURCE(' ',' ',#18,
 .NOT_KNOWN.);
#17=PRODUCT_RELATED_PRODUCT_CATEGORY('part','',(#18));
#18=PRODUCT('AEM90-AP1135Y-D21-C20-L150-Z03',
'AEM90-AP1135Y-D21-C20-L150-Z03',' ',(#19));
#19=PRODUCT_CONTEXT(' ',#21,'mechanical');
#20=APPLICATION_PROTOCOL_DEFINITION('international standard',
'automotive_design',2010,#21);
#21=APPLICATION_CONTEXT(
'core data for automotive mechanical design processes');
#22=SHAPE_REPRESENTATION('AEM90-AP1135Y-D21-C20-L150-Z03-None',(#390),#591);
#23=DRAUGHTING_PRE_DEFINED_COLOUR('yellow');
#24=SURFACE_OF_REVOLUTION('',#44,#34);
#25=SURFACE_OF_REVOLUTION('',#381,#35);
#26=SURFACE_OF_REVOLUTION('',#45,#36);
#27=SURFACE_OF_REVOLUTION('',#46,#37);
#28=SURFACE_OF_REVOLUTION('',#47,#38);
#29=SURFACE_OF_REVOLUTION('',#48,#39);
#30=SURFACE_OF_REVOLUTION('',#387,#40);
#31=SURFACE_OF_REVOLUTION('',#49,#41);
#32=SURFACE_OF_REVOLUTION('',#50,#42);
#33=SURFACE_OF_REVOLUTION('',#51,#43);
#34=AXIS1_PLACEMENT('',#556,#479);
#35=AXIS1_PLACEMENT('',#560,#484);
#36=AXIS1_PLACEMENT('',#564,#488);
#37=AXIS1_PLACEMENT('',#568,#492);
#38=AXIS1_PLACEMENT('',#572,#496);
#39=AXIS1_PLACEMENT('',#576,#500);
#40=AXIS1_PLACEMENT('',#580,#505);
#41=AXIS1_PLACEMENT('',#584,#509);
#42=AXIS1_PLACEMENT('',#588,#513);
#43=AXIS1_PLACEMENT('',#590,#515);
#44=LINE('',#555,#52);
#45=LINE('',#563,#53);
#46=LINE('',#567,#54);
#47=LINE('',#571,#55);
#48=LINE('',#575,#56);
#49=LINE('',#583,#57);
#50=LINE('',#587,#58);
#51=LINE('',#589,#59);
#52=VECTOR('',#478,1.18058154492086);
#53=VECTOR('',#487,9.03506736873706);
#54=VECTOR('',#491,1.29733290164095);
#55=VECTOR('',#495,3.59780993209805);
#56=VECTOR('',#499,1.18058154492086);
#57=VECTOR('',#508,9.03506736873707);
#58=VECTOR('',#512,1.29733367262694);
#59=VECTOR('',#514,3.59780934168813);
#60=OVER_RIDING_STYLED_ITEM('',(#76),#215,#73);
#61=OVER_RIDING_STYLED_ITEM('',(#77),#216,#73);
#62=OVER_RIDING_STYLED_ITEM('',(#78),#217,#73);
#63=OVER_RIDING_STYLED_ITEM('',(#79),#218,#73);
#64=OVER_RIDING_STYLED_ITEM('',(#80),#219,#73);
#65=OVER_RIDING_STYLED_ITEM('',(#81),#220,#73);
#66=OVER_RIDING_STYLED_ITEM('',(#82),#221,#73);
#67=OVER_RIDING_STYLED_ITEM('',(#83),#222,#73);
#68=OVER_RIDING_STYLED_ITEM('',(#84),#223,#73);
#69=OVER_RIDING_STYLED_ITEM('',(#85),#224,#73);
#70=OVER_RIDING_STYLED_ITEM('',(#86),#225,#73);
#71=OVER_RIDING_STYLED_ITEM('',(#87),#226,#73);
#72=PRESENTATION_LAYER_ASSIGNMENT('1','Layer 1',(#161,#162));
#73=STYLED_ITEM('',(#75),#161);
#74=STYLED_ITEM('',(#88),#162);
#75=PRESENTATION_STYLE_ASSIGNMENT((#89));
#76=PRESENTATION_STYLE_ASSIGNMENT((#90));
#77=PRESENTATION_STYLE_ASSIGNMENT((#91));
#78=PRESENTATION_STYLE_ASSIGNMENT((#92));
#79=PRESENTATION_STYLE_ASSIGNMENT((#93));
#80=PRESENTATION_STYLE_ASSIGNMENT((#94));
#81=PRESENTATION_STYLE_ASSIGNMENT((#95));
#82=PRESENTATION_STYLE_ASSIGNMENT((#96));
#83=PRESENTATION_STYLE_ASSIGNMENT((#97));
#84=PRESENTATION_STYLE_ASSIGNMENT((#98));
#85=PRESENTATION_STYLE_ASSIGNMENT((#99));
#86=PRESENTATION_STYLE_ASSIGNMENT((#100));
#87=PRESENTATION_STYLE_ASSIGNMENT((#101));
#88=PRESENTATION_STYLE_ASSIGNMENT((#102));
#89=SURFACE_STYLE_USAGE(.BOTH.,#103);
#90=SURFACE_STYLE_USAGE(.BOTH.,#104);
#91=SURFACE_STYLE_USAGE(.BOTH.,#105);
#92=SURFACE_STYLE_USAGE(.BOTH.,#106);
#93=SURFACE_STYLE_USAGE(.BOTH.,#107);
#94=SURFACE_STYLE_USAGE(.BOTH.,#108);
#95=SURFACE_STYLE_USAGE(.BOTH.,#109);
#96=SURFACE_STYLE_USAGE(.BOTH.,#110);
#97=SURFACE_STYLE_USAGE(.BOTH.,#111);
#98=SURFACE_STYLE_USAGE(.BOTH.,#112);
#99=SURFACE_STYLE_USAGE(.BOTH.,#113);
#100=SURFACE_STYLE_USAGE(.BOTH.,#114);
#101=SURFACE_STYLE_USAGE(.BOTH.,#115);
#102=SURFACE_STYLE_USAGE(.BOTH.,#116);
#103=SURFACE_SIDE_STYLE('',(#117));
#104=SURFACE_SIDE_STYLE('',(#118));
#105=SURFACE_SIDE_STYLE('',(#119));
#106=SURFACE_SIDE_STYLE('',(#120));
#107=SURFACE_SIDE_STYLE('',(#121));
#108=SURFACE_SIDE_STYLE('',(#122));
#109=SURFACE_SIDE_STYLE('',(#123));
#110=SURFACE_SIDE_STYLE('',(#124));
#111=SURFACE_SIDE_STYLE('',(#125));
#112=SURFACE_SIDE_STYLE('',(#126));
#113=SURFACE_SIDE_STYLE('',(#127));
#114=SURFACE_SIDE_STYLE('',(#128));
#115=SURFACE_SIDE_STYLE('',(#129));
#116=SURFACE_SIDE_STYLE('',(#130));
#117=SURFACE_STYLE_FILL_AREA(#131);
#118=SURFACE_STYLE_FILL_AREA(#132);
#119=SURFACE_STYLE_FILL_AREA(#133);
#120=SURFACE_STYLE_FILL_AREA(#134);
#121=SURFACE_STYLE_FILL_AREA(#135);
#122=SURFACE_STYLE_FILL_AREA(#136);
#123=SURFACE_STYLE_FILL_AREA(#137);
#124=SURFACE_STYLE_FILL_AREA(#138);
#125=SURFACE_STYLE_FILL_AREA(#139);
#126=SURFACE_STYLE_FILL_AREA(#140);
#127=SURFACE_STYLE_FILL_AREA(#141);
#128=SURFACE_STYLE_FILL_AREA(#142);
#129=SURFACE_STYLE_FILL_AREA(#143);
#130=SURFACE_STYLE_FILL_AREA(#144);
#131=FILL_AREA_STYLE('',(#145));
#132=FILL_AREA_STYLE('',(#146));
#133=FILL_AREA_STYLE('',(#147));
#134=FILL_AREA_STYLE('',(#148));
#135=FILL_AREA_STYLE('',(#149));
#136=FILL_AREA_STYLE('',(#150));
#137=FILL_AREA_STYLE('',(#151));
#138=FILL_AREA_STYLE('',(#152));
#139=FILL_AREA_STYLE('',(#153));
#140=FILL_AREA_STYLE('',(#154));
#141=FILL_AREA_STYLE('',(#155));
#142=FILL_AREA_STYLE('',(#156));
#143=FILL_AREA_STYLE('',(#157));
#144=FILL_AREA_STYLE('',(#158));
#145=FILL_AREA_STYLE_COLOUR('',#159);
#146=FILL_AREA_STYLE_COLOUR('',#160);
#147=FILL_AREA_STYLE_COLOUR('',#160);
#148=FILL_AREA_STYLE_COLOUR('',#160);
#149=FILL_AREA_STYLE_COLOUR('',#160);
#150=FILL_AREA_STYLE_COLOUR('',#160);
#151=FILL_AREA_STYLE_COLOUR('',#160);
#152=FILL_AREA_STYLE_COLOUR('',#160);
#153=FILL_AREA_STYLE_COLOUR('',#160);
#154=FILL_AREA_STYLE_COLOUR('',#160);
#155=FILL_AREA_STYLE_COLOUR('',#160);
#156=FILL_AREA_STYLE_COLOUR('',#160);
#157=FILL_AREA_STYLE_COLOUR('',#160);
#158=FILL_AREA_STYLE_COLOUR('',#23);
#159=COLOUR_RGB('Medium Steel',0.611764705882353,0.658823529411765,0.670588235294118);
#160=COLOUR_RGB('silver gray',0.6,0.6,0.6);
#161=MANIFOLD_SOLID_BREP('',#163);
#162=MANIFOLD_SOLID_BREP('',#164);
#163=CLOSED_SHELL('',(#215,#216,#217,#218,#219,#220,#221,#222,#223,#224,
#225,#226));
#164=CLOSED_SHELL('',(#227,#228,#229,#230,#231,#232,#233,#234,#235,#236));
#165=CYLINDRICAL_SURFACE('',#402,9.9);
#166=CYLINDRICAL_SURFACE('',#406,10.);
#167=CYLINDRICAL_SURFACE('',#410,9.75);
#168=TOROIDAL_SURFACE('',#398,8.55091611369948,0.8);
#169=TOROIDAL_SURFACE('',#412,8.75,1.);
#170=CONICAL_SURFACE('',#394,7.,86.0000000000004);
#171=CONICAL_SURFACE('',#396,8.53695418854965,89.);
#172=CONICAL_SURFACE('',#400,9.9,3.69999999999961);
#173=CONICAL_SURFACE('',#404,10.,30.);
#174=CONICAL_SURFACE('',#408,9.75,9.9999999999999);
#175=FACE_BOUND('',#242,.T.);
#176=FACE_BOUND('',#243,.T.);
#177=FACE_BOUND('',#244,.T.);
#178=FACE_BOUND('',#245,.T.);
#179=FACE_BOUND('',#246,.T.);
#180=FACE_BOUND('',#247,.T.);
#181=FACE_BOUND('',#248,.T.);
#182=FACE_BOUND('',#249,.T.);
#183=FACE_BOUND('',#250,.T.);
#184=FACE_BOUND('',#251,.T.);
#185=FACE_BOUND('',#252,.T.);
#186=FACE_BOUND('',#253,.T.);
#187=FACE_BOUND('',#254,.T.);
#188=FACE_BOUND('',#255,.T.);
#189=FACE_BOUND('',#256,.T.);
#190=FACE_BOUND('',#257,.T.);
#191=FACE_BOUND('',#258,.T.);
#192=FACE_BOUND('',#259,.T.);
#193=FACE_BOUND('',#260,.T.);
#194=FACE_BOUND('',#261,.T.);
#195=FACE_BOUND('',#263,.T.);
#196=FACE_BOUND('',#264,.T.);
#197=FACE_BOUND('',#265,.T.);
#198=FACE_BOUND('',#266,.T.);
#199=FACE_BOUND('',#267,.T.);
#200=FACE_BOUND('',#268,.T.);
#201=FACE_BOUND('',#269,.T.);
#202=FACE_BOUND('',#270,.T.);
#203=FACE_BOUND('',#271,.T.);
#204=FACE_BOUND('',#272,.T.);
#205=FACE_BOUND('',#273,.T.);
#206=FACE_BOUND('',#274,.T.);
#207=FACE_BOUND('',#275,.T.);
#208=FACE_BOUND('',#276,.T.);
#209=FACE_BOUND('',#277,.T.);
#210=FACE_BOUND('',#278,.T.);
#211=FACE_BOUND('',#279,.T.);
#212=FACE_BOUND('',#280,.T.);
#213=FACE_BOUND('',#281,.T.);
#214=FACE_BOUND('',#282,.T.);
#215=ADVANCED_FACE('',(#239),#237,.F.);
#216=ADVANCED_FACE('',(#175,#176),#170,.F.);
#217=ADVANCED_FACE('',(#177,#178),#171,.F.);
#218=ADVANCED_FACE('',(#179,#180),#168,.T.);
#219=ADVANCED_FACE('',(#181,#182),#172,.T.);
#220=ADVANCED_FACE('',(#183,#184),#165,.T.);
#221=ADVANCED_FACE('',(#185,#186),#173,.T.);
#222=ADVANCED_FACE('',(#187,#188),#166,.T.);
#223=ADVANCED_FACE('',(#189,#190),#174,.T.);
#224=ADVANCED_FACE('',(#191,#192),#167,.T.);
#225=ADVANCED_FACE('',(#193,#194),#169,.T.);
#226=ADVANCED_FACE('',(#240),#238,.F.);
#227=ADVANCED_FACE('',(#195,#196),#24,.T.);
#228=ADVANCED_FACE('',(#197,#198),#25,.T.);
#229=ADVANCED_FACE('',(#199,#200),#26,.T.);
#230=ADVANCED_FACE('',(#201,#202),#27,.T.);
#231=ADVANCED_FACE('',(#203,#204),#28,.T.);
#232=ADVANCED_FACE('',(#205,#206),#29,.T.);
#233=ADVANCED_FACE('',(#207,#208),#30,.T.);
#234=ADVANCED_FACE('',(#209,#210),#31,.T.);
#235=ADVANCED_FACE('',(#211,#212),#32,.T.);
#236=ADVANCED_FACE('',(#213,#214),#33,.T.);
#237=PLANE('',#392);
#238=PLANE('',#413);
#239=FACE_OUTER_BOUND('',#241,.T.);
#240=FACE_OUTER_BOUND('',#262,.T.);
#241=EDGE_LOOP('',(#283));
#242=EDGE_LOOP('',(#284));
#243=EDGE_LOOP('',(#285));
#244=EDGE_LOOP('',(#286));
#245=EDGE_LOOP('',(#287));
#246=EDGE_LOOP('',(#288));
#247=EDGE_LOOP('',(#289));
#248=EDGE_LOOP('',(#290));
#249=EDGE_LOOP('',(#291));
#250=EDGE_LOOP('',(#292));
#251=EDGE_LOOP('',(#293));
#252=EDGE_LOOP('',(#294));
#253=EDGE_LOOP('',(#295));
#254=EDGE_LOOP('',(#296));
#255=EDGE_LOOP('',(#297));
#256=EDGE_LOOP('',(#298));
#257=EDGE_LOOP('',(#299));
#258=EDGE_LOOP('',(#300));
#259=EDGE_LOOP('',(#301));
#260=EDGE_LOOP('',(#302));
#261=EDGE_LOOP('',(#303));
#262=EDGE_LOOP('',(#304));
#263=EDGE_LOOP('',(#305));
#264=EDGE_LOOP('',(#306));
#265=EDGE_LOOP('',(#307));
#266=EDGE_LOOP('',(#308));
#267=EDGE_LOOP('',(#309));
#268=EDGE_LOOP('',(#310));
#269=EDGE_LOOP('',(#311));
#270=EDGE_LOOP('',(#312));
#271=EDGE_LOOP('',(#313));
#272=EDGE_LOOP('',(#314));
#273=EDGE_LOOP('',(#315));
#274=EDGE_LOOP('',(#316));
#275=EDGE_LOOP('',(#317));
#276=EDGE_LOOP('',(#318));
#277=EDGE_LOOP('',(#319));
#278=EDGE_LOOP('',(#320));
#279=EDGE_LOOP('',(#321));
#280=EDGE_LOOP('',(#322));
#281=EDGE_LOOP('',(#323));
#282=EDGE_LOOP('',(#324));
#283=ORIENTED_EDGE('',*,*,#346,.T.);
#284=ORIENTED_EDGE('',*,*,#346,.F.);
#285=ORIENTED_EDGE('',*,*,#347,.T.);
#286=ORIENTED_EDGE('',*,*,#347,.F.);
#287=ORIENTED_EDGE('',*,*,#348,.T.);
#288=ORIENTED_EDGE('',*,*,#348,.F.);
#289=ORIENTED_EDGE('',*,*,#349,.T.);
#290=ORIENTED_EDGE('',*,*,#349,.F.);
#291=ORIENTED_EDGE('',*,*,#350,.T.);
#292=ORIENTED_EDGE('',*,*,#350,.F.);
#293=ORIENTED_EDGE('',*,*,#351,.T.);
#294=ORIENTED_EDGE('',*,*,#351,.F.);
#295=ORIENTED_EDGE('',*,*,#352,.T.);
#296=ORIENTED_EDGE('',*,*,#352,.F.);
#297=ORIENTED_EDGE('',*,*,#353,.T.);
#298=ORIENTED_EDGE('',*,*,#353,.F.);
#299=ORIENTED_EDGE('',*,*,#354,.T.);
#300=ORIENTED_EDGE('',*,*,#354,.F.);
#301=ORIENTED_EDGE('',*,*,#355,.T.);
#302=ORIENTED_EDGE('',*,*,#355,.F.);
#303=ORIENTED_EDGE('',*,*,#356,.T.);
#304=ORIENTED_EDGE('',*,*,#356,.F.);
#305=ORIENTED_EDGE('',*,*,#357,.F.);
#306=ORIENTED_EDGE('',*,*,#358,.T.);
#307=ORIENTED_EDGE('',*,*,#359,.F.);
#308=ORIENTED_EDGE('',*,*,#357,.T.);
#309=ORIENTED_EDGE('',*,*,#360,.F.);
#310=ORIENTED_EDGE('',*,*,#359,.T.);
#311=ORIENTED_EDGE('',*,*,#361,.F.);
#312=ORIENTED_EDGE('',*,*,#360,.T.);
#313=ORIENTED_EDGE('',*,*,#362,.F.);
#314=ORIENTED_EDGE('',*,*,#361,.T.);
#315=ORIENTED_EDGE('',*,*,#363,.F.);
#316=ORIENTED_EDGE('',*,*,#362,.T.);
#317=ORIENTED_EDGE('',*,*,#364,.F.);
#318=ORIENTED_EDGE('',*,*,#363,.T.);
#319=ORIENTED_EDGE('',*,*,#365,.F.);
#320=ORIENTED_EDGE('',*,*,#364,.T.);
#321=ORIENTED_EDGE('',*,*,#366,.F.);
#322=ORIENTED_EDGE('',*,*,#365,.T.);
#323=ORIENTED_EDGE('',*,*,#358,.F.);
#324=ORIENTED_EDGE('',*,*,#366,.T.);
#325=VERTEX_POINT('',#518);
#326=VERTEX_POINT('',#521);
#327=VERTEX_POINT('',#524);
#328=VERTEX_POINT('',#527);
#329=VERTEX_POINT('',#530);
#330=VERTEX_POINT('',#533);
#331=VERTEX_POINT('',#536);
#332=VERTEX_POINT('',#539);
#333=VERTEX_POINT('',#542);
#334=VERTEX_POINT('',#545);
#335=VERTEX_POINT('',#548);
#336=VERTEX_POINT('',#552);
#337=VERTEX_POINT('',#554);
#338=VERTEX_POINT('',#558);
#339=VERTEX_POINT('',#562);
#340=VERTEX_POINT('',#566);
#341=VERTEX_POINT('',#570);
#342=VERTEX_POINT('',#574);
#343=VERTEX_POINT('',#578);
#344=VERTEX_POINT('',#582);
#345=VERTEX_POINT('',#586);
#346=EDGE_CURVE('',#325,#325,#367,.T.);
#347=EDGE_CURVE('',#326,#326,#368,.T.);
#348=EDGE_CURVE('',#327,#327,#369,.T.);
#349=EDGE_CURVE('',#328,#328,#370,.T.);
#350=EDGE_CURVE('',#329,#329,#371,.T.);
#351=EDGE_CURVE('',#330,#330,#372,.T.);
#352=EDGE_CURVE('',#331,#331,#373,.T.);
#353=EDGE_CURVE('',#332,#332,#374,.T.);
#354=EDGE_CURVE('',#333,#333,#375,.T.);
#355=EDGE_CURVE('',#334,#334,#376,.T.);
#356=EDGE_CURVE('',#335,#335,#377,.T.);
#357=EDGE_CURVE('',#336,#336,#378,.T.);
#358=EDGE_CURVE('',#337,#337,#379,.T.);
#359=EDGE_CURVE('',#338,#338,#380,.T.);
#360=EDGE_CURVE('',#339,#339,#382,.T.);
#361=EDGE_CURVE('',#340,#340,#383,.T.);
#362=EDGE_CURVE('',#341,#341,#384,.T.);
#363=EDGE_CURVE('',#342,#342,#385,.T.);
#364=EDGE_CURVE('',#343,#343,#386,.T.);
#365=EDGE_CURVE('',#344,#344,#388,.T.);
#366=EDGE_CURVE('',#345,#345,#389,.T.);
#367=CIRCLE('',#391,3.99895726928539);
#368=CIRCLE('',#393,7.);
#369=CIRCLE('',#395,8.53695418854965);
#370=CIRCLE('',#397,9.34924860831722);
#371=CIRCLE('',#399,9.9);
#372=CIRCLE('',#401,9.9);
#373=CIRCLE('',#403,10.);
#374=CIRCLE('',#405,10.);
#375=CIRCLE('',#407,9.75);
#376=CIRCLE('',#409,9.75);
#377=CIRCLE('',#411,8.75);
#378=CIRCLE('',#414,9.77345021957278);
#379=CIRCLE('',#415,8.65757759289496);
#380=CIRCLE('',#416,10.5002739049317);
#381=CIRCLE('',#417,0.8);
#382=CIRCLE('',#418,10.5760481433315);
#383=CIRCLE('',#419,9.87730582858623);
#384=CIRCLE('',#420,6.40255388508223);
#385=CIRCLE('',#421,5.27997251007586);
#386=CIRCLE('',#422,4.58201528680328);
#387=CIRCLE('',#423,0.8);
#388=CIRCLE('',#424,4.79299280956191);
#389=CIRCLE('',#425,5.42780700220961);
#390=AXIS2_PLACEMENT_3D('',#516,#426,#427);
#391=AXIS2_PLACEMENT_3D('',#517,#428,#429);
#392=AXIS2_PLACEMENT_3D('',#519,#430,#431);
#393=AXIS2_PLACEMENT_3D('',#520,#432,#433);
#394=AXIS2_PLACEMENT_3D('',#522,#434,#435);
#395=AXIS2_PLACEMENT_3D('',#523,#436,#437);
#396=AXIS2_PLACEMENT_3D('',#525,#438,#439);
#397=AXIS2_PLACEMENT_3D('',#526,#440,#441);
#398=AXIS2_PLACEMENT_3D('',#528,#442,#443);
#399=AXIS2_PLACEMENT_3D('',#529,#444,#445);
#400=AXIS2_PLACEMENT_3D('',#531,#446,#447);
#401=AXIS2_PLACEMENT_3D('',#532,#448,#449);
#402=AXIS2_PLACEMENT_3D('',#534,#450,#451);
#403=AXIS2_PLACEMENT_3D('',#535,#452,#453);
#404=AXIS2_PLACEMENT_3D('',#537,#454,#455);
#405=AXIS2_PLACEMENT_3D('',#538,#456,#457);
#406=AXIS2_PLACEMENT_3D('',#540,#458,#459);
#407=AXIS2_PLACEMENT_3D('',#541,#460,#461);
#408=AXIS2_PLACEMENT_3D('',#543,#462,#463);
#409=AXIS2_PLACEMENT_3D('',#544,#464,#465);
#410=AXIS2_PLACEMENT_3D('',#546,#466,#467);
#411=AXIS2_PLACEMENT_3D('',#547,#468,#469);
#412=AXIS2_PLACEMENT_3D('',#549,#470,#471);
#413=AXIS2_PLACEMENT_3D('',#550,#472,#473);
#414=AXIS2_PLACEMENT_3D('',#551,#474,#475);
#415=AXIS2_PLACEMENT_3D('',#553,#476,#477);
#416=AXIS2_PLACEMENT_3D('',#557,#480,#481);
#417=AXIS2_PLACEMENT_3D('',#559,#482,#483);
#418=AXIS2_PLACEMENT_3D('',#561,#485,#486);
#419=AXIS2_PLACEMENT_3D('',#565,#489,#490);
#420=AXIS2_PLACEMENT_3D('',#569,#493,#494);
#421=AXIS2_PLACEMENT_3D('',#573,#497,#498);
#422=AXIS2_PLACEMENT_3D('',#577,#501,#502);
#423=AXIS2_PLACEMENT_3D('',#579,#503,#504);
#424=AXIS2_PLACEMENT_3D('',#581,#506,#507);
#425=AXIS2_PLACEMENT_3D('',#585,#510,#511);
#426=DIRECTION('',(0.,0.,1.));
#427=DIRECTION('',(1.,0.,0.));
#428=DIRECTION('',(-1.,0.,0.));
#429=DIRECTION('',(0.,0.,1.));
#430=DIRECTION('',(1.,0.,0.));
#431=DIRECTION('',(0.,0.,-1.));
#432=DIRECTION('',(-1.,0.,0.));
#433=DIRECTION('',(0.,0.,1.));
#434=DIRECTION('',(-1.,0.,0.));
#435=DIRECTION('',(-3.20539709784032E-18,0.,1.));
#436=DIRECTION('',(-1.,0.,0.));
#437=DIRECTION('',(0.,0.,1.));
#438=DIRECTION('',(-1.,0.,0.));
#439=DIRECTION('',(-7.34173587988011E-19,0.,0.999999999999998));
#440=DIRECTION('',(-1.,0.,0.));
#441=DIRECTION('',(0.,0.,1.));
#442=DIRECTION('',(-1.,0.,0.));
#443=DIRECTION('',(0.,0.,1.));
#444=DIRECTION('',(-1.,0.,0.));
#445=DIRECTION('',(0.,0.,1.));
#446=DIRECTION('',(1.,0.,0.));
#447=DIRECTION('',(-1.46562733697328E-15,0.,-1.));
#448=DIRECTION('',(-1.,0.,0.));
#449=DIRECTION('',(0.,0.,1.));
#450=DIRECTION('',(-1.,0.,0.));
#451=DIRECTION('',(0.,0.,1.));
#452=DIRECTION('',(-1.,0.,0.));
#453=DIRECTION('',(0.,0.,1.));
#454=DIRECTION('',(1.,0.,0.));
#455=DIRECTION('',(4.72555765640895E-17,0.,-1.));
#456=DIRECTION('',(-1.,0.,0.));
#457=DIRECTION('',(0.,0.,1.));
#458=DIRECTION('',(-1.,0.,0.));
#459=DIRECTION('',(0.,0.,1.));
#460=DIRECTION('',(-1.,0.,0.));
#461=DIRECTION('',(0.,0.,1.));
#462=DIRECTION('',(-1.,0.,0.));
#463=DIRECTION('',(1.49161790512471E-16,0.,1.));
#464=DIRECTION('',(-1.,0.,0.));
#465=DIRECTION('',(0.,0.,1.));
#466=DIRECTION('',(-1.,0.,0.));
#467=DIRECTION('',(0.,0.,1.));
#468=DIRECTION('',(-1.,0.,0.));
#469=DIRECTION('',(0.,0.,1.));
#470=DIRECTION('',(-1.,0.,0.));
#471=DIRECTION('',(0.,0.,1.));
#472=DIRECTION('',(-1.,0.,0.));
#473=DIRECTION('',(0.,0.,1.));
#474=DIRECTION('',(1.,0.,0.));
#475=DIRECTION('',(0.,0.,-1.));
#476=DIRECTION('',(1.,0.,0.));
#477=DIRECTION('',(0.,0.,-1.));
#478=DIRECTION('',(0.019092276801559,-0.958073108342262,-0.285887047691793));
#479=DIRECTION('',(1.,0.,0.));
#480=DIRECTION('',(1.,0.,0.));
#481=DIRECTION('',(0.,0.,-1.));
#482=DIRECTION('',(0.104528463267654,-0.282459478928619,0.95356722003762));
#483=DIRECTION('',(-0.9932482680478,0.0188598411879719,0.114464773666003));
#484=DIRECTION('',(1.,0.,0.));
#485=DIRECTION('',(1.,0.,0.));
#486=DIRECTION('',(0.,0.,-1.));
#487=DIRECTION('',(0.99396713915037,-0.00234990316514012,-0.109653108685266));
#488=DIRECTION('',(1.,0.,0.));
#489=DIRECTION('',(1.,0.,0.));
#490=DIRECTION('',(0.,0.,-1.));
#491=DIRECTION('',(0.842481347540054,0.534664462659374,0.0660234156663955));
#492=DIRECTION('',(1.,0.,0.));
#493=DIRECTION('',(1.,0.,0.));
#494=DIRECTION('',(0.,0.,-1.));
#495=DIRECTION('',(0.152878389601323,0.951987165889293,0.26523316907012));
#496=DIRECTION('',(1.,0.,0.));
#497=DIRECTION('',(1.,0.,0.));
#498=DIRECTION('',(0.,0.,-1.));
#499=DIRECTION('',(-0.0190922768015589,0.958073108342262,0.285887047691793));
#500=DIRECTION('',(1.,0.,0.));
#501=DIRECTION('',(1.,0.,0.));
#502=DIRECTION('',(0.,0.,-1.));
#503=DIRECTION('',(0.104528463267654,-0.282459478928619,0.95356722003762));
#504=DIRECTION('',(0.9932482680478,-0.0188598411879718,-0.114464773666003));
#505=DIRECTION('',(1.,0.,0.));
#506=DIRECTION('',(1.,0.,0.));
#507=DIRECTION('',(0.,0.,-1.));
#508=DIRECTION('',(-0.99396713915037,0.00234990316514032,0.109653108685266));
#509=DIRECTION('',(1.,0.,0.));
#510=DIRECTION('',(1.,0.,0.));
#511=DIRECTION('',(0.,0.,-1.));
#512=DIRECTION('',(-0.842481301602529,-0.534664531889884,-0.0660234412090022));
#513=DIRECTION('',(1.,0.,0.));
#514=DIRECTION('',(-0.152878250715669,-0.95198718257411,-0.265233189236804));
#515=DIRECTION('',(1.,0.,0.));
#516=CARTESIAN_POINT('',(0.,0.,0.));
#517=CARTESIAN_POINT('',(1.,0.,0.));
#518=CARTESIAN_POINT('',(1.,0.,3.99895726928539));
#519=CARTESIAN_POINT('',(1.,0.,0.));
#520=CARTESIAN_POINT('',(0.790146649334901,0.,0.));
#521=CARTESIAN_POINT('',(0.790146649334901,0.,7.));
#522=CARTESIAN_POINT('',(0.790146649334901,0.,0.));
#523=CARTESIAN_POINT('',(0.763319014182071,0.,0.));
#524=CARTESIAN_POINT('',(0.763319014182071,0.,8.53695418854965));
#525=CARTESIAN_POINT('',(0.763319014182071,0.,0.));
#526=CARTESIAN_POINT('',(1.51157132370483,0.,0.));
#527=CARTESIAN_POINT('',(1.51157132370483,0.,9.34924860831722));
#528=CARTESIAN_POINT('',(1.56319717030719,0.,0.));
#529=CARTESIAN_POINT('',(10.0282884600432,0.,0.));
#530=CARTESIAN_POINT('',(10.0282884600432,0.,9.9));
#531=CARTESIAN_POINT('',(10.0282884600432,0.,0.));
#532=CARTESIAN_POINT('',(29.8267949192431,0.,0.));
#533=CARTESIAN_POINT('',(29.8267949192431,0.,9.9));
#534=CARTESIAN_POINT('',(0.,0.,0.));
#535=CARTESIAN_POINT('',(30.,0.,0.));
#536=CARTESIAN_POINT('',(30.,0.,10.));
#537=CARTESIAN_POINT('',(30.,0.,0.));
#538=CARTESIAN_POINT('',(144.582179545096,0.,0.));
#539=CARTESIAN_POINT('',(144.582179545096,0.,10.));
#540=CARTESIAN_POINT('',(0.,0.,0.));
#541=CARTESIAN_POINT('',(146.,0.,0.));
#542=CARTESIAN_POINT('',(146.,0.,9.75));
#543=CARTESIAN_POINT('',(146.,0.,0.));
#544=CARTESIAN_POINT('',(149.,0.,0.));
#545=CARTESIAN_POINT('',(149.,0.,9.75));
#546=CARTESIAN_POINT('',(0.,0.,0.));
#547=CARTESIAN_POINT('',(150.,0.,0.));
#548=CARTESIAN_POINT('',(150.,0.,8.75));
#549=CARTESIAN_POINT('',(149.,0.,0.));
#550=CARTESIAN_POINT('',(150.,8.75,0.));
#551=CARTESIAN_POINT('',(-0.0142430689169361,0.,0.));
#552=CARTESIAN_POINT('',(-0.0142430689169361,0.,-9.77345021957278));
#553=CARTESIAN_POINT('',(-0.0367830585593775,0.,0.));
#554=CARTESIAN_POINT('',(-0.0367830585593775,0.,-8.65757759289496));
#555=CARTESIAN_POINT('',(-0.0367830585593775,-8.64003947788459,0.550788160360005));
#556=CARTESIAN_POINT('',(0.,0.,0.));
#557=CARTESIAN_POINT('',(0.740975195387744,0.,0.));
#558=CARTESIAN_POINT('',(0.740975195387744,0.,-10.5002739049317));
#559=CARTESIAN_POINT('',(0.781227824713623,-9.7326516258167,0.137472695798234));
#560=CARTESIAN_POINT('',(0.,0.,0.));
#561=CARTESIAN_POINT('',(9.72153525992218,0.,0.));
#562=CARTESIAN_POINT('',(9.72153525992218,0.,-10.5760481433315));
#563=CARTESIAN_POINT('',(0.740975195387744,-10.499926679144,-0.0853921026199053));
#564=CARTESIAN_POINT('',(0.,0.,0.));
#565=CARTESIAN_POINT('',(10.8145140311047,0.,0.));
#566=CARTESIAN_POINT('',(10.8145140311047,0.,-9.87730582858623));
#567=CARTESIAN_POINT('',(9.72153525992218,-10.521158212551,-1.07611532678273));
#568=CARTESIAN_POINT('',(0.,0.,0.));
#569=CARTESIAN_POINT('',(11.3645414196155,0.,0.));
#570=CARTESIAN_POINT('',(11.3645414196155,0.,-6.40255388508223));
#571=CARTESIAN_POINT('',(10.8145140311047,-9.82752041380482,-0.990460977360002));
#572=CARTESIAN_POINT('',(0.,0.,0.));
#573=CARTESIAN_POINT('',(11.342001429973,0.,0.));
#574=CARTESIAN_POINT('',(11.342001429973,0.,-5.27997251007586));
#575=CARTESIAN_POINT('',(11.3645414196155,-6.40245153313845,-0.0362024473576823));
#576=CARTESIAN_POINT('',(0.,0.,0.));
#577=CARTESIAN_POINT('',(10.5867831656684,0.,0.));
#578=CARTESIAN_POINT('',(10.5867831656684,0.,-4.58201528680328));
#579=CARTESIAN_POINT('',(10.5465305363425,-5.30983938520638,0.377113017204079));
#580=CARTESIAN_POINT('',(0.,0.,0.));
#581=CARTESIAN_POINT('',(1.60622310113393,0.,0.));
#582=CARTESIAN_POINT('',(1.60622310113393,0.,-4.79299280956191));
#583=CARTESIAN_POINT('',(10.5867831656684,-4.54256433187908,0.599977815622227));
#584=CARTESIAN_POINT('',(0.,0.,0.));
#585=CARTESIAN_POINT('',(0.513243740006396,0.,0.));
#586=CARTESIAN_POINT('',(0.513243740006396,0.,-5.42780700220961));
#587=CARTESIAN_POINT('',(1.60622310113393,-4.52133279847203,1.59070103978506));
#588=CARTESIAN_POINT('',(0.,0.,0.));
#589=CARTESIAN_POINT('',(0.513243740006396,-5.21497109925209,1.50504660632191));
#590=CARTESIAN_POINT('',(0.,0.,0.));
#591=(
GEOMETRIC_REPRESENTATION_CONTEXT(3)
GLOBAL_UNCERTAINTY_ASSIGNED_CONTEXT((#592))
GLOBAL_UNIT_ASSIGNED_CONTEXT((#598,#594,#593))
REPRESENTATION_CONTEXT('AEM90-AP1135Y-D21-C20-L150-Z03',
'TOP_LEVEL_ASSEMBLY_PART')
);
#592=UNCERTAINTY_MEASURE_WITH_UNIT(LENGTH_MEASURE(2.E-5),#598,
'DISTANCE_ACCURACY_VALUE','Maximum Tolerance applied to model');
#593=(
NAMED_UNIT(*)
SI_UNIT($,.STERADIAN.)
SOLID_ANGLE_UNIT()
);
#594=(
CONVERSION_BASED_UNIT('DEGREE',#596)
NAMED_UNIT(#595)
PLANE_ANGLE_UNIT()
);
#595=DIMENSIONAL_EXPONENTS(0.,0.,0.,0.,0.,0.,0.);
#596=PLANE_ANGLE_MEASURE_WITH_UNIT(PLANE_ANGLE_MEASURE(0.0174532925),#597);
#597=(
NAMED_UNIT(*)
PLANE_ANGLE_UNIT()
SI_UNIT($,.RADIAN.)
);
#598=(
LENGTH_UNIT()
NAMED_UNIT(*)
SI_UNIT(.MILLI.,.METRE.)
);
ENDSEC;
END-ISO-10303-21;
