ISO-10303-21;
HEADER;
/* Generated by software containing ST-Developer
 * from STEP Tools, Inc. (www.steptools.com) 
 */
/* OPTION: using custom schema-name function */

FILE_DESCRIPTION(
/* description */ (''),
/* implementation_level */ '2;1');

FILE_NAME(
/* name */ 'AEM90-LN08-D16-C16-L100-Z02-H.stp',
/* time_stamp */ '2023-10-23T18:26:13+03:00',
/* author */ (''),
/* organization */ (''),
/* preprocessor_version */ 'ST-DEVELOPER v19.4',
/* originating_system */ 'SIEMENS PLM Software NX2306.3001',
/* authorisation */ '');

FILE_SCHEMA (('AUTOMOTIVE_DESIGN { 1 0 10303 214 3 1 1 1 }'));
ENDSEC;

DATA;
#10=SHAPE_REPRESENTATION_RELATIONSHIP('None',
'relationship between AEM90-LN08-D16-C16-L100-Z02-H-None and AEM90-LN0
8-D16-C16-L100-Z02-H-None',#22,#11);
#11=ADVANCED_BREP_SHAPE_REPRESENTATION(
'AEM90-LN08-D16-C16-L100-Z02-H-None',(#144,#145),#602);
#12=SHAPE_DEFINITION_REPRESENTATION(#13,#22);
#13=PRODUCT_DEFINITION_SHAPE('','',#14);
#14=PRODUCT_DEFINITION(' ','',#16,#15);
#15=PRODUCT_DEFINITION_CONTEXT('part definition',#21,'design');
#16=PRODUCT_DEFINITION_FORMATION_WITH_SPECIFIED_SOURCE(' ',' ',#18,
 .NOT_KNOWN.);
#17=PRODUCT_RELATED_PRODUCT_CATEGORY('part','',(#18));
#18=PRODUCT('AEM90-LN08-D16-C16-L100-Z02-H',
'AEM90-LN08-D16-C16-L100-Z02-H',' ',(#19));
#19=PRODUCT_CONTEXT(' ',#21,'mechanical');
#20=APPLICATION_PROTOCOL_DEFINITION('international standard',
'automotive_design',2010,#21);
#21=APPLICATION_CONTEXT(
'core data for automotive mechanical design processes');
#22=SHAPE_REPRESENTATION('AEM90-LN08-D16-C16-L100-Z02-H-None',(#388),#602);
#23=DRAUGHTING_PRE_DEFINED_COLOUR('yellow');
#24=SURFACE_OF_REVOLUTION('',#32,#28);
#25=SURFACE_OF_REVOLUTION('',#33,#29);
#26=SURFACE_OF_REVOLUTION('',#34,#30);
#27=SURFACE_OF_REVOLUTION('',#35,#31);
#28=AXIS1_PLACEMENT('',#576,#496);
#29=AXIS1_PLACEMENT('',#583,#505);
#30=AXIS1_PLACEMENT('',#593,#518);
#31=AXIS1_PLACEMENT('',#600,#527);
#32=ELLIPSE('',#418,0.400384476573869,0.362571021784456);
#33=ELLIPSE('',#422,0.400120858228301,0.362846208333486);
#34=ELLIPSE('',#428,0.400384476573869,0.362571021784456);
#35=ELLIPSE('',#432,0.400120858228301,0.362846208333486);
#36=OVER_RIDING_STYLED_ITEM('',(#53),#165,#50);
#37=OVER_RIDING_STYLED_ITEM('',(#54),#166,#50);
#38=OVER_RIDING_STYLED_ITEM('',(#55),#167,#50);
#39=OVER_RIDING_STYLED_ITEM('',(#56),#168,#50);
#40=OVER_RIDING_STYLED_ITEM('',(#57),#169,#50);
#41=OVER_RIDING_STYLED_ITEM('',(#58),#170,#50);
#42=OVER_RIDING_STYLED_ITEM('',(#59),#171,#50);
#43=OVER_RIDING_STYLED_ITEM('',(#60),#172,#50);
#44=OVER_RIDING_STYLED_ITEM('',(#61),#173,#50);
#45=OVER_RIDING_STYLED_ITEM('',(#62),#174,#50);
#46=OVER_RIDING_STYLED_ITEM('',(#63),#175,#50);
#47=OVER_RIDING_STYLED_ITEM('',(#64),#176,#50);
#48=OVER_RIDING_STYLED_ITEM('',(#65),#177,#50);
#49=PRESENTATION_LAYER_ASSIGNMENT('1','Layer 1',(#144,#145));
#50=STYLED_ITEM('',(#52),#144);
#51=STYLED_ITEM('',(#66),#145);
#52=PRESENTATION_STYLE_ASSIGNMENT((#67));
#53=PRESENTATION_STYLE_ASSIGNMENT((#68));
#54=PRESENTATION_STYLE_ASSIGNMENT((#69));
#55=PRESENTATION_STYLE_ASSIGNMENT((#70));
#56=PRESENTATION_STYLE_ASSIGNMENT((#71));
#57=PRESENTATION_STYLE_ASSIGNMENT((#72));
#58=PRESENTATION_STYLE_ASSIGNMENT((#73));
#59=PRESENTATION_STYLE_ASSIGNMENT((#74));
#60=PRESENTATION_STYLE_ASSIGNMENT((#75));
#61=PRESENTATION_STYLE_ASSIGNMENT((#76));
#62=PRESENTATION_STYLE_ASSIGNMENT((#77));
#63=PRESENTATION_STYLE_ASSIGNMENT((#78));
#64=PRESENTATION_STYLE_ASSIGNMENT((#79));
#65=PRESENTATION_STYLE_ASSIGNMENT((#80));
#66=PRESENTATION_STYLE_ASSIGNMENT((#81));
#67=SURFACE_STYLE_USAGE(.BOTH.,#82);
#68=SURFACE_STYLE_USAGE(.BOTH.,#83);
#69=SURFACE_STYLE_USAGE(.BOTH.,#84);
#70=SURFACE_STYLE_USAGE(.BOTH.,#85);
#71=SURFACE_STYLE_USAGE(.BOTH.,#86);
#72=SURFACE_STYLE_USAGE(.BOTH.,#87);
#73=SURFACE_STYLE_USAGE(.BOTH.,#88);
#74=SURFACE_STYLE_USAGE(.BOTH.,#89);
#75=SURFACE_STYLE_USAGE(.BOTH.,#90);
#76=SURFACE_STYLE_USAGE(.BOTH.,#91);
#77=SURFACE_STYLE_USAGE(.BOTH.,#92);
#78=SURFACE_STYLE_USAGE(.BOTH.,#93);
#79=SURFACE_STYLE_USAGE(.BOTH.,#94);
#80=SURFACE_STYLE_USAGE(.BOTH.,#95);
#81=SURFACE_STYLE_USAGE(.BOTH.,#96);
#82=SURFACE_SIDE_STYLE('',(#97));
#83=SURFACE_SIDE_STYLE('',(#98));
#84=SURFACE_SIDE_STYLE('',(#99));
#85=SURFACE_SIDE_STYLE('',(#100));
#86=SURFACE_SIDE_STYLE('',(#101));
#87=SURFACE_SIDE_STYLE('',(#102));
#88=SURFACE_SIDE_STYLE('',(#103));
#89=SURFACE_SIDE_STYLE('',(#104));
#90=SURFACE_SIDE_STYLE('',(#105));
#91=SURFACE_SIDE_STYLE('',(#106));
#92=SURFACE_SIDE_STYLE('',(#107));
#93=SURFACE_SIDE_STYLE('',(#108));
#94=SURFACE_SIDE_STYLE('',(#109));
#95=SURFACE_SIDE_STYLE('',(#110));
#96=SURFACE_SIDE_STYLE('',(#111));
#97=SURFACE_STYLE_FILL_AREA(#112);
#98=SURFACE_STYLE_FILL_AREA(#113);
#99=SURFACE_STYLE_FILL_AREA(#114);
#100=SURFACE_STYLE_FILL_AREA(#115);
#101=SURFACE_STYLE_FILL_AREA(#116);
#102=SURFACE_STYLE_FILL_AREA(#117);
#103=SURFACE_STYLE_FILL_AREA(#118);
#104=SURFACE_STYLE_FILL_AREA(#119);
#105=SURFACE_STYLE_FILL_AREA(#120);
#106=SURFACE_STYLE_FILL_AREA(#121);
#107=SURFACE_STYLE_FILL_AREA(#122);
#108=SURFACE_STYLE_FILL_AREA(#123);
#109=SURFACE_STYLE_FILL_AREA(#124);
#110=SURFACE_STYLE_FILL_AREA(#125);
#111=SURFACE_STYLE_FILL_AREA(#126);
#112=FILL_AREA_STYLE('',(#127));
#113=FILL_AREA_STYLE('',(#128));
#114=FILL_AREA_STYLE('',(#129));
#115=FILL_AREA_STYLE('',(#130));
#116=FILL_AREA_STYLE('',(#131));
#117=FILL_AREA_STYLE('',(#132));
#118=FILL_AREA_STYLE('',(#133));
#119=FILL_AREA_STYLE('',(#134));
#120=FILL_AREA_STYLE('',(#135));
#121=FILL_AREA_STYLE('',(#136));
#122=FILL_AREA_STYLE('',(#137));
#123=FILL_AREA_STYLE('',(#138));
#124=FILL_AREA_STYLE('',(#139));
#125=FILL_AREA_STYLE('',(#140));
#126=FILL_AREA_STYLE('',(#141));
#127=FILL_AREA_STYLE_COLOUR('',#142);
#128=FILL_AREA_STYLE_COLOUR('',#143);
#129=FILL_AREA_STYLE_COLOUR('',#143);
#130=FILL_AREA_STYLE_COLOUR('',#143);
#131=FILL_AREA_STYLE_COLOUR('',#143);
#132=FILL_AREA_STYLE_COLOUR('',#143);
#133=FILL_AREA_STYLE_COLOUR('',#143);
#134=FILL_AREA_STYLE_COLOUR('',#143);
#135=FILL_AREA_STYLE_COLOUR('',#143);
#136=FILL_AREA_STYLE_COLOUR('',#143);
#137=FILL_AREA_STYLE_COLOUR('',#143);
#138=FILL_AREA_STYLE_COLOUR('',#143);
#139=FILL_AREA_STYLE_COLOUR('',#143);
#140=FILL_AREA_STYLE_COLOUR('',#143);
#141=FILL_AREA_STYLE_COLOUR('',#23);
#142=COLOUR_RGB('Medium Steel',0.611764705882353,0.658823529411765,0.670588235294118);
#143=COLOUR_RGB('silver gray',0.6,0.6,0.6);
#144=MANIFOLD_SOLID_BREP('',#146);
#145=MANIFOLD_SOLID_BREP('',#147);
#146=CLOSED_SHELL('',(#165,#166,#167,#168,#169,#170,#171,#172,#173,#174,
#175,#176,#177));
#147=CLOSED_SHELL('',(#178,#179,#180,#181,#182,#183,#184,#185,#186,#187));
#148=PLANE('',#404);
#149=PLANE('',#406);
#150=PLANE('',#413);
#151=FACE_OUTER_BOUND('',#248,.T.);
#152=FACE_OUTER_BOUND('',#249,.T.);
#153=CONICAL_SURFACE('',#395,8.,30.);
#154=CONICAL_SURFACE('',#399,7.75,9.99999999999998);
#155=CONICAL_SURFACE('',#410,2.3,60.0000000000001);
#156=CONICAL_SURFACE('',#416,6.0429769220422,89.2110908384881);
#157=CONICAL_SURFACE('',#420,7.99896016144886,0.310521526573153);
#158=CONICAL_SURFACE('',#424,7.62708984889247,87.8523523608063);
#159=CONICAL_SURFACE('',#426,6.50271741669097,86.4787245271971);
#160=CONICAL_SURFACE('',#430,5.07534794913931,7.84762935242493);
#161=CONICAL_SURFACE('',#433,4.36236081429626,85.4331296868096);
#162=CYLINDRICAL_SURFACE('',#393,7.4);
#163=CYLINDRICAL_SURFACE('',#397,8.);
#164=CYLINDRICAL_SURFACE('',#401,7.75);
#165=ADVANCED_FACE('',(#192,#193),#188,.T.);
#166=ADVANCED_FACE('',(#194,#195),#162,.T.);
#167=ADVANCED_FACE('',(#196,#197),#153,.T.);
#168=ADVANCED_FACE('',(#198,#199),#163,.T.);
#169=ADVANCED_FACE('',(#200,#201),#154,.T.);
#170=ADVANCED_FACE('',(#202,#203),#164,.T.);
#171=ADVANCED_FACE('',(#204,#205),#189,.T.);
#172=ADVANCED_FACE('',(#151),#148,.F.);
#173=ADVANCED_FACE('',(#152),#149,.F.);
#174=ADVANCED_FACE('',(#206,#207),#190,.F.);
#175=ADVANCED_FACE('',(#208,#209),#155,.F.);
#176=ADVANCED_FACE('',(#210,#211),#191,.T.);
#177=ADVANCED_FACE('',(#212,#213),#150,.F.);
#178=ADVANCED_FACE('',(#214,#215),#156,.F.);
#179=ADVANCED_FACE('',(#216,#217),#24,.T.);
#180=ADVANCED_FACE('',(#218,#219),#157,.T.);
#181=ADVANCED_FACE('',(#220,#221),#25,.T.);
#182=ADVANCED_FACE('',(#222,#223),#158,.T.);
#183=ADVANCED_FACE('',(#224,#225),#159,.F.);
#184=ADVANCED_FACE('',(#226,#227),#26,.T.);
#185=ADVANCED_FACE('',(#228,#229),#160,.F.);
#186=ADVANCED_FACE('',(#230,#231),#27,.T.);
#187=ADVANCED_FACE('',(#232,#233),#161,.F.);
#188=TOROIDAL_SURFACE('',#391,6.6,0.8);
#189=TOROIDAL_SURFACE('',#403,6.75,1.);
#190=TOROIDAL_SURFACE('',#408,1.5569219381653,1.4);
#191=TOROIDAL_SURFACE('',#412,3.,1.4);
#192=FACE_BOUND('',#234,.T.);
#193=FACE_BOUND('',#235,.T.);
#194=FACE_BOUND('',#236,.T.);
#195=FACE_BOUND('',#237,.T.);
#196=FACE_BOUND('',#238,.T.);
#197=FACE_BOUND('',#239,.T.);
#198=FACE_BOUND('',#240,.T.);
#199=FACE_BOUND('',#241,.T.);
#200=FACE_BOUND('',#242,.T.);
#201=FACE_BOUND('',#243,.T.);
#202=FACE_BOUND('',#244,.T.);
#203=FACE_BOUND('',#245,.T.);
#204=FACE_BOUND('',#246,.T.);
#205=FACE_BOUND('',#247,.T.);
#206=FACE_BOUND('',#250,.T.);
#207=FACE_BOUND('',#251,.T.);
#208=FACE_BOUND('',#252,.T.);
#209=FACE_BOUND('',#253,.T.);
#210=FACE_BOUND('',#254,.T.);
#211=FACE_BOUND('',#255,.T.);
#212=FACE_BOUND('',#256,.T.);
#213=FACE_BOUND('',#257,.T.);
#214=FACE_BOUND('',#258,.T.);
#215=FACE_BOUND('',#259,.T.);
#216=FACE_BOUND('',#260,.T.);
#217=FACE_BOUND('',#261,.T.);
#218=FACE_BOUND('',#262,.T.);
#219=FACE_BOUND('',#263,.T.);
#220=FACE_BOUND('',#264,.T.);
#221=FACE_BOUND('',#265,.T.);
#222=FACE_BOUND('',#266,.T.);
#223=FACE_BOUND('',#267,.T.);
#224=FACE_BOUND('',#268,.T.);
#225=FACE_BOUND('',#269,.T.);
#226=FACE_BOUND('',#270,.T.);
#227=FACE_BOUND('',#271,.T.);
#228=FACE_BOUND('',#272,.T.);
#229=FACE_BOUND('',#273,.T.);
#230=FACE_BOUND('',#274,.T.);
#231=FACE_BOUND('',#275,.T.);
#232=FACE_BOUND('',#276,.T.);
#233=FACE_BOUND('',#277,.T.);
#234=EDGE_LOOP('',(#278));
#235=EDGE_LOOP('',(#279));
#236=EDGE_LOOP('',(#280));
#237=EDGE_LOOP('',(#281));
#238=EDGE_LOOP('',(#282));
#239=EDGE_LOOP('',(#283));
#240=EDGE_LOOP('',(#284));
#241=EDGE_LOOP('',(#285));
#242=EDGE_LOOP('',(#286));
#243=EDGE_LOOP('',(#287));
#244=EDGE_LOOP('',(#288));
#245=EDGE_LOOP('',(#289));
#246=EDGE_LOOP('',(#290));
#247=EDGE_LOOP('',(#291));
#248=EDGE_LOOP('',(#292));
#249=EDGE_LOOP('',(#293));
#250=EDGE_LOOP('',(#294));
#251=EDGE_LOOP('',(#295));
#252=EDGE_LOOP('',(#296));
#253=EDGE_LOOP('',(#297));
#254=EDGE_LOOP('',(#298));
#255=EDGE_LOOP('',(#299));
#256=EDGE_LOOP('',(#300));
#257=EDGE_LOOP('',(#301));
#258=EDGE_LOOP('',(#302));
#259=EDGE_LOOP('',(#303));
#260=EDGE_LOOP('',(#304));
#261=EDGE_LOOP('',(#305));
#262=EDGE_LOOP('',(#306));
#263=EDGE_LOOP('',(#307));
#264=EDGE_LOOP('',(#308));
#265=EDGE_LOOP('',(#309));
#266=EDGE_LOOP('',(#310));
#267=EDGE_LOOP('',(#311));
#268=EDGE_LOOP('',(#312));
#269=EDGE_LOOP('',(#313));
#270=EDGE_LOOP('',(#314));
#271=EDGE_LOOP('',(#315));
#272=EDGE_LOOP('',(#316));
#273=EDGE_LOOP('',(#317));
#274=EDGE_LOOP('',(#318));
#275=EDGE_LOOP('',(#319));
#276=EDGE_LOOP('',(#320));
#277=EDGE_LOOP('',(#321));
#278=ORIENTED_EDGE('',*,*,#344,.F.);
#279=ORIENTED_EDGE('',*,*,#345,.T.);
#280=ORIENTED_EDGE('',*,*,#345,.F.);
#281=ORIENTED_EDGE('',*,*,#346,.T.);
#282=ORIENTED_EDGE('',*,*,#346,.F.);
#283=ORIENTED_EDGE('',*,*,#347,.T.);
#284=ORIENTED_EDGE('',*,*,#347,.F.);
#285=ORIENTED_EDGE('',*,*,#348,.T.);
#286=ORIENTED_EDGE('',*,*,#348,.F.);
#287=ORIENTED_EDGE('',*,*,#349,.T.);
#288=ORIENTED_EDGE('',*,*,#349,.F.);
#289=ORIENTED_EDGE('',*,*,#350,.T.);
#290=ORIENTED_EDGE('',*,*,#350,.F.);
#291=ORIENTED_EDGE('',*,*,#351,.T.);
#292=ORIENTED_EDGE('',*,*,#351,.F.);
#293=ORIENTED_EDGE('',*,*,#352,.T.);
#294=ORIENTED_EDGE('',*,*,#352,.F.);
#295=ORIENTED_EDGE('',*,*,#353,.T.);
#296=ORIENTED_EDGE('',*,*,#353,.F.);
#297=ORIENTED_EDGE('',*,*,#354,.T.);
#298=ORIENTED_EDGE('',*,*,#354,.F.);
#299=ORIENTED_EDGE('',*,*,#355,.T.);
#300=ORIENTED_EDGE('',*,*,#355,.F.);
#301=ORIENTED_EDGE('',*,*,#344,.T.);
#302=ORIENTED_EDGE('',*,*,#356,.F.);
#303=ORIENTED_EDGE('',*,*,#357,.T.);
#304=ORIENTED_EDGE('',*,*,#358,.F.);
#305=ORIENTED_EDGE('',*,*,#356,.T.);
#306=ORIENTED_EDGE('',*,*,#359,.F.);
#307=ORIENTED_EDGE('',*,*,#358,.T.);
#308=ORIENTED_EDGE('',*,*,#360,.F.);
#309=ORIENTED_EDGE('',*,*,#359,.T.);
#310=ORIENTED_EDGE('',*,*,#361,.F.);
#311=ORIENTED_EDGE('',*,*,#360,.T.);
#312=ORIENTED_EDGE('',*,*,#362,.F.);
#313=ORIENTED_EDGE('',*,*,#361,.T.);
#314=ORIENTED_EDGE('',*,*,#363,.F.);
#315=ORIENTED_EDGE('',*,*,#362,.T.);
#316=ORIENTED_EDGE('',*,*,#364,.F.);
#317=ORIENTED_EDGE('',*,*,#363,.T.);
#318=ORIENTED_EDGE('',*,*,#365,.F.);
#319=ORIENTED_EDGE('',*,*,#364,.T.);
#320=ORIENTED_EDGE('',*,*,#357,.F.);
#321=ORIENTED_EDGE('',*,*,#365,.T.);
#322=VERTEX_POINT('',#532);
#323=VERTEX_POINT('',#534);
#324=VERTEX_POINT('',#537);
#325=VERTEX_POINT('',#540);
#326=VERTEX_POINT('',#543);
#327=VERTEX_POINT('',#546);
#328=VERTEX_POINT('',#549);
#329=VERTEX_POINT('',#552);
#330=VERTEX_POINT('',#556);
#331=VERTEX_POINT('',#559);
#332=VERTEX_POINT('',#562);
#333=VERTEX_POINT('',#565);
#334=VERTEX_POINT('',#569);
#335=VERTEX_POINT('',#571);
#336=VERTEX_POINT('',#574);
#337=VERTEX_POINT('',#578);
#338=VERTEX_POINT('',#581);
#339=VERTEX_POINT('',#585);
#340=VERTEX_POINT('',#588);
#341=VERTEX_POINT('',#591);
#342=VERTEX_POINT('',#595);
#343=VERTEX_POINT('',#598);
#344=EDGE_CURVE('',#322,#322,#366,.T.);
#345=EDGE_CURVE('',#323,#323,#367,.T.);
#346=EDGE_CURVE('',#324,#324,#368,.T.);
#347=EDGE_CURVE('',#325,#325,#369,.T.);
#348=EDGE_CURVE('',#326,#326,#370,.T.);
#349=EDGE_CURVE('',#327,#327,#371,.T.);
#350=EDGE_CURVE('',#328,#328,#372,.T.);
#351=EDGE_CURVE('',#329,#329,#373,.T.);
#352=EDGE_CURVE('',#330,#330,#374,.T.);
#353=EDGE_CURVE('',#331,#331,#375,.T.);
#354=EDGE_CURVE('',#332,#332,#376,.T.);
#355=EDGE_CURVE('',#333,#333,#377,.T.);
#356=EDGE_CURVE('',#334,#334,#378,.T.);
#357=EDGE_CURVE('',#335,#335,#379,.T.);
#358=EDGE_CURVE('',#336,#336,#380,.T.);
#359=EDGE_CURVE('',#337,#337,#381,.T.);
#360=EDGE_CURVE('',#338,#338,#382,.T.);
#361=EDGE_CURVE('',#339,#339,#383,.T.);
#362=EDGE_CURVE('',#340,#340,#384,.T.);
#363=EDGE_CURVE('',#341,#341,#385,.T.);
#364=EDGE_CURVE('',#342,#342,#386,.T.);
#365=EDGE_CURVE('',#343,#343,#387,.T.);
#366=CIRCLE('',#389,6.6);
#367=CIRCLE('',#390,7.4);
#368=CIRCLE('',#392,7.4);
#369=CIRCLE('',#394,8.);
#370=CIRCLE('',#396,8.);
#371=CIRCLE('',#398,7.75);
#372=CIRCLE('',#400,7.75);
#373=CIRCLE('',#402,6.75);
#374=CIRCLE('',#405,1.5569219381653);
#375=CIRCLE('',#407,2.2569219381653);
#376=CIRCLE('',#409,2.3);
#377=CIRCLE('',#411,3.);
#378=CIRCLE('',#414,7.62543669176802);
#379=CIRCLE('',#415,6.0429769220422);
#380=CIRCLE('',#417,7.99896016144886);
#381=CIRCLE('',#419,7.95698397185646);
#382=CIRCLE('',#421,7.62708984889247);
#383=CIRCLE('',#423,6.50271741669097);
#384=CIRCLE('',#425,5.44887141882013);
#385=CIRCLE('',#427,5.07534794913931);
#386=CIRCLE('',#429,4.03246701611886);
#387=CIRCLE('',#431,4.36236081429626);
#388=AXIS2_PLACEMENT_3D('',#530,#434,#435);
#389=AXIS2_PLACEMENT_3D('',#531,#436,#437);
#390=AXIS2_PLACEMENT_3D('',#533,#438,#439);
#391=AXIS2_PLACEMENT_3D('',#535,#440,#441);
#392=AXIS2_PLACEMENT_3D('',#536,#442,#443);
#393=AXIS2_PLACEMENT_3D('',#538,#444,#445);
#394=AXIS2_PLACEMENT_3D('',#539,#446,#447);
#395=AXIS2_PLACEMENT_3D('',#541,#448,#449);
#396=AXIS2_PLACEMENT_3D('',#542,#450,#451);
#397=AXIS2_PLACEMENT_3D('',#544,#452,#453);
#398=AXIS2_PLACEMENT_3D('',#545,#454,#455);
#399=AXIS2_PLACEMENT_3D('',#547,#456,#457);
#400=AXIS2_PLACEMENT_3D('',#548,#458,#459);
#401=AXIS2_PLACEMENT_3D('',#550,#460,#461);
#402=AXIS2_PLACEMENT_3D('',#551,#462,#463);
#403=AXIS2_PLACEMENT_3D('',#553,#464,#465);
#404=AXIS2_PLACEMENT_3D('',#554,#466,#467);
#405=AXIS2_PLACEMENT_3D('',#555,#468,#469);
#406=AXIS2_PLACEMENT_3D('',#557,#470,#471);
#407=AXIS2_PLACEMENT_3D('',#558,#472,#473);
#408=AXIS2_PLACEMENT_3D('',#560,#474,#475);
#409=AXIS2_PLACEMENT_3D('',#561,#476,#477);
#410=AXIS2_PLACEMENT_3D('',#563,#478,#479);
#411=AXIS2_PLACEMENT_3D('',#564,#480,#481);
#412=AXIS2_PLACEMENT_3D('',#566,#482,#483);
#413=AXIS2_PLACEMENT_3D('',#567,#484,#485);
#414=AXIS2_PLACEMENT_3D('',#568,#486,#487);
#415=AXIS2_PLACEMENT_3D('',#570,#488,#489);
#416=AXIS2_PLACEMENT_3D('',#572,#490,#491);
#417=AXIS2_PLACEMENT_3D('',#573,#492,#493);
#418=AXIS2_PLACEMENT_3D('',#575,#494,#495);
#419=AXIS2_PLACEMENT_3D('',#577,#497,#498);
#420=AXIS2_PLACEMENT_3D('',#579,#499,#500);
#421=AXIS2_PLACEMENT_3D('',#580,#501,#502);
#422=AXIS2_PLACEMENT_3D('',#582,#503,#504);
#423=AXIS2_PLACEMENT_3D('',#584,#506,#507);
#424=AXIS2_PLACEMENT_3D('',#586,#508,#509);
#425=AXIS2_PLACEMENT_3D('',#587,#510,#511);
#426=AXIS2_PLACEMENT_3D('',#589,#512,#513);
#427=AXIS2_PLACEMENT_3D('',#590,#514,#515);
#428=AXIS2_PLACEMENT_3D('',#592,#516,#517);
#429=AXIS2_PLACEMENT_3D('',#594,#519,#520);
#430=AXIS2_PLACEMENT_3D('',#596,#521,#522);
#431=AXIS2_PLACEMENT_3D('',#597,#523,#524);
#432=AXIS2_PLACEMENT_3D('',#599,#525,#526);
#433=AXIS2_PLACEMENT_3D('',#601,#528,#529);
#434=DIRECTION('',(0.,0.,1.));
#435=DIRECTION('',(1.,0.,0.));
#436=DIRECTION('',(-1.,0.,0.));
#437=DIRECTION('',(0.,0.,1.));
#438=DIRECTION('',(-1.,0.,0.));
#439=DIRECTION('',(0.,0.,1.));
#440=DIRECTION('',(-1.,0.,0.));
#441=DIRECTION('',(0.,0.,1.));
#442=DIRECTION('',(-1.,0.,0.));
#443=DIRECTION('',(0.,0.,1.));
#444=DIRECTION('',(-1.,0.,0.));
#445=DIRECTION('',(0.,0.,1.));
#446=DIRECTION('',(-1.,0.,0.));
#447=DIRECTION('',(0.,0.,1.));
#448=DIRECTION('',(1.,0.,0.));
#449=DIRECTION('',(4.14899077389981E-17,0.,-1.));
#450=DIRECTION('',(-1.,0.,0.));
#451=DIRECTION('',(0.,0.,1.));
#452=DIRECTION('',(-1.,0.,0.));
#453=DIRECTION('',(0.,0.,1.));
#454=DIRECTION('',(-1.,0.,0.));
#455=DIRECTION('',(0.,0.,1.));
#456=DIRECTION('',(-1.,0.,0.));
#457=DIRECTION('',(-1.5078243628728E-16,0.,1.));
#458=DIRECTION('',(-1.,0.,0.));
#459=DIRECTION('',(0.,0.,1.));
#460=DIRECTION('',(-1.,0.,0.));
#461=DIRECTION('',(0.,0.,1.));
#462=DIRECTION('',(-1.,0.,0.));
#463=DIRECTION('',(0.,0.,1.));
#464=DIRECTION('',(-1.,0.,0.));
#465=DIRECTION('',(0.,0.,1.));
#466=DIRECTION('',(-1.,0.,0.));
#467=DIRECTION('',(0.,0.,1.));
#468=DIRECTION('',(-1.,0.,0.));
#469=DIRECTION('',(0.,0.,1.));
#470=DIRECTION('',(1.,0.,0.));
#471=DIRECTION('',(0.,0.,-1.));
#472=DIRECTION('',(-1.,0.,0.));
#473=DIRECTION('',(0.,0.,1.));
#474=DIRECTION('',(-1.,0.,0.));
#475=DIRECTION('',(0.,0.,1.));
#476=DIRECTION('',(-1.,0.,0.));
#477=DIRECTION('',(0.,0.,1.));
#478=DIRECTION('',(-1.,0.,0.));
#479=DIRECTION('',(2.90687448009699E-17,0.,1.));
#480=DIRECTION('',(-1.,0.,0.));
#481=DIRECTION('',(0.,0.,1.));
#482=DIRECTION('',(-1.,0.,0.));
#483=DIRECTION('',(0.,0.,1.));
#484=DIRECTION('',(1.,0.,0.));
#485=DIRECTION('',(0.,0.,-1.));
#486=DIRECTION('',(1.,0.,0.));
#487=DIRECTION('',(0.,0.,-1.));
#488=DIRECTION('',(1.,0.,0.));
#489=DIRECTION('',(0.,0.,-1.));
#490=DIRECTION('',(-1.,0.,0.));
#491=DIRECTION('',(2.72182134854785E-19,0.,1.));
#492=DIRECTION('',(1.,0.,0.));
#493=DIRECTION('',(0.,0.,-1.));
#494=DIRECTION('',(0.,0.,1.));
#495=DIRECTION('',(0.978140074739914,-0.207947094684672,0.));
#496=DIRECTION('',(1.,0.,0.));
#497=DIRECTION('',(1.,0.,0.));
#498=DIRECTION('',(0.,0.,-1.));
#499=DIRECTION('',(-1.,0.,0.));
#500=DIRECTION('',(-1.77756124616971E-16,0.,1.));
#501=DIRECTION('',(1.,0.,0.));
#502=DIRECTION('',(0.,0.,-1.));
#503=DIRECTION('',(0.,0.,1.));
#504=DIRECTION('',(-0.98212693364352,0.188219781670198,0.));
#505=DIRECTION('',(1.,0.,0.));
#506=DIRECTION('',(1.,0.,0.));
#507=DIRECTION('',(0.,0.,-1.));
#508=DIRECTION('',(-1.,0.,0.));
#509=DIRECTION('',(-3.2517707417263E-19,0.,1.));
#510=DIRECTION('',(1.,0.,0.));
#511=DIRECTION('',(0.,0.,-1.));
#512=DIRECTION('',(1.,0.,0.));
#513=DIRECTION('',(-4.48157261353374E-18,0.,-1.));
#514=DIRECTION('',(1.,0.,0.));
#515=DIRECTION('',(0.,0.,-1.));
#516=DIRECTION('',(0.,0.,1.));
#517=DIRECTION('',(-0.978140074739913,0.207947094684673,0.));
#518=DIRECTION('',(1.,0.,0.));
#519=DIRECTION('',(1.,0.,0.));
#520=DIRECTION('',(0.,0.,-1.));
#521=DIRECTION('',(1.,0.,0.));
#522=DIRECTION('',(-2.42779457859154E-16,0.,-1.));
#523=DIRECTION('',(1.,0.,0.));
#524=DIRECTION('',(0.,0.,-1.));
#525=DIRECTION('',(0.,0.,1.));
#526=DIRECTION('',(0.982126933643519,-0.188219781670201,0.));
#527=DIRECTION('',(1.,0.,0.));
#528=DIRECTION('',(-1.,0.,0.));
#529=DIRECTION('',(1.87860656407572E-18,0.,1.));
#530=CARTESIAN_POINT('',(0.,0.,0.));
#531=CARTESIAN_POINT('',(0.7,0.,0.));
#532=CARTESIAN_POINT('',(0.7,0.,6.6));
#533=CARTESIAN_POINT('',(1.5,0.,0.));
#534=CARTESIAN_POINT('',(1.5,0.,7.4));
#535=CARTESIAN_POINT('',(1.5,0.,0.));
#536=CARTESIAN_POINT('',(26.9607695154587,0.,0.));
#537=CARTESIAN_POINT('',(26.9607695154587,0.,7.4));
#538=CARTESIAN_POINT('',(0.,0.,0.));
#539=CARTESIAN_POINT('',(28.,0.,0.));
#540=CARTESIAN_POINT('',(28.,0.,8.));
#541=CARTESIAN_POINT('',(28.,0.,0.));
#542=CARTESIAN_POINT('',(94.5821795450956,0.,0.));
#543=CARTESIAN_POINT('',(94.5821795450956,0.,8.));
#544=CARTESIAN_POINT('',(0.,0.,0.));
#545=CARTESIAN_POINT('',(96.,0.,0.));
#546=CARTESIAN_POINT('',(96.,0.,7.75));
#547=CARTESIAN_POINT('',(96.,0.,0.));
#548=CARTESIAN_POINT('',(99.,0.,0.));
#549=CARTESIAN_POINT('',(99.,0.,7.75));
#550=CARTESIAN_POINT('',(0.,0.,0.));
#551=CARTESIAN_POINT('',(100.,0.,0.));
#552=CARTESIAN_POINT('',(100.,0.,6.75));
#553=CARTESIAN_POINT('',(99.,0.,0.));
#554=CARTESIAN_POINT('',(100.,6.75,0.));
#555=CARTESIAN_POINT('',(1.1,0.,0.));
#556=CARTESIAN_POINT('',(1.1,0.,1.5569219381653));
#557=CARTESIAN_POINT('',(1.1,1.5569219381653,0.));
#558=CARTESIAN_POINT('',(0.912435565298214,0.,0.));
#559=CARTESIAN_POINT('',(0.912435565298214,0.,2.2569219381653));
#560=CARTESIAN_POINT('',(-0.3,0.,0.));
#561=CARTESIAN_POINT('',(0.887564434701787,0.,0.));
#562=CARTESIAN_POINT('',(0.887564434701787,0.,2.3));
#563=CARTESIAN_POINT('',(0.887564434701787,0.,0.));
#564=CARTESIAN_POINT('',(0.7,0.,0.));
#565=CARTESIAN_POINT('',(0.7,0.,3.));
#566=CARTESIAN_POINT('',(2.1,0.,0.));
#567=CARTESIAN_POINT('',(0.7,6.6,0.));
#568=CARTESIAN_POINT('',(-0.00869132643913572,0.,0.));
#569=CARTESIAN_POINT('',(-0.00869132643913572,0.,-7.62543669176802));
#570=CARTESIAN_POINT('',(0.0130990378989029,0.,0.));
#571=CARTESIAN_POINT('',(0.0130990378989029,0.,-6.0429769220422));
#572=CARTESIAN_POINT('',(0.0130990378989029,0.,0.));
#573=CARTESIAN_POINT('',(0.391777585101341,0.,0.));
#574=CARTESIAN_POINT('',(0.391777585101341,0.,-7.99896016144886));
#575=CARTESIAN_POINT('',(0.390090898969713,-7.6349110988387,0.));
#576=CARTESIAN_POINT('',(0.,0.,0.));
#577=CARTESIAN_POINT('',(8.13692486298371,0.,0.));
#578=CARTESIAN_POINT('',(8.13692486298371,0.,-7.95698397185646));
#579=CARTESIAN_POINT('',(0.391777585101341,0.,0.));
#580=CARTESIAN_POINT('',(8.53511853251066,0.,0.));
#581=CARTESIAN_POINT('',(8.53511853251066,0.,-7.62708984889247));
#582=CARTESIAN_POINT('',(8.13691928307396,-7.59299044068423,0.));
#583=CARTESIAN_POINT('',(0.,0.,0.));
#584=CARTESIAN_POINT('',(8.57728372126173,0.,0.));
#585=CARTESIAN_POINT('',(8.57728372126173,0.,-6.50271741669097));
#586=CARTESIAN_POINT('',(8.53511853251066,0.,0.));
#587=CARTESIAN_POINT('',(8.51243494445058,0.,0.));
#588=CARTESIAN_POINT('',(8.51243494445058,0.,-5.44887141882013));
#589=CARTESIAN_POINT('',(8.57728372126173,0.,0.));
#590=CARTESIAN_POINT('',(8.11196603291013,0.,0.));
#591=CARTESIAN_POINT('',(8.11196603291013,0.,-5.07534794913931));
#592=CARTESIAN_POINT('',(8.11365271904174,-5.43939701174948,0.));
#593=CARTESIAN_POINT('',(0.,0.,0.));
#594=CARTESIAN_POINT('',(0.545533833516033,0.,0.));
#595=CARTESIAN_POINT('',(0.545533833516033,0.,-4.03246701611886));
#596=CARTESIAN_POINT('',(8.11196603291013,0.,0.));
#597=CARTESIAN_POINT('',(0.147340184541077,0.,0.));
#598=CARTESIAN_POINT('',(0.147340184541077,0.,-4.36236081429626));
#599=CARTESIAN_POINT('',(0.545539413425788,-4.39646054729109,0.));
#600=CARTESIAN_POINT('',(0.,0.,0.));
#601=CARTESIAN_POINT('',(0.147340184541077,0.,0.));
#602=(
GEOMETRIC_REPRESENTATION_CONTEXT(3)
GLOBAL_UNCERTAINTY_ASSIGNED_CONTEXT((#603))
GLOBAL_UNIT_ASSIGNED_CONTEXT((#609,#605,#604))
REPRESENTATION_CONTEXT('AEM90-LN08-D16-C16-L100-Z02-H',
'TOP_LEVEL_ASSEMBLY_PART')
);
#603=UNCERTAINTY_MEASURE_WITH_UNIT(LENGTH_MEASURE(2.E-5),#609,
'DISTANCE_ACCURACY_VALUE','Maximum Tolerance applied to model');
#604=(
NAMED_UNIT(*)
SI_UNIT($,.STERADIAN.)
SOLID_ANGLE_UNIT()
);
#605=(
CONVERSION_BASED_UNIT('DEGREE',#607)
NAMED_UNIT(#606)
PLANE_ANGLE_UNIT()
);
#606=DIMENSIONAL_EXPONENTS(0.,0.,0.,0.,0.,0.,0.);
#607=PLANE_ANGLE_MEASURE_WITH_UNIT(PLANE_ANGLE_MEASURE(0.0174532925),#608);
#608=(
NAMED_UNIT(*)
PLANE_ANGLE_UNIT()
SI_UNIT($,.RADIAN.)
);
#609=(
LENGTH_UNIT()
NAMED_UNIT(*)
SI_UNIT(.MILLI.,.METRE.)
);
ENDSEC;
END-ISO-10303-21;
