ISO-10303-21;
HEADER;
/* Generated by software containing ST-Developer
 * from STEP Tools, Inc. (www.steptools.com) 
 */
/* OPTION: using custom schema-name function */

FILE_DESCRIPTION(
/* description */ (''),
/* implementation_level */ '2;1');

FILE_NAME(
/* name */ 'AEM90-LN08-D25-W25-L100-Z03-H.stp',
/* time_stamp */ '2023-10-23T18:41:16+03:00',
/* author */ (''),
/* organization */ (''),
/* preprocessor_version */ 'ST-DEVELOPER v19.4',
/* originating_system */ 'SIEMENS PLM Software NX2306.3001',
/* authorisation */ '');

FILE_SCHEMA (('AUTOMOTIVE_DESIGN { 1 0 10303 214 3 1 1 1 }'));
ENDSEC;

DATA;
#10=SHAPE_REPRESENTATION_RELATIONSHIP('None',
'relationship between AEM90-LN08-D25-W25-L100-Z03-H-None and AEM90-LN0
8-D25-W25-L100-Z03-H-None',#22,#11);
#11=ADVANCED_BREP_SHAPE_REPRESENTATION(
'AEM90-LN08-D25-W25-L100-Z03-H-None',(#151,#152),#629);
#12=SHAPE_DEFINITION_REPRESENTATION(#13,#22);
#13=PRODUCT_DEFINITION_SHAPE('','',#14);
#14=PRODUCT_DEFINITION(' ','',#16,#15);
#15=PRODUCT_DEFINITION_CONTEXT('part definition',#21,'design');
#16=PRODUCT_DEFINITION_FORMATION_WITH_SPECIFIED_SOURCE(' ',' ',#18,
 .NOT_KNOWN.);
#17=PRODUCT_RELATED_PRODUCT_CATEGORY('part','',(#18));
#18=PRODUCT('AEM90-LN08-D25-W25-L100-Z03-H',
'AEM90-LN08-D25-W25-L100-Z03-H',' ',(#19));
#19=PRODUCT_CONTEXT(' ',#21,'mechanical');
#20=APPLICATION_PROTOCOL_DEFINITION('international standard',
'automotive_design',2010,#21);
#21=APPLICATION_CONTEXT(
'core data for automotive mechanical design processes');
#22=SHAPE_REPRESENTATION('AEM90-LN08-D25-W25-L100-Z03-H-None',(#406),#629);
#23=DRAUGHTING_PRE_DEFINED_COLOUR('yellow');
#24=SURFACE_OF_REVOLUTION('',#32,#28);
#25=SURFACE_OF_REVOLUTION('',#33,#29);
#26=SURFACE_OF_REVOLUTION('',#34,#30);
#27=SURFACE_OF_REVOLUTION('',#35,#31);
#28=AXIS1_PLACEMENT('',#603,#520);
#29=AXIS1_PLACEMENT('',#610,#529);
#30=AXIS1_PLACEMENT('',#620,#542);
#31=AXIS1_PLACEMENT('',#627,#551);
#32=ELLIPSE('',#438,0.400508528599424,0.375211760029163);
#33=ELLIPSE('',#442,0.400182503819869,0.375555020873267);
#34=ELLIPSE('',#448,0.400508528599424,0.375211760029163);
#35=ELLIPSE('',#452,0.400182503819869,0.375555020873267);
#36=OVER_RIDING_STYLED_ITEM('',(#54),#172,#51);
#37=OVER_RIDING_STYLED_ITEM('',(#55),#173,#51);
#38=OVER_RIDING_STYLED_ITEM('',(#56),#174,#51);
#39=OVER_RIDING_STYLED_ITEM('',(#57),#175,#51);
#40=OVER_RIDING_STYLED_ITEM('',(#58),#176,#51);
#41=OVER_RIDING_STYLED_ITEM('',(#59),#177,#51);
#42=OVER_RIDING_STYLED_ITEM('',(#60),#178,#51);
#43=OVER_RIDING_STYLED_ITEM('',(#61),#179,#51);
#44=OVER_RIDING_STYLED_ITEM('',(#62),#180,#51);
#45=OVER_RIDING_STYLED_ITEM('',(#63),#181,#51);
#46=OVER_RIDING_STYLED_ITEM('',(#64),#182,#51);
#47=OVER_RIDING_STYLED_ITEM('',(#65),#183,#51);
#48=OVER_RIDING_STYLED_ITEM('',(#66),#184,#51);
#49=OVER_RIDING_STYLED_ITEM('',(#67),#185,#51);
#50=PRESENTATION_LAYER_ASSIGNMENT('1','Layer 1',(#151,#152));
#51=STYLED_ITEM('',(#53),#151);
#52=STYLED_ITEM('',(#68),#152);
#53=PRESENTATION_STYLE_ASSIGNMENT((#69));
#54=PRESENTATION_STYLE_ASSIGNMENT((#70));
#55=PRESENTATION_STYLE_ASSIGNMENT((#71));
#56=PRESENTATION_STYLE_ASSIGNMENT((#72));
#57=PRESENTATION_STYLE_ASSIGNMENT((#73));
#58=PRESENTATION_STYLE_ASSIGNMENT((#74));
#59=PRESENTATION_STYLE_ASSIGNMENT((#75));
#60=PRESENTATION_STYLE_ASSIGNMENT((#76));
#61=PRESENTATION_STYLE_ASSIGNMENT((#77));
#62=PRESENTATION_STYLE_ASSIGNMENT((#78));
#63=PRESENTATION_STYLE_ASSIGNMENT((#79));
#64=PRESENTATION_STYLE_ASSIGNMENT((#80));
#65=PRESENTATION_STYLE_ASSIGNMENT((#81));
#66=PRESENTATION_STYLE_ASSIGNMENT((#82));
#67=PRESENTATION_STYLE_ASSIGNMENT((#83));
#68=PRESENTATION_STYLE_ASSIGNMENT((#84));
#69=SURFACE_STYLE_USAGE(.BOTH.,#85);
#70=SURFACE_STYLE_USAGE(.BOTH.,#86);
#71=SURFACE_STYLE_USAGE(.BOTH.,#87);
#72=SURFACE_STYLE_USAGE(.BOTH.,#88);
#73=SURFACE_STYLE_USAGE(.BOTH.,#89);
#74=SURFACE_STYLE_USAGE(.BOTH.,#90);
#75=SURFACE_STYLE_USAGE(.BOTH.,#91);
#76=SURFACE_STYLE_USAGE(.BOTH.,#92);
#77=SURFACE_STYLE_USAGE(.BOTH.,#93);
#78=SURFACE_STYLE_USAGE(.BOTH.,#94);
#79=SURFACE_STYLE_USAGE(.BOTH.,#95);
#80=SURFACE_STYLE_USAGE(.BOTH.,#96);
#81=SURFACE_STYLE_USAGE(.BOTH.,#97);
#82=SURFACE_STYLE_USAGE(.BOTH.,#98);
#83=SURFACE_STYLE_USAGE(.BOTH.,#99);
#84=SURFACE_STYLE_USAGE(.BOTH.,#100);
#85=SURFACE_SIDE_STYLE('',(#101));
#86=SURFACE_SIDE_STYLE('',(#102));
#87=SURFACE_SIDE_STYLE('',(#103));
#88=SURFACE_SIDE_STYLE('',(#104));
#89=SURFACE_SIDE_STYLE('',(#105));
#90=SURFACE_SIDE_STYLE('',(#106));
#91=SURFACE_SIDE_STYLE('',(#107));
#92=SURFACE_SIDE_STYLE('',(#108));
#93=SURFACE_SIDE_STYLE('',(#109));
#94=SURFACE_SIDE_STYLE('',(#110));
#95=SURFACE_SIDE_STYLE('',(#111));
#96=SURFACE_SIDE_STYLE('',(#112));
#97=SURFACE_SIDE_STYLE('',(#113));
#98=SURFACE_SIDE_STYLE('',(#114));
#99=SURFACE_SIDE_STYLE('',(#115));
#100=SURFACE_SIDE_STYLE('',(#116));
#101=SURFACE_STYLE_FILL_AREA(#117);
#102=SURFACE_STYLE_FILL_AREA(#118);
#103=SURFACE_STYLE_FILL_AREA(#119);
#104=SURFACE_STYLE_FILL_AREA(#120);
#105=SURFACE_STYLE_FILL_AREA(#121);
#106=SURFACE_STYLE_FILL_AREA(#122);
#107=SURFACE_STYLE_FILL_AREA(#123);
#108=SURFACE_STYLE_FILL_AREA(#124);
#109=SURFACE_STYLE_FILL_AREA(#125);
#110=SURFACE_STYLE_FILL_AREA(#126);
#111=SURFACE_STYLE_FILL_AREA(#127);
#112=SURFACE_STYLE_FILL_AREA(#128);
#113=SURFACE_STYLE_FILL_AREA(#129);
#114=SURFACE_STYLE_FILL_AREA(#130);
#115=SURFACE_STYLE_FILL_AREA(#131);
#116=SURFACE_STYLE_FILL_AREA(#132);
#117=FILL_AREA_STYLE('',(#133));
#118=FILL_AREA_STYLE('',(#134));
#119=FILL_AREA_STYLE('',(#135));
#120=FILL_AREA_STYLE('',(#136));
#121=FILL_AREA_STYLE('',(#137));
#122=FILL_AREA_STYLE('',(#138));
#123=FILL_AREA_STYLE('',(#139));
#124=FILL_AREA_STYLE('',(#140));
#125=FILL_AREA_STYLE('',(#141));
#126=FILL_AREA_STYLE('',(#142));
#127=FILL_AREA_STYLE('',(#143));
#128=FILL_AREA_STYLE('',(#144));
#129=FILL_AREA_STYLE('',(#145));
#130=FILL_AREA_STYLE('',(#146));
#131=FILL_AREA_STYLE('',(#147));
#132=FILL_AREA_STYLE('',(#148));
#133=FILL_AREA_STYLE_COLOUR('',#149);
#134=FILL_AREA_STYLE_COLOUR('',#150);
#135=FILL_AREA_STYLE_COLOUR('',#150);
#136=FILL_AREA_STYLE_COLOUR('',#150);
#137=FILL_AREA_STYLE_COLOUR('',#150);
#138=FILL_AREA_STYLE_COLOUR('',#150);
#139=FILL_AREA_STYLE_COLOUR('',#150);
#140=FILL_AREA_STYLE_COLOUR('',#150);
#141=FILL_AREA_STYLE_COLOUR('',#150);
#142=FILL_AREA_STYLE_COLOUR('',#150);
#143=FILL_AREA_STYLE_COLOUR('',#150);
#144=FILL_AREA_STYLE_COLOUR('',#150);
#145=FILL_AREA_STYLE_COLOUR('',#150);
#146=FILL_AREA_STYLE_COLOUR('',#150);
#147=FILL_AREA_STYLE_COLOUR('',#150);
#148=FILL_AREA_STYLE_COLOUR('',#23);
#149=COLOUR_RGB('Medium Steel',0.611764705882353,0.658823529411765,0.670588235294118);
#150=COLOUR_RGB('silver gray',0.6,0.6,0.6);
#151=MANIFOLD_SOLID_BREP('',#153);
#152=MANIFOLD_SOLID_BREP('',#154);
#153=CLOSED_SHELL('',(#172,#173,#174,#175,#176,#177,#178,#179,#180,#181,
#182,#183,#184,#185));
#154=CLOSED_SHELL('',(#186,#187,#188,#189,#190,#191,#192,#193,#194,#195));
#155=PLANE('',#424);
#156=PLANE('',#426);
#157=PLANE('',#433);
#158=FACE_OUTER_BOUND('',#261,.T.);
#159=FACE_OUTER_BOUND('',#262,.T.);
#160=CONICAL_SURFACE('',#415,12.5,30.);
#161=CONICAL_SURFACE('',#419,12.25,9.99999999999998);
#162=CONICAL_SURFACE('',#430,6.5,60.);
#163=CONICAL_SURFACE('',#436,10.5235840842613,89.4497163742694);
#164=CONICAL_SURFACE('',#440,12.499356088708,0.225841020362104);
#165=CONICAL_SURFACE('',#444,12.1233089523464,87.9360378456088);
#166=CONICAL_SURFACE('',#446,10.9106102109249,86.8000456371455);
#167=CONICAL_SURFACE('',#450,9.3930488107038,6.83443298659106);
#168=CONICAL_SURFACE('',#453,8.83024630525685,85.6977599640694);
#169=CYLINDRICAL_SURFACE('',#411,11.75);
#170=CYLINDRICAL_SURFACE('',#417,12.5);
#171=CYLINDRICAL_SURFACE('',#421,12.25);
#172=ADVANCED_FACE('',(#201,#202),#196,.T.);
#173=ADVANCED_FACE('',(#203,#204),#169,.T.);
#174=ADVANCED_FACE('',(#205,#206),#197,.F.);
#175=ADVANCED_FACE('',(#207,#208),#160,.T.);
#176=ADVANCED_FACE('',(#209,#210),#170,.T.);
#177=ADVANCED_FACE('',(#211,#212),#161,.T.);
#178=ADVANCED_FACE('',(#213,#214),#171,.T.);
#179=ADVANCED_FACE('',(#215,#216),#198,.T.);
#180=ADVANCED_FACE('',(#158),#155,.F.);
#181=ADVANCED_FACE('',(#159),#156,.F.);
#182=ADVANCED_FACE('',(#217,#218),#199,.F.);
#183=ADVANCED_FACE('',(#219,#220),#162,.F.);
#184=ADVANCED_FACE('',(#221,#222),#200,.T.);
#185=ADVANCED_FACE('',(#223,#224),#157,.F.);
#186=ADVANCED_FACE('',(#225,#226),#163,.F.);
#187=ADVANCED_FACE('',(#227,#228),#24,.T.);
#188=ADVANCED_FACE('',(#229,#230),#164,.T.);
#189=ADVANCED_FACE('',(#231,#232),#25,.T.);
#190=ADVANCED_FACE('',(#233,#234),#165,.T.);
#191=ADVANCED_FACE('',(#235,#236),#166,.F.);
#192=ADVANCED_FACE('',(#237,#238),#26,.T.);
#193=ADVANCED_FACE('',(#239,#240),#167,.F.);
#194=ADVANCED_FACE('',(#241,#242),#27,.T.);
#195=ADVANCED_FACE('',(#243,#244),#168,.F.);
#196=TOROIDAL_SURFACE('',#409,10.95,0.8);
#197=TOROIDAL_SURFACE('',#413,13.75,2.);
#198=TOROIDAL_SURFACE('',#423,11.25,1.);
#199=TOROIDAL_SURFACE('',#428,5.2157676649773,2.);
#200=TOROIDAL_SURFACE('',#432,7.5,2.);
#201=FACE_BOUND('',#245,.T.);
#202=FACE_BOUND('',#246,.T.);
#203=FACE_BOUND('',#247,.T.);
#204=FACE_BOUND('',#248,.T.);
#205=FACE_BOUND('',#249,.T.);
#206=FACE_BOUND('',#250,.T.);
#207=FACE_BOUND('',#251,.T.);
#208=FACE_BOUND('',#252,.T.);
#209=FACE_BOUND('',#253,.T.);
#210=FACE_BOUND('',#254,.T.);
#211=FACE_BOUND('',#255,.T.);
#212=FACE_BOUND('',#256,.T.);
#213=FACE_BOUND('',#257,.T.);
#214=FACE_BOUND('',#258,.T.);
#215=FACE_BOUND('',#259,.T.);
#216=FACE_BOUND('',#260,.T.);
#217=FACE_BOUND('',#263,.T.);
#218=FACE_BOUND('',#264,.T.);
#219=FACE_BOUND('',#265,.T.);
#220=FACE_BOUND('',#266,.T.);
#221=FACE_BOUND('',#267,.T.);
#222=FACE_BOUND('',#268,.T.);
#223=FACE_BOUND('',#269,.T.);
#224=FACE_BOUND('',#270,.T.);
#225=FACE_BOUND('',#271,.T.);
#226=FACE_BOUND('',#272,.T.);
#227=FACE_BOUND('',#273,.T.);
#228=FACE_BOUND('',#274,.T.);
#229=FACE_BOUND('',#275,.T.);
#230=FACE_BOUND('',#276,.T.);
#231=FACE_BOUND('',#277,.T.);
#232=FACE_BOUND('',#278,.T.);
#233=FACE_BOUND('',#279,.T.);
#234=FACE_BOUND('',#280,.T.);
#235=FACE_BOUND('',#281,.T.);
#236=FACE_BOUND('',#282,.T.);
#237=FACE_BOUND('',#283,.T.);
#238=FACE_BOUND('',#284,.T.);
#239=FACE_BOUND('',#285,.T.);
#240=FACE_BOUND('',#286,.T.);
#241=FACE_BOUND('',#287,.T.);
#242=FACE_BOUND('',#288,.T.);
#243=FACE_BOUND('',#289,.T.);
#244=FACE_BOUND('',#290,.T.);
#245=EDGE_LOOP('',(#291));
#246=EDGE_LOOP('',(#292));
#247=EDGE_LOOP('',(#293));
#248=EDGE_LOOP('',(#294));
#249=EDGE_LOOP('',(#295));
#250=EDGE_LOOP('',(#296));
#251=EDGE_LOOP('',(#297));
#252=EDGE_LOOP('',(#298));
#253=EDGE_LOOP('',(#299));
#254=EDGE_LOOP('',(#300));
#255=EDGE_LOOP('',(#301));
#256=EDGE_LOOP('',(#302));
#257=EDGE_LOOP('',(#303));
#258=EDGE_LOOP('',(#304));
#259=EDGE_LOOP('',(#305));
#260=EDGE_LOOP('',(#306));
#261=EDGE_LOOP('',(#307));
#262=EDGE_LOOP('',(#308));
#263=EDGE_LOOP('',(#309));
#264=EDGE_LOOP('',(#310));
#265=EDGE_LOOP('',(#311));
#266=EDGE_LOOP('',(#312));
#267=EDGE_LOOP('',(#313));
#268=EDGE_LOOP('',(#314));
#269=EDGE_LOOP('',(#315));
#270=EDGE_LOOP('',(#316));
#271=EDGE_LOOP('',(#317));
#272=EDGE_LOOP('',(#318));
#273=EDGE_LOOP('',(#319));
#274=EDGE_LOOP('',(#320));
#275=EDGE_LOOP('',(#321));
#276=EDGE_LOOP('',(#322));
#277=EDGE_LOOP('',(#323));
#278=EDGE_LOOP('',(#324));
#279=EDGE_LOOP('',(#325));
#280=EDGE_LOOP('',(#326));
#281=EDGE_LOOP('',(#327));
#282=EDGE_LOOP('',(#328));
#283=EDGE_LOOP('',(#329));
#284=EDGE_LOOP('',(#330));
#285=EDGE_LOOP('',(#331));
#286=EDGE_LOOP('',(#332));
#287=EDGE_LOOP('',(#333));
#288=EDGE_LOOP('',(#334));
#289=EDGE_LOOP('',(#335));
#290=EDGE_LOOP('',(#336));
#291=ORIENTED_EDGE('',*,*,#360,.F.);
#292=ORIENTED_EDGE('',*,*,#361,.T.);
#293=ORIENTED_EDGE('',*,*,#361,.F.);
#294=ORIENTED_EDGE('',*,*,#362,.T.);
#295=ORIENTED_EDGE('',*,*,#362,.F.);
#296=ORIENTED_EDGE('',*,*,#363,.T.);
#297=ORIENTED_EDGE('',*,*,#363,.F.);
#298=ORIENTED_EDGE('',*,*,#364,.T.);
#299=ORIENTED_EDGE('',*,*,#364,.F.);
#300=ORIENTED_EDGE('',*,*,#365,.T.);
#301=ORIENTED_EDGE('',*,*,#365,.F.);
#302=ORIENTED_EDGE('',*,*,#366,.T.);
#303=ORIENTED_EDGE('',*,*,#366,.F.);
#304=ORIENTED_EDGE('',*,*,#367,.T.);
#305=ORIENTED_EDGE('',*,*,#367,.F.);
#306=ORIENTED_EDGE('',*,*,#368,.T.);
#307=ORIENTED_EDGE('',*,*,#368,.F.);
#308=ORIENTED_EDGE('',*,*,#369,.T.);
#309=ORIENTED_EDGE('',*,*,#369,.F.);
#310=ORIENTED_EDGE('',*,*,#370,.T.);
#311=ORIENTED_EDGE('',*,*,#370,.F.);
#312=ORIENTED_EDGE('',*,*,#371,.T.);
#313=ORIENTED_EDGE('',*,*,#371,.F.);
#314=ORIENTED_EDGE('',*,*,#372,.T.);
#315=ORIENTED_EDGE('',*,*,#372,.F.);
#316=ORIENTED_EDGE('',*,*,#360,.T.);
#317=ORIENTED_EDGE('',*,*,#373,.F.);
#318=ORIENTED_EDGE('',*,*,#374,.T.);
#319=ORIENTED_EDGE('',*,*,#375,.F.);
#320=ORIENTED_EDGE('',*,*,#373,.T.);
#321=ORIENTED_EDGE('',*,*,#376,.F.);
#322=ORIENTED_EDGE('',*,*,#375,.T.);
#323=ORIENTED_EDGE('',*,*,#377,.F.);
#324=ORIENTED_EDGE('',*,*,#376,.T.);
#325=ORIENTED_EDGE('',*,*,#378,.F.);
#326=ORIENTED_EDGE('',*,*,#377,.T.);
#327=ORIENTED_EDGE('',*,*,#379,.F.);
#328=ORIENTED_EDGE('',*,*,#378,.T.);
#329=ORIENTED_EDGE('',*,*,#380,.F.);
#330=ORIENTED_EDGE('',*,*,#379,.T.);
#331=ORIENTED_EDGE('',*,*,#381,.F.);
#332=ORIENTED_EDGE('',*,*,#380,.T.);
#333=ORIENTED_EDGE('',*,*,#382,.F.);
#334=ORIENTED_EDGE('',*,*,#381,.T.);
#335=ORIENTED_EDGE('',*,*,#374,.F.);
#336=ORIENTED_EDGE('',*,*,#382,.T.);
#337=VERTEX_POINT('',#556);
#338=VERTEX_POINT('',#558);
#339=VERTEX_POINT('',#561);
#340=VERTEX_POINT('',#564);
#341=VERTEX_POINT('',#567);
#342=VERTEX_POINT('',#570);
#343=VERTEX_POINT('',#573);
#344=VERTEX_POINT('',#576);
#345=VERTEX_POINT('',#579);
#346=VERTEX_POINT('',#583);
#347=VERTEX_POINT('',#586);
#348=VERTEX_POINT('',#589);
#349=VERTEX_POINT('',#592);
#350=VERTEX_POINT('',#596);
#351=VERTEX_POINT('',#598);
#352=VERTEX_POINT('',#601);
#353=VERTEX_POINT('',#605);
#354=VERTEX_POINT('',#608);
#355=VERTEX_POINT('',#612);
#356=VERTEX_POINT('',#615);
#357=VERTEX_POINT('',#618);
#358=VERTEX_POINT('',#622);
#359=VERTEX_POINT('',#625);
#360=EDGE_CURVE('',#337,#337,#383,.T.);
#361=EDGE_CURVE('',#338,#338,#384,.T.);
#362=EDGE_CURVE('',#339,#339,#385,.T.);
#363=EDGE_CURVE('',#340,#340,#386,.T.);
#364=EDGE_CURVE('',#341,#341,#387,.T.);
#365=EDGE_CURVE('',#342,#342,#388,.T.);
#366=EDGE_CURVE('',#343,#343,#389,.T.);
#367=EDGE_CURVE('',#344,#344,#390,.T.);
#368=EDGE_CURVE('',#345,#345,#391,.T.);
#369=EDGE_CURVE('',#346,#346,#392,.T.);
#370=EDGE_CURVE('',#347,#347,#393,.T.);
#371=EDGE_CURVE('',#348,#348,#394,.T.);
#372=EDGE_CURVE('',#349,#349,#395,.T.);
#373=EDGE_CURVE('',#350,#350,#396,.T.);
#374=EDGE_CURVE('',#351,#351,#397,.T.);
#375=EDGE_CURVE('',#352,#352,#398,.T.);
#376=EDGE_CURVE('',#353,#353,#399,.T.);
#377=EDGE_CURVE('',#354,#354,#400,.T.);
#378=EDGE_CURVE('',#355,#355,#401,.T.);
#379=EDGE_CURVE('',#356,#356,#402,.T.);
#380=EDGE_CURVE('',#357,#357,#403,.T.);
#381=EDGE_CURVE('',#358,#358,#404,.T.);
#382=EDGE_CURVE('',#359,#359,#405,.T.);
#383=CIRCLE('',#407,10.95);
#384=CIRCLE('',#408,11.75);
#385=CIRCLE('',#410,11.75);
#386=CIRCLE('',#412,12.0179491924311);
#387=CIRCLE('',#414,12.5);
#388=CIRCLE('',#416,12.5);
#389=CIRCLE('',#418,12.25);
#390=CIRCLE('',#420,12.25);
#391=CIRCLE('',#422,11.25);
#392=CIRCLE('',#425,5.2157676649773);
#393=CIRCLE('',#427,6.2157676649773);
#394=CIRCLE('',#429,6.5);
#395=CIRCLE('',#431,7.5);
#396=CIRCLE('',#434,12.1170812228248);
#397=CIRCLE('',#435,10.5235840842613);
#398=CIRCLE('',#437,12.499356088708);
#399=CIRCLE('',#439,12.468842476229);
#400=CIRCLE('',#441,12.1233089523464);
#401=CIRCLE('',#443,10.9106102109249);
#402=CIRCLE('',#445,9.77532367658703);
#403=CIRCLE('',#447,9.3930488107038);
#404=CIRCLE('',#449,8.48471311764994);
#405=CIRCLE('',#451,8.83024630525685);
#406=AXIS2_PLACEMENT_3D('',#554,#454,#455);
#407=AXIS2_PLACEMENT_3D('',#555,#456,#457);
#408=AXIS2_PLACEMENT_3D('',#557,#458,#459);
#409=AXIS2_PLACEMENT_3D('',#559,#460,#461);
#410=AXIS2_PLACEMENT_3D('',#560,#462,#463);
#411=AXIS2_PLACEMENT_3D('',#562,#464,#465);
#412=AXIS2_PLACEMENT_3D('',#563,#466,#467);
#413=AXIS2_PLACEMENT_3D('',#565,#468,#469);
#414=AXIS2_PLACEMENT_3D('',#566,#470,#471);
#415=AXIS2_PLACEMENT_3D('',#568,#472,#473);
#416=AXIS2_PLACEMENT_3D('',#569,#474,#475);
#417=AXIS2_PLACEMENT_3D('',#571,#476,#477);
#418=AXIS2_PLACEMENT_3D('',#572,#478,#479);
#419=AXIS2_PLACEMENT_3D('',#574,#480,#481);
#420=AXIS2_PLACEMENT_3D('',#575,#482,#483);
#421=AXIS2_PLACEMENT_3D('',#577,#484,#485);
#422=AXIS2_PLACEMENT_3D('',#578,#486,#487);
#423=AXIS2_PLACEMENT_3D('',#580,#488,#489);
#424=AXIS2_PLACEMENT_3D('',#581,#490,#491);
#425=AXIS2_PLACEMENT_3D('',#582,#492,#493);
#426=AXIS2_PLACEMENT_3D('',#584,#494,#495);
#427=AXIS2_PLACEMENT_3D('',#585,#496,#497);
#428=AXIS2_PLACEMENT_3D('',#587,#498,#499);
#429=AXIS2_PLACEMENT_3D('',#588,#500,#501);
#430=AXIS2_PLACEMENT_3D('',#590,#502,#503);
#431=AXIS2_PLACEMENT_3D('',#591,#504,#505);
#432=AXIS2_PLACEMENT_3D('',#593,#506,#507);
#433=AXIS2_PLACEMENT_3D('',#594,#508,#509);
#434=AXIS2_PLACEMENT_3D('',#595,#510,#511);
#435=AXIS2_PLACEMENT_3D('',#597,#512,#513);
#436=AXIS2_PLACEMENT_3D('',#599,#514,#515);
#437=AXIS2_PLACEMENT_3D('',#600,#516,#517);
#438=AXIS2_PLACEMENT_3D('',#602,#518,#519);
#439=AXIS2_PLACEMENT_3D('',#604,#521,#522);
#440=AXIS2_PLACEMENT_3D('',#606,#523,#524);
#441=AXIS2_PLACEMENT_3D('',#607,#525,#526);
#442=AXIS2_PLACEMENT_3D('',#609,#527,#528);
#443=AXIS2_PLACEMENT_3D('',#611,#530,#531);
#444=AXIS2_PLACEMENT_3D('',#613,#532,#533);
#445=AXIS2_PLACEMENT_3D('',#614,#534,#535);
#446=AXIS2_PLACEMENT_3D('',#616,#536,#537);
#447=AXIS2_PLACEMENT_3D('',#617,#538,#539);
#448=AXIS2_PLACEMENT_3D('',#619,#540,#541);
#449=AXIS2_PLACEMENT_3D('',#621,#543,#544);
#450=AXIS2_PLACEMENT_3D('',#623,#545,#546);
#451=AXIS2_PLACEMENT_3D('',#624,#547,#548);
#452=AXIS2_PLACEMENT_3D('',#626,#549,#550);
#453=AXIS2_PLACEMENT_3D('',#628,#552,#553);
#454=DIRECTION('',(0.,0.,1.));
#455=DIRECTION('',(1.,0.,0.));
#456=DIRECTION('',(-1.,0.,0.));
#457=DIRECTION('',(0.,0.,1.));
#458=DIRECTION('',(-1.,0.,0.));
#459=DIRECTION('',(0.,0.,1.));
#460=DIRECTION('',(-1.,0.,0.));
#461=DIRECTION('',(0.,0.,1.));
#462=DIRECTION('',(-1.,0.,0.));
#463=DIRECTION('',(0.,0.,1.));
#464=DIRECTION('',(-1.,0.,0.));
#465=DIRECTION('',(0.,0.,1.));
#466=DIRECTION('',(-1.,0.,0.));
#467=DIRECTION('',(0.,0.,1.));
#468=DIRECTION('',(-1.,0.,0.));
#469=DIRECTION('',(0.,0.,1.));
#470=DIRECTION('',(-1.,0.,0.));
#471=DIRECTION('',(0.,0.,1.));
#472=DIRECTION('',(1.,0.,0.));
#473=DIRECTION('',(4.70552902413037E-17,0.,-1.));
#474=DIRECTION('',(-1.,0.,0.));
#475=DIRECTION('',(0.,0.,1.));
#476=DIRECTION('',(-1.,0.,0.));
#477=DIRECTION('',(0.,0.,1.));
#478=DIRECTION('',(-1.,0.,0.));
#479=DIRECTION('',(0.,0.,1.));
#480=DIRECTION('',(-1.,0.,0.));
#481=DIRECTION('',(-1.47184324997431E-16,0.,1.));
#482=DIRECTION('',(-1.,0.,0.));
#483=DIRECTION('',(0.,0.,1.));
#484=DIRECTION('',(-1.,0.,0.));
#485=DIRECTION('',(0.,0.,1.));
#486=DIRECTION('',(-1.,0.,0.));
#487=DIRECTION('',(0.,0.,1.));
#488=DIRECTION('',(-1.,0.,0.));
#489=DIRECTION('',(0.,0.,1.));
#490=DIRECTION('',(-1.,0.,0.));
#491=DIRECTION('',(0.,0.,1.));
#492=DIRECTION('',(-1.,0.,0.));
#493=DIRECTION('',(0.,0.,1.));
#494=DIRECTION('',(1.,0.,0.));
#495=DIRECTION('',(0.,0.,-1.));
#496=DIRECTION('',(-1.,0.,0.));
#497=DIRECTION('',(0.,0.,1.));
#498=DIRECTION('',(-1.,0.,0.));
#499=DIRECTION('',(0.,0.,1.));
#500=DIRECTION('',(-1.,0.,0.));
#501=DIRECTION('',(0.,0.,1.));
#502=DIRECTION('',(-1.,0.,0.));
#503=DIRECTION('',(1.44680789840346E-17,0.,1.));
#504=DIRECTION('',(-1.,0.,0.));
#505=DIRECTION('',(0.,0.,1.));
#506=DIRECTION('',(-1.,0.,0.));
#507=DIRECTION('',(0.,0.,1.));
#508=DIRECTION('',(1.,0.,0.));
#509=DIRECTION('',(0.,0.,-1.));
#510=DIRECTION('',(1.,0.,0.));
#511=DIRECTION('',(0.,0.,-1.));
#512=DIRECTION('',(1.,0.,0.));
#513=DIRECTION('',(0.,0.,-1.));
#514=DIRECTION('',(-1.,0.,0.));
#515=DIRECTION('',(-3.67193746058822E-19,0.,1.));
#516=DIRECTION('',(1.,0.,0.));
#517=DIRECTION('',(0.,0.,-1.));
#518=DIRECTION('',(0.,0.,1.));
#519=DIRECTION('',(-0.969383513271877,0.245551632445545,0.));
#520=DIRECTION('',(1.,0.,0.));
#521=DIRECTION('',(1.,0.,0.));
#522=DIRECTION('',(0.,0.,-1.));
#523=DIRECTION('',(-1.,0.,0.));
#524=DIRECTION('',(2.40698673012241E-16,0.,1.));
#525=DIRECTION('',(1.,0.,0.));
#526=DIRECTION('',(0.,0.,-1.));
#527=DIRECTION('',(0.,0.,1.));
#528=DIRECTION('',(0.976280663220133,-0.216508814191148,0.));
#529=DIRECTION('',(1.,0.,0.));
#530=DIRECTION('',(1.,0.,0.));
#531=DIRECTION('',(0.,0.,-1.));
#532=DIRECTION('',(-1.,0.,0.));
#533=DIRECTION('',(6.24895733908298E-20,0.,1.));
#534=DIRECTION('',(1.,0.,0.));
#535=DIRECTION('',(0.,0.,-1.));
#536=DIRECTION('',(1.,0.,0.));
#537=DIRECTION('',(7.75404718119931E-19,0.,-1.));
#538=DIRECTION('',(1.,0.,0.));
#539=DIRECTION('',(0.,0.,-1.));
#540=DIRECTION('',(0.,0.,1.));
#541=DIRECTION('',(0.969383513271877,-0.245551632445545,0.));
#542=DIRECTION('',(1.,0.,0.));
#543=DIRECTION('',(1.,0.,0.));
#544=DIRECTION('',(0.,0.,-1.));
#545=DIRECTION('',(1.,0.,0.));
#546=DIRECTION('',(6.97940736022535E-16,0.,-1.));
#547=DIRECTION('',(1.,0.,0.));
#548=DIRECTION('',(0.,0.,-1.));
#549=DIRECTION('',(0.,0.,1.));
#550=DIRECTION('',(-0.976280663220132,0.216508814191152,0.));
#551=DIRECTION('',(1.,0.,0.));
#552=DIRECTION('',(-1.,0.,0.));
#553=DIRECTION('',(-9.53667605254877E-19,0.,1.));
#554=CARTESIAN_POINT('',(0.,0.,0.));
#555=CARTESIAN_POINT('',(0.7,0.,0.));
#556=CARTESIAN_POINT('',(0.7,0.,10.95));
#557=CARTESIAN_POINT('',(1.5,0.,0.));
#558=CARTESIAN_POINT('',(1.5,0.,11.75));
#559=CARTESIAN_POINT('',(1.5,0.,0.));
#560=CARTESIAN_POINT('',(28.1650635094611,0.,0.));
#561=CARTESIAN_POINT('',(28.1650635094611,0.,11.75));
#562=CARTESIAN_POINT('',(0.,0.,0.));
#563=CARTESIAN_POINT('',(29.1650635094611,0.,0.));
#564=CARTESIAN_POINT('',(29.1650635094611,0.,12.0179491924311));
#565=CARTESIAN_POINT('',(28.1650635094611,0.,0.));
#566=CARTESIAN_POINT('',(30.,0.,0.));
#567=CARTESIAN_POINT('',(30.,0.,12.5));
#568=CARTESIAN_POINT('',(30.,0.,0.));
#569=CARTESIAN_POINT('',(94.5821795450956,0.,0.));
#570=CARTESIAN_POINT('',(94.5821795450956,0.,12.5));
#571=CARTESIAN_POINT('',(0.,0.,0.));
#572=CARTESIAN_POINT('',(96.,0.,0.));
#573=CARTESIAN_POINT('',(96.,0.,12.25));
#574=CARTESIAN_POINT('',(96.,0.,0.));
#575=CARTESIAN_POINT('',(99.,0.,0.));
#576=CARTESIAN_POINT('',(99.,0.,12.25));
#577=CARTESIAN_POINT('',(0.,0.,0.));
#578=CARTESIAN_POINT('',(100.,0.,0.));
#579=CARTESIAN_POINT('',(100.,0.,11.25));
#580=CARTESIAN_POINT('',(99.,0.,0.));
#581=CARTESIAN_POINT('',(100.,11.25,0.));
#582=CARTESIAN_POINT('',(1.4,0.,0.));
#583=CARTESIAN_POINT('',(1.4,0.,5.2157676649773));
#584=CARTESIAN_POINT('',(1.4,5.2157676649773,0.));
#585=CARTESIAN_POINT('',(1.13205080756888,0.,0.));
#586=CARTESIAN_POINT('',(1.13205080756888,0.,6.2157676649773));
#587=CARTESIAN_POINT('',(-0.6,0.,0.));
#588=CARTESIAN_POINT('',(0.967949192431125,0.,0.));
#589=CARTESIAN_POINT('',(0.967949192431125,0.,6.5));
#590=CARTESIAN_POINT('',(0.967949192431125,0.,0.));
#591=CARTESIAN_POINT('',(0.7,0.,0.));
#592=CARTESIAN_POINT('',(0.7,0.,7.5));
#593=CARTESIAN_POINT('',(2.7,0.,0.));
#594=CARTESIAN_POINT('',(0.7,10.95,0.));
#595=CARTESIAN_POINT('',(-0.00978267192809712,0.,0.));
#596=CARTESIAN_POINT('',(-0.00978267192809712,0.,-12.1170812228248));
#597=CARTESIAN_POINT('',(0.00552216121977804,0.,0.));
#598=CARTESIAN_POINT('',(0.00552216121977804,0.,-10.5235840842613));
#599=CARTESIAN_POINT('',(0.00552216121977804,0.,0.));
#600=CARTESIAN_POINT('',(0.391599014982643,0.,0.));
#601=CARTESIAN_POINT('',(0.391599014982643,0.,-12.499356088708));
#602=CARTESIAN_POINT('',(0.389193721375327,-12.1226890889588,0.));
#603=CARTESIAN_POINT('',(0.,0.,0.));
#604=CARTESIAN_POINT('',(8.1328506070147,0.,0.));
#605=CARTESIAN_POINT('',(8.1328506070147,0.,-12.468842476229));
#606=CARTESIAN_POINT('',(0.391599014982643,0.,0.));
#607=CARTESIAN_POINT('',(8.53056898752813,0.,0.));
#608=CARTESIAN_POINT('',(8.53056898752813,0.,-12.1233089523464));
#609=CARTESIAN_POINT('',(8.1321272689074,-12.0922152492774,0.));
#610=CARTESIAN_POINT('',(0.,0.,0.));
#611=CARTESIAN_POINT('',(8.57427286151811,0.,0.));
#612=CARTESIAN_POINT('',(8.57427286151811,0.,-10.9106102109249));
#613=CARTESIAN_POINT('',(8.53056898752813,0.,0.));
#614=CARTESIAN_POINT('',(8.51080139728126,0.,0.));
#615=CARTESIAN_POINT('',(8.51080139728126,0.,-9.77532367658703));
#616=CARTESIAN_POINT('',(8.57427286151811,0.,0.));
#617=CARTESIAN_POINT('',(8.10941971037051,0.,0.));
#618=CARTESIAN_POINT('',(8.10941971037051,0.,-9.3930488107038));
#619=CARTESIAN_POINT('',(8.11182500397783,-9.76971581045307,0.));
#620=CARTESIAN_POINT('',(0.,0.,0.));
#621=CARTESIAN_POINT('',(0.53062980620606,0.,0.));
#622=CARTESIAN_POINT('',(0.53062980620606,0.,-8.48471311764994));
#623=CARTESIAN_POINT('',(8.10941971037051,0.,0.));
#624=CARTESIAN_POINT('',(0.132911445613239,0.,0.));
#625=CARTESIAN_POINT('',(0.132911445613239,0.,-8.83024630525685));
#626=CARTESIAN_POINT('',(0.531353144313371,-8.8613403446016,0.));
#627=CARTESIAN_POINT('',(0.,0.,0.));
#628=CARTESIAN_POINT('',(0.132911445613239,0.,0.));
#629=(
GEOMETRIC_REPRESENTATION_CONTEXT(3)
GLOBAL_UNCERTAINTY_ASSIGNED_CONTEXT((#630))
GLOBAL_UNIT_ASSIGNED_CONTEXT((#636,#632,#631))
REPRESENTATION_CONTEXT('AEM90-LN08-D25-W25-L100-Z03-H',
'TOP_LEVEL_ASSEMBLY_PART')
);
#630=UNCERTAINTY_MEASURE_WITH_UNIT(LENGTH_MEASURE(2.E-5),#636,
'DISTANCE_ACCURACY_VALUE','Maximum Tolerance applied to model');
#631=(
NAMED_UNIT(*)
SI_UNIT($,.STERADIAN.)
SOLID_ANGLE_UNIT()
);
#632=(
CONVERSION_BASED_UNIT('DEGREE',#634)
NAMED_UNIT(#633)
PLANE_ANGLE_UNIT()
);
#633=DIMENSIONAL_EXPONENTS(0.,0.,0.,0.,0.,0.,0.);
#634=PLANE_ANGLE_MEASURE_WITH_UNIT(PLANE_ANGLE_MEASURE(0.0174532925),#635);
#635=(
NAMED_UNIT(*)
PLANE_ANGLE_UNIT()
SI_UNIT($,.RADIAN.)
);
#636=(
LENGTH_UNIT()
NAMED_UNIT(*)
SI_UNIT(.MILLI.,.METRE.)
);
ENDSEC;
END-ISO-10303-21;
