ISO-10303-21;
HEADER;
/* Generated by software containing ST-Developer
 * from STEP Tools, Inc. (www.steptools.com) 
 */
/* OPTION: using custom schema-name function */

FILE_DESCRIPTION(
/* description */ (''),
/* implementation_level */ '2;1');

FILE_NAME(
/* name */ 'AEM90-R390.11-D25-W25-L100-Z03-H.stp',
/* time_stamp */ '2023-10-25T21:04:25+03:00',
/* author */ (''),
/* organization */ (''),
/* preprocessor_version */ 'ST-DEVELOPER v19.4',
/* originating_system */ 'SIEMENS PLM Software NX2306.3001',
/* authorisation */ '');

FILE_SCHEMA (('AUTOMOTIVE_DESIGN { 1 0 10303 214 3 1 1 1 }'));
ENDSEC;

DATA;
#10=SHAPE_REPRESENTATION_RELATIONSHIP('None',
'relationship between AEM90-R390.11-D25-W25-L100-Z03-H-None and AEM90-
R390.11-D25-W25-L100-Z03-H-None',#22,#11);
#11=ADVANCED_BREP_SHAPE_REPRESENTATION(
'AEM90-R390.11-D25-W25-L100-Z03-H-None',(#165,#166),#611);
#12=SHAPE_DEFINITION_REPRESENTATION(#13,#22);
#13=PRODUCT_DEFINITION_SHAPE('','',#14);
#14=PRODUCT_DEFINITION(' ','',#16,#15);
#15=PRODUCT_DEFINITION_CONTEXT('part definition',#21,'design');
#16=PRODUCT_DEFINITION_FORMATION_WITH_SPECIFIED_SOURCE(' ',' ',#18,
 .NOT_KNOWN.);
#17=PRODUCT_RELATED_PRODUCT_CATEGORY('part','',(#18));
#18=PRODUCT('AEM90-R390.11-D25-W25-L100-Z03-H',
'AEM90-R390.11-D25-W25-L100-Z03-H',' ',(#19));
#19=PRODUCT_CONTEXT(' ',#21,'mechanical');
#20=APPLICATION_PROTOCOL_DEFINITION('international standard',
'automotive_design',2010,#21);
#21=APPLICATION_CONTEXT(
'core data for automotive mechanical design processes');
#22=SHAPE_REPRESENTATION('AEM90-R390.11-D25-W25-L100-Z03-H-None',(#376),
#611);
#23=DRAUGHTING_PRE_DEFINED_COLOUR('yellow');
#24=SURFACE_OF_REVOLUTION('',#32,#28);
#25=SURFACE_OF_REVOLUTION('',#33,#29);
#26=SURFACE_OF_REVOLUTION('',#34,#30);
#27=SURFACE_OF_REVOLUTION('',#35,#31);
#28=AXIS1_PLACEMENT('',#560,#480);
#29=AXIS1_PLACEMENT('',#574,#483);
#30=AXIS1_PLACEMENT('',#598,#486);
#31=AXIS1_PLACEMENT('',#610,#487);
#32=B_SPLINE_CURVE_WITH_KNOTS('',3,(#539,#540,#541,#542,#543,#544,#545,
#546,#547,#548,#549,#550,#551,#552,#553,#554,#555,#556,#557,#558,#559),
 .UNSPECIFIED.,.F.,.F.,(4,1,1,1,1,1,1,1,1,1,1,1,1,1,1,1,1,1,4),(0.,0.0625,
0.09375,0.125,0.1875,0.25,0.3125,0.375,0.4375,0.5,0.5625,0.625,0.6875,0.75,
0.8125,0.875,0.90625,0.9375,1.),.UNSPECIFIED.);
#33=B_SPLINE_CURVE_WITH_KNOTS('',3,(#563,#564,#565,#566,#567,#568,#569,
#570,#571,#572,#573),.UNSPECIFIED.,.F.,.F.,(4,1,1,1,1,1,1,1,4),(0.,0.0625,
0.125,0.25,0.5,0.75,0.875,0.9375,1.),.UNSPECIFIED.);
#34=B_SPLINE_CURVE_WITH_KNOTS('',3,(#577,#578,#579,#580,#581,#582,#583,
#584,#585,#586,#587,#588,#589,#590,#591,#592,#593,#594,#595,#596,#597),
 .UNSPECIFIED.,.F.,.F.,(4,1,1,1,1,1,1,1,1,1,1,1,1,1,1,1,1,1,4),(0.,0.0625,
0.09375,0.125,0.1875,0.25,0.3125,0.375,0.4375,0.5,0.5625,0.625,0.6875,0.75,
0.8125,0.875,0.90625,0.9375,1.),.UNSPECIFIED.);
#35=B_SPLINE_CURVE_WITH_KNOTS('',3,(#599,#600,#601,#602,#603,#604,#605,
#606,#607,#608,#609),.UNSPECIFIED.,.F.,.F.,(4,1,1,1,1,1,1,1,4),(0.,0.0625,
0.125,0.25,0.5,0.75,0.875,0.9375,1.),.UNSPECIFIED.);
#36=OVER_RIDING_STYLED_ITEM('',(#56),#183,#53);
#37=OVER_RIDING_STYLED_ITEM('',(#57),#184,#53);
#38=OVER_RIDING_STYLED_ITEM('',(#58),#185,#53);
#39=OVER_RIDING_STYLED_ITEM('',(#59),#186,#53);
#40=OVER_RIDING_STYLED_ITEM('',(#60),#187,#53);
#41=OVER_RIDING_STYLED_ITEM('',(#61),#188,#53);
#42=OVER_RIDING_STYLED_ITEM('',(#62),#189,#53);
#43=OVER_RIDING_STYLED_ITEM('',(#63),#190,#53);
#44=OVER_RIDING_STYLED_ITEM('',(#64),#191,#53);
#45=OVER_RIDING_STYLED_ITEM('',(#65),#192,#53);
#46=OVER_RIDING_STYLED_ITEM('',(#66),#193,#53);
#47=OVER_RIDING_STYLED_ITEM('',(#67),#194,#53);
#48=OVER_RIDING_STYLED_ITEM('',(#68),#195,#53);
#49=OVER_RIDING_STYLED_ITEM('',(#69),#196,#53);
#50=OVER_RIDING_STYLED_ITEM('',(#70),#197,#53);
#51=OVER_RIDING_STYLED_ITEM('',(#71),#198,#53);
#52=PRESENTATION_LAYER_ASSIGNMENT('1','Layer 1',(#165,#166));
#53=STYLED_ITEM('',(#55),#165);
#54=STYLED_ITEM('',(#72),#166);
#55=PRESENTATION_STYLE_ASSIGNMENT((#73));
#56=PRESENTATION_STYLE_ASSIGNMENT((#74));
#57=PRESENTATION_STYLE_ASSIGNMENT((#75));
#58=PRESENTATION_STYLE_ASSIGNMENT((#76));
#59=PRESENTATION_STYLE_ASSIGNMENT((#77));
#60=PRESENTATION_STYLE_ASSIGNMENT((#78));
#61=PRESENTATION_STYLE_ASSIGNMENT((#79));
#62=PRESENTATION_STYLE_ASSIGNMENT((#80));
#63=PRESENTATION_STYLE_ASSIGNMENT((#81));
#64=PRESENTATION_STYLE_ASSIGNMENT((#82));
#65=PRESENTATION_STYLE_ASSIGNMENT((#83));
#66=PRESENTATION_STYLE_ASSIGNMENT((#84));
#67=PRESENTATION_STYLE_ASSIGNMENT((#85));
#68=PRESENTATION_STYLE_ASSIGNMENT((#86));
#69=PRESENTATION_STYLE_ASSIGNMENT((#87));
#70=PRESENTATION_STYLE_ASSIGNMENT((#88));
#71=PRESENTATION_STYLE_ASSIGNMENT((#89));
#72=PRESENTATION_STYLE_ASSIGNMENT((#90));
#73=SURFACE_STYLE_USAGE(.BOTH.,#91);
#74=SURFACE_STYLE_USAGE(.BOTH.,#92);
#75=SURFACE_STYLE_USAGE(.BOTH.,#93);
#76=SURFACE_STYLE_USAGE(.BOTH.,#94);
#77=SURFACE_STYLE_USAGE(.BOTH.,#95);
#78=SURFACE_STYLE_USAGE(.BOTH.,#96);
#79=SURFACE_STYLE_USAGE(.BOTH.,#97);
#80=SURFACE_STYLE_USAGE(.BOTH.,#98);
#81=SURFACE_STYLE_USAGE(.BOTH.,#99);
#82=SURFACE_STYLE_USAGE(.BOTH.,#100);
#83=SURFACE_STYLE_USAGE(.BOTH.,#101);
#84=SURFACE_STYLE_USAGE(.BOTH.,#102);
#85=SURFACE_STYLE_USAGE(.BOTH.,#103);
#86=SURFACE_STYLE_USAGE(.BOTH.,#104);
#87=SURFACE_STYLE_USAGE(.BOTH.,#105);
#88=SURFACE_STYLE_USAGE(.BOTH.,#106);
#89=SURFACE_STYLE_USAGE(.BOTH.,#107);
#90=SURFACE_STYLE_USAGE(.BOTH.,#108);
#91=SURFACE_SIDE_STYLE('',(#109));
#92=SURFACE_SIDE_STYLE('',(#110));
#93=SURFACE_SIDE_STYLE('',(#111));
#94=SURFACE_SIDE_STYLE('',(#112));
#95=SURFACE_SIDE_STYLE('',(#113));
#96=SURFACE_SIDE_STYLE('',(#114));
#97=SURFACE_SIDE_STYLE('',(#115));
#98=SURFACE_SIDE_STYLE('',(#116));
#99=SURFACE_SIDE_STYLE('',(#117));
#100=SURFACE_SIDE_STYLE('',(#118));
#101=SURFACE_SIDE_STYLE('',(#119));
#102=SURFACE_SIDE_STYLE('',(#120));
#103=SURFACE_SIDE_STYLE('',(#121));
#104=SURFACE_SIDE_STYLE('',(#122));
#105=SURFACE_SIDE_STYLE('',(#123));
#106=SURFACE_SIDE_STYLE('',(#124));
#107=SURFACE_SIDE_STYLE('',(#125));
#108=SURFACE_SIDE_STYLE('',(#126));
#109=SURFACE_STYLE_FILL_AREA(#127);
#110=SURFACE_STYLE_FILL_AREA(#128);
#111=SURFACE_STYLE_FILL_AREA(#129);
#112=SURFACE_STYLE_FILL_AREA(#130);
#113=SURFACE_STYLE_FILL_AREA(#131);
#114=SURFACE_STYLE_FILL_AREA(#132);
#115=SURFACE_STYLE_FILL_AREA(#133);
#116=SURFACE_STYLE_FILL_AREA(#134);
#117=SURFACE_STYLE_FILL_AREA(#135);
#118=SURFACE_STYLE_FILL_AREA(#136);
#119=SURFACE_STYLE_FILL_AREA(#137);
#120=SURFACE_STYLE_FILL_AREA(#138);
#121=SURFACE_STYLE_FILL_AREA(#139);
#122=SURFACE_STYLE_FILL_AREA(#140);
#123=SURFACE_STYLE_FILL_AREA(#141);
#124=SURFACE_STYLE_FILL_AREA(#142);
#125=SURFACE_STYLE_FILL_AREA(#143);
#126=SURFACE_STYLE_FILL_AREA(#144);
#127=FILL_AREA_STYLE('',(#145));
#128=FILL_AREA_STYLE('',(#146));
#129=FILL_AREA_STYLE('',(#147));
#130=FILL_AREA_STYLE('',(#148));
#131=FILL_AREA_STYLE('',(#149));
#132=FILL_AREA_STYLE('',(#150));
#133=FILL_AREA_STYLE('',(#151));
#134=FILL_AREA_STYLE('',(#152));
#135=FILL_AREA_STYLE('',(#153));
#136=FILL_AREA_STYLE('',(#154));
#137=FILL_AREA_STYLE('',(#155));
#138=FILL_AREA_STYLE('',(#156));
#139=FILL_AREA_STYLE('',(#157));
#140=FILL_AREA_STYLE('',(#158));
#141=FILL_AREA_STYLE('',(#159));
#142=FILL_AREA_STYLE('',(#160));
#143=FILL_AREA_STYLE('',(#161));
#144=FILL_AREA_STYLE('',(#162));
#145=FILL_AREA_STYLE_COLOUR('',#163);
#146=FILL_AREA_STYLE_COLOUR('',#164);
#147=FILL_AREA_STYLE_COLOUR('',#164);
#148=FILL_AREA_STYLE_COLOUR('',#164);
#149=FILL_AREA_STYLE_COLOUR('',#164);
#150=FILL_AREA_STYLE_COLOUR('',#164);
#151=FILL_AREA_STYLE_COLOUR('',#164);
#152=FILL_AREA_STYLE_COLOUR('',#164);
#153=FILL_AREA_STYLE_COLOUR('',#164);
#154=FILL_AREA_STYLE_COLOUR('',#164);
#155=FILL_AREA_STYLE_COLOUR('',#164);
#156=FILL_AREA_STYLE_COLOUR('',#164);
#157=FILL_AREA_STYLE_COLOUR('',#164);
#158=FILL_AREA_STYLE_COLOUR('',#164);
#159=FILL_AREA_STYLE_COLOUR('',#164);
#160=FILL_AREA_STYLE_COLOUR('',#164);
#161=FILL_AREA_STYLE_COLOUR('',#164);
#162=FILL_AREA_STYLE_COLOUR('',#23);
#163=COLOUR_RGB('Medium Steel',0.611764705882353,0.658823529411765,0.670588235294118);
#164=COLOUR_RGB('silver gray',0.6,0.6,0.6);
#165=MANIFOLD_SOLID_BREP('',#167);
#166=MANIFOLD_SOLID_BREP('',#168);
#167=CLOSED_SHELL('',(#183,#184,#185,#186,#187,#188,#189,#190,#191,#192,
#193,#194,#195,#196,#197,#198));
#168=CLOSED_SHELL('',(#199,#200,#201,#202));
#169=PLANE('',#394);
#170=PLANE('',#396);
#171=PLANE('',#404);
#172=PLANE('',#407);
#173=FACE_OUTER_BOUND('',#259,.T.);
#174=FACE_OUTER_BOUND('',#260,.T.);
#175=CYLINDRICAL_SURFACE('',#383,11.975);
#176=CYLINDRICAL_SURFACE('',#387,12.5);
#177=CYLINDRICAL_SURFACE('',#391,12.25);
#178=CONICAL_SURFACE('',#381,11.975,0.499999999999988);
#179=CONICAL_SURFACE('',#385,12.5,30.0000000000001);
#180=CONICAL_SURFACE('',#389,12.25,9.99999999999998);
#181=CONICAL_SURFACE('',#400,7.16568542494924,44.9999999999999);
#182=CONICAL_SURFACE('',#406,10.65,78.);
#183=ADVANCED_FACE('',(#207,#208),#203,.T.);
#184=ADVANCED_FACE('',(#209,#210),#178,.T.);
#185=ADVANCED_FACE('',(#211,#212),#175,.T.);
#186=ADVANCED_FACE('',(#213,#214),#179,.T.);
#187=ADVANCED_FACE('',(#215,#216),#176,.T.);
#188=ADVANCED_FACE('',(#217,#218),#180,.T.);
#189=ADVANCED_FACE('',(#219,#220),#177,.T.);
#190=ADVANCED_FACE('',(#221,#222),#204,.T.);
#191=ADVANCED_FACE('',(#173),#169,.F.);
#192=ADVANCED_FACE('',(#174),#170,.F.);
#193=ADVANCED_FACE('',(#223,#224),#205,.F.);
#194=ADVANCED_FACE('',(#225,#226),#181,.F.);
#195=ADVANCED_FACE('',(#227,#228),#206,.T.);
#196=ADVANCED_FACE('',(#229,#230),#171,.F.);
#197=ADVANCED_FACE('',(#231,#232),#182,.F.);
#198=ADVANCED_FACE('',(#233,#234),#172,.F.);
#199=ADVANCED_FACE('',(#235,#236),#24,.T.);
#200=ADVANCED_FACE('',(#237,#238),#25,.T.);
#201=ADVANCED_FACE('',(#239,#240),#26,.T.);
#202=ADVANCED_FACE('',(#241,#242),#27,.T.);
#203=TOROIDAL_SURFACE('',#379,11.2429880430588,0.8);
#204=TOROIDAL_SURFACE('',#393,10.75,1.5);
#205=TOROIDAL_SURFACE('',#398,6.26862915010153,0.8);
#206=TOROIDAL_SURFACE('',#402,7.73137084989848,0.8);
#207=FACE_BOUND('',#243,.T.);
#208=FACE_BOUND('',#244,.T.);
#209=FACE_BOUND('',#245,.T.);
#210=FACE_BOUND('',#246,.T.);
#211=FACE_BOUND('',#247,.T.);
#212=FACE_BOUND('',#248,.T.);
#213=FACE_BOUND('',#249,.T.);
#214=FACE_BOUND('',#250,.T.);
#215=FACE_BOUND('',#251,.T.);
#216=FACE_BOUND('',#252,.T.);
#217=FACE_BOUND('',#253,.T.);
#218=FACE_BOUND('',#254,.T.);
#219=FACE_BOUND('',#255,.T.);
#220=FACE_BOUND('',#256,.T.);
#221=FACE_BOUND('',#257,.T.);
#222=FACE_BOUND('',#258,.T.);
#223=FACE_BOUND('',#261,.T.);
#224=FACE_BOUND('',#262,.T.);
#225=FACE_BOUND('',#263,.T.);
#226=FACE_BOUND('',#264,.T.);
#227=FACE_BOUND('',#265,.T.);
#228=FACE_BOUND('',#266,.T.);
#229=FACE_BOUND('',#267,.T.);
#230=FACE_BOUND('',#268,.T.);
#231=FACE_BOUND('',#269,.T.);
#232=FACE_BOUND('',#270,.T.);
#233=FACE_BOUND('',#271,.T.);
#234=FACE_BOUND('',#272,.T.);
#235=FACE_BOUND('',#273,.T.);
#236=FACE_BOUND('',#274,.T.);
#237=FACE_BOUND('',#275,.T.);
#238=FACE_BOUND('',#276,.T.);
#239=FACE_BOUND('',#277,.T.);
#240=FACE_BOUND('',#278,.T.);
#241=FACE_BOUND('',#279,.T.);
#242=FACE_BOUND('',#280,.T.);
#243=EDGE_LOOP('',(#281));
#244=EDGE_LOOP('',(#282));
#245=EDGE_LOOP('',(#283));
#246=EDGE_LOOP('',(#284));
#247=EDGE_LOOP('',(#285));
#248=EDGE_LOOP('',(#286));
#249=EDGE_LOOP('',(#287));
#250=EDGE_LOOP('',(#288));
#251=EDGE_LOOP('',(#289));
#252=EDGE_LOOP('',(#290));
#253=EDGE_LOOP('',(#291));
#254=EDGE_LOOP('',(#292));
#255=EDGE_LOOP('',(#293));
#256=EDGE_LOOP('',(#294));
#257=EDGE_LOOP('',(#295));
#258=EDGE_LOOP('',(#296));
#259=EDGE_LOOP('',(#297));
#260=EDGE_LOOP('',(#298));
#261=EDGE_LOOP('',(#299));
#262=EDGE_LOOP('',(#300));
#263=EDGE_LOOP('',(#301));
#264=EDGE_LOOP('',(#302));
#265=EDGE_LOOP('',(#303));
#266=EDGE_LOOP('',(#304));
#267=EDGE_LOOP('',(#305));
#268=EDGE_LOOP('',(#306));
#269=EDGE_LOOP('',(#307));
#270=EDGE_LOOP('',(#308));
#271=EDGE_LOOP('',(#309));
#272=EDGE_LOOP('',(#310));
#273=EDGE_LOOP('',(#311));
#274=EDGE_LOOP('',(#312));
#275=EDGE_LOOP('',(#313));
#276=EDGE_LOOP('',(#314));
#277=EDGE_LOOP('',(#315));
#278=EDGE_LOOP('',(#316));
#279=EDGE_LOOP('',(#317));
#280=EDGE_LOOP('',(#318));
#281=ORIENTED_EDGE('',*,*,#338,.F.);
#282=ORIENTED_EDGE('',*,*,#339,.T.);
#283=ORIENTED_EDGE('',*,*,#339,.F.);
#284=ORIENTED_EDGE('',*,*,#340,.T.);
#285=ORIENTED_EDGE('',*,*,#340,.F.);
#286=ORIENTED_EDGE('',*,*,#341,.T.);
#287=ORIENTED_EDGE('',*,*,#341,.F.);
#288=ORIENTED_EDGE('',*,*,#342,.T.);
#289=ORIENTED_EDGE('',*,*,#342,.F.);
#290=ORIENTED_EDGE('',*,*,#343,.T.);
#291=ORIENTED_EDGE('',*,*,#343,.F.);
#292=ORIENTED_EDGE('',*,*,#344,.T.);
#293=ORIENTED_EDGE('',*,*,#344,.F.);
#294=ORIENTED_EDGE('',*,*,#345,.T.);
#295=ORIENTED_EDGE('',*,*,#345,.F.);
#296=ORIENTED_EDGE('',*,*,#346,.T.);
#297=ORIENTED_EDGE('',*,*,#346,.F.);
#298=ORIENTED_EDGE('',*,*,#347,.T.);
#299=ORIENTED_EDGE('',*,*,#347,.F.);
#300=ORIENTED_EDGE('',*,*,#348,.T.);
#301=ORIENTED_EDGE('',*,*,#348,.F.);
#302=ORIENTED_EDGE('',*,*,#349,.T.);
#303=ORIENTED_EDGE('',*,*,#349,.F.);
#304=ORIENTED_EDGE('',*,*,#350,.T.);
#305=ORIENTED_EDGE('',*,*,#350,.F.);
#306=ORIENTED_EDGE('',*,*,#351,.T.);
#307=ORIENTED_EDGE('',*,*,#351,.F.);
#308=ORIENTED_EDGE('',*,*,#352,.T.);
#309=ORIENTED_EDGE('',*,*,#352,.F.);
#310=ORIENTED_EDGE('',*,*,#338,.T.);
#311=ORIENTED_EDGE('',*,*,#353,.F.);
#312=ORIENTED_EDGE('',*,*,#354,.T.);
#313=ORIENTED_EDGE('',*,*,#355,.F.);
#314=ORIENTED_EDGE('',*,*,#353,.T.);
#315=ORIENTED_EDGE('',*,*,#356,.F.);
#316=ORIENTED_EDGE('',*,*,#355,.T.);
#317=ORIENTED_EDGE('',*,*,#354,.F.);
#318=ORIENTED_EDGE('',*,*,#356,.T.);
#319=VERTEX_POINT('',#490);
#320=VERTEX_POINT('',#492);
#321=VERTEX_POINT('',#495);
#322=VERTEX_POINT('',#498);
#323=VERTEX_POINT('',#501);
#324=VERTEX_POINT('',#504);
#325=VERTEX_POINT('',#507);
#326=VERTEX_POINT('',#510);
#327=VERTEX_POINT('',#513);
#328=VERTEX_POINT('',#517);
#329=VERTEX_POINT('',#520);
#330=VERTEX_POINT('',#523);
#331=VERTEX_POINT('',#526);
#332=VERTEX_POINT('',#529);
#333=VERTEX_POINT('',#532);
#334=VERTEX_POINT('',#536);
#335=VERTEX_POINT('',#538);
#336=VERTEX_POINT('',#562);
#337=VERTEX_POINT('',#576);
#338=EDGE_CURVE('',#319,#319,#357,.T.);
#339=EDGE_CURVE('',#320,#320,#358,.T.);
#340=EDGE_CURVE('',#321,#321,#359,.T.);
#341=EDGE_CURVE('',#322,#322,#360,.T.);
#342=EDGE_CURVE('',#323,#323,#361,.T.);
#343=EDGE_CURVE('',#324,#324,#362,.T.);
#344=EDGE_CURVE('',#325,#325,#363,.T.);
#345=EDGE_CURVE('',#326,#326,#364,.T.);
#346=EDGE_CURVE('',#327,#327,#365,.T.);
#347=EDGE_CURVE('',#328,#328,#366,.T.);
#348=EDGE_CURVE('',#329,#329,#367,.T.);
#349=EDGE_CURVE('',#330,#330,#368,.T.);
#350=EDGE_CURVE('',#331,#331,#369,.T.);
#351=EDGE_CURVE('',#332,#332,#370,.T.);
#352=EDGE_CURVE('',#333,#333,#371,.T.);
#353=EDGE_CURVE('',#334,#334,#372,.T.);
#354=EDGE_CURVE('',#335,#335,#373,.T.);
#355=EDGE_CURVE('',#336,#336,#374,.T.);
#356=EDGE_CURVE('',#337,#337,#375,.T.);
#357=CIRCLE('',#377,11.2429880430588);
#358=CIRCLE('',#378,12.0429575815101);
#359=CIRCLE('',#380,11.975);
#360=CIRCLE('',#382,11.975);
#361=CIRCLE('',#384,12.5);
#362=CIRCLE('',#386,12.5);
#363=CIRCLE('',#388,12.25);
#364=CIRCLE('',#390,12.25);
#365=CIRCLE('',#392,10.75);
#366=CIRCLE('',#395,6.26862915010153);
#367=CIRCLE('',#397,6.83431457505077);
#368=CIRCLE('',#399,7.16568542494924);
#369=CIRCLE('',#401,7.73137084989848);
#370=CIRCLE('',#403,9.70907397810431);
#371=CIRCLE('',#405,10.65);
#372=CIRCLE('',#408,12.4997991720947);
#373=CIRCLE('',#409,5.96037609597573);
#374=CIRCLE('',#410,12.3959240453443);
#375=CIRCLE('',#411,5.75639571405675);
#376=AXIS2_PLACEMENT_3D('',#488,#412,#413);
#377=AXIS2_PLACEMENT_3D('',#489,#414,#415);
#378=AXIS2_PLACEMENT_3D('',#491,#416,#417);
#379=AXIS2_PLACEMENT_3D('',#493,#418,#419);
#380=AXIS2_PLACEMENT_3D('',#494,#420,#421);
#381=AXIS2_PLACEMENT_3D('',#496,#422,#423);
#382=AXIS2_PLACEMENT_3D('',#497,#424,#425);
#383=AXIS2_PLACEMENT_3D('',#499,#426,#427);
#384=AXIS2_PLACEMENT_3D('',#500,#428,#429);
#385=AXIS2_PLACEMENT_3D('',#502,#430,#431);
#386=AXIS2_PLACEMENT_3D('',#503,#432,#433);
#387=AXIS2_PLACEMENT_3D('',#505,#434,#435);
#388=AXIS2_PLACEMENT_3D('',#506,#436,#437);
#389=AXIS2_PLACEMENT_3D('',#508,#438,#439);
#390=AXIS2_PLACEMENT_3D('',#509,#440,#441);
#391=AXIS2_PLACEMENT_3D('',#511,#442,#443);
#392=AXIS2_PLACEMENT_3D('',#512,#444,#445);
#393=AXIS2_PLACEMENT_3D('',#514,#446,#447);
#394=AXIS2_PLACEMENT_3D('',#515,#448,#449);
#395=AXIS2_PLACEMENT_3D('',#516,#450,#451);
#396=AXIS2_PLACEMENT_3D('',#518,#452,#453);
#397=AXIS2_PLACEMENT_3D('',#519,#454,#455);
#398=AXIS2_PLACEMENT_3D('',#521,#456,#457);
#399=AXIS2_PLACEMENT_3D('',#522,#458,#459);
#400=AXIS2_PLACEMENT_3D('',#524,#460,#461);
#401=AXIS2_PLACEMENT_3D('',#525,#462,#463);
#402=AXIS2_PLACEMENT_3D('',#527,#464,#465);
#403=AXIS2_PLACEMENT_3D('',#528,#466,#467);
#404=AXIS2_PLACEMENT_3D('',#530,#468,#469);
#405=AXIS2_PLACEMENT_3D('',#531,#470,#471);
#406=AXIS2_PLACEMENT_3D('',#533,#472,#473);
#407=AXIS2_PLACEMENT_3D('',#534,#474,#475);
#408=AXIS2_PLACEMENT_3D('',#535,#476,#477);
#409=AXIS2_PLACEMENT_3D('',#537,#478,#479);
#410=AXIS2_PLACEMENT_3D('',#561,#481,#482);
#411=AXIS2_PLACEMENT_3D('',#575,#484,#485);
#412=DIRECTION('',(0.,0.,1.));
#413=DIRECTION('',(1.,0.,0.));
#414=DIRECTION('',(-1.,0.,0.));
#415=DIRECTION('',(0.,0.,1.));
#416=DIRECTION('',(-1.,0.,0.));
#417=DIRECTION('',(0.,0.,1.));
#418=DIRECTION('',(-1.,0.,0.));
#419=DIRECTION('',(0.,0.,1.));
#420=DIRECTION('',(-1.,0.,0.));
#421=DIRECTION('',(0.,0.,1.));
#422=DIRECTION('',(-1.,0.,0.));
#423=DIRECTION('',(8.37955054833843E-17,0.,1.));
#424=DIRECTION('',(-1.,0.,0.));
#425=DIRECTION('',(0.,0.,1.));
#426=DIRECTION('',(-1.,0.,0.));
#427=DIRECTION('',(0.,0.,1.));
#428=DIRECTION('',(-1.,0.,0.));
#429=DIRECTION('',(0.,0.,1.));
#430=DIRECTION('',(1.,0.,0.));
#431=DIRECTION('',(4.70552902413035E-17,0.,-1.));
#432=DIRECTION('',(-1.,0.,0.));
#433=DIRECTION('',(0.,0.,1.));
#434=DIRECTION('',(-1.,0.,0.));
#435=DIRECTION('',(0.,0.,1.));
#436=DIRECTION('',(-1.,0.,0.));
#437=DIRECTION('',(0.,0.,1.));
#438=DIRECTION('',(-1.,0.,0.));
#439=DIRECTION('',(-1.47184324997431E-16,0.,1.));
#440=DIRECTION('',(-1.,0.,0.));
#441=DIRECTION('',(0.,0.,1.));
#442=DIRECTION('',(-1.,0.,0.));
#443=DIRECTION('',(0.,0.,1.));
#444=DIRECTION('',(-1.,0.,0.));
#445=DIRECTION('',(0.,0.,1.));
#446=DIRECTION('',(-1.,0.,0.));
#447=DIRECTION('',(0.,0.,1.));
#448=DIRECTION('',(-1.,0.,0.));
#449=DIRECTION('',(0.,0.,1.));
#450=DIRECTION('',(-1.,0.,0.));
#451=DIRECTION('',(0.,0.,1.));
#452=DIRECTION('',(1.,0.,0.));
#453=DIRECTION('',(0.,0.,-1.));
#454=DIRECTION('',(-1.,0.,0.));
#455=DIRECTION('',(0.,0.,1.));
#456=DIRECTION('',(-1.,0.,0.));
#457=DIRECTION('',(0.,0.,1.));
#458=DIRECTION('',(-1.,0.,0.));
#459=DIRECTION('',(0.,0.,1.));
#460=DIRECTION('',(-1.,0.,0.));
#461=DIRECTION('',(-7.53541876696919E-18,0.,1.));
#462=DIRECTION('',(-1.,0.,0.));
#463=DIRECTION('',(0.,0.,1.));
#464=DIRECTION('',(-1.,0.,0.));
#465=DIRECTION('',(0.,0.,1.));
#466=DIRECTION('',(-1.,0.,0.));
#467=DIRECTION('',(0.,0.,1.));
#468=DIRECTION('',(1.,0.,0.));
#469=DIRECTION('',(0.,0.,-1.));
#470=DIRECTION('',(-1.,0.,0.));
#471=DIRECTION('',(0.,0.,1.));
#472=DIRECTION('',(-1.,0.,0.));
#473=DIRECTION('',(7.19692726855838E-18,0.,1.));
#474=DIRECTION('',(1.,0.,0.));
#475=DIRECTION('',(0.,0.,-1.));
#476=DIRECTION('',(1.,0.,0.));
#477=DIRECTION('',(0.,0.,-1.));
#478=DIRECTION('',(1.,0.,0.));
#479=DIRECTION('',(0.,0.,-1.));
#480=DIRECTION('',(1.,0.,0.));
#481=DIRECTION('',(1.,0.,0.));
#482=DIRECTION('',(0.,0.,-1.));
#483=DIRECTION('',(1.,0.,0.));
#484=DIRECTION('',(1.,0.,0.));
#485=DIRECTION('',(0.,0.,-1.));
#486=DIRECTION('',(1.,0.,0.));
#487=DIRECTION('',(1.,0.,0.));
#488=CARTESIAN_POINT('',(0.,0.,0.));
#489=CARTESIAN_POINT('',(0.7,0.,0.));
#490=CARTESIAN_POINT('',(0.7,0.,11.2429880430588));
#491=CARTESIAN_POINT('',(1.5069812283987,0.,0.));
#492=CARTESIAN_POINT('',(1.5069812283987,0.,12.0429575815101));
#493=CARTESIAN_POINT('',(1.5,0.,0.));
#494=CARTESIAN_POINT('',(9.29414875969825,0.,0.));
#495=CARTESIAN_POINT('',(9.29414875969825,0.,11.975));
#496=CARTESIAN_POINT('',(9.29414875969825,0.,0.));
#497=CARTESIAN_POINT('',(29.0906733260264,0.,0.));
#498=CARTESIAN_POINT('',(29.0906733260264,0.,11.975));
#499=CARTESIAN_POINT('',(0.,0.,0.));
#500=CARTESIAN_POINT('',(30.,0.,0.));
#501=CARTESIAN_POINT('',(30.,0.,12.5));
#502=CARTESIAN_POINT('',(30.,0.,0.));
#503=CARTESIAN_POINT('',(94.5821795450956,0.,0.));
#504=CARTESIAN_POINT('',(94.5821795450956,0.,12.5));
#505=CARTESIAN_POINT('',(0.,0.,0.));
#506=CARTESIAN_POINT('',(96.,0.,0.));
#507=CARTESIAN_POINT('',(96.,0.,12.25));
#508=CARTESIAN_POINT('',(96.,0.,0.));
#509=CARTESIAN_POINT('',(98.5,0.,0.));
#510=CARTESIAN_POINT('',(98.5,0.,12.25));
#511=CARTESIAN_POINT('',(0.,0.,0.));
#512=CARTESIAN_POINT('',(100.,0.,0.));
#513=CARTESIAN_POINT('',(100.,0.,10.75));
#514=CARTESIAN_POINT('',(98.5,0.,0.));
#515=CARTESIAN_POINT('',(100.,10.75,0.));
#516=CARTESIAN_POINT('',(1.7,0.,0.));
#517=CARTESIAN_POINT('',(1.7,0.,6.26862915010153));
#518=CARTESIAN_POINT('',(1.7,6.26862915010153,0.));
#519=CARTESIAN_POINT('',(1.46568542494924,0.,0.));
#520=CARTESIAN_POINT('',(1.46568542494924,0.,6.83431457505077));
#521=CARTESIAN_POINT('',(0.9,0.,0.));
#522=CARTESIAN_POINT('',(1.13431457505076,0.,0.));
#523=CARTESIAN_POINT('',(1.13431457505076,0.,7.16568542494924));
#524=CARTESIAN_POINT('',(1.13431457505076,0.,0.));
#525=CARTESIAN_POINT('',(0.9,0.,0.));
#526=CARTESIAN_POINT('',(0.9,0.,7.73137084989848));
#527=CARTESIAN_POINT('',(1.7,0.,0.));
#528=CARTESIAN_POINT('',(0.9,0.,0.));
#529=CARTESIAN_POINT('',(0.9,0.,9.70907397810431));
#530=CARTESIAN_POINT('',(0.9,9.70907397810431,0.));
#531=CARTESIAN_POINT('',(0.7,0.,0.));
#532=CARTESIAN_POINT('',(0.7,0.,10.65));
#533=CARTESIAN_POINT('',(0.7,0.,0.));
#534=CARTESIAN_POINT('',(0.7,11.2429880430588,0.));
#535=CARTESIAN_POINT('',(0.786438187159265,0.,0.));
#536=CARTESIAN_POINT('',(0.786438187159265,0.,-12.4997991720947));
#537=CARTESIAN_POINT('',(1.12053257796598,0.,0.));
#538=CARTESIAN_POINT('',(1.12053257796598,0.,-5.96037609597573));
#539=CARTESIAN_POINT('',(1.12053257796598,-5.90692580578623,0.796436268897596));
#540=CARTESIAN_POINT('',(0.965730121686389,-5.91539044562133,0.827689939799521));
#541=CARTESIAN_POINT('',(0.75215982174085,-6.10904695806693,0.845022570397018));
#542=CARTESIAN_POINT('',(0.752803380170702,-6.41975938644039,0.800860444340779));
#543=CARTESIAN_POINT('',(0.750135425204977,-6.71569915293651,0.759485801354298));
#544=CARTESIAN_POINT('',(0.747494336654944,-7.06988219624441,0.709852592784179));
#545=CARTESIAN_POINT('',(0.73635653653328,-7.48627178587277,0.653186132389127));
#546=CARTESIAN_POINT('',(0.70817158043593,-7.9105879145185,0.598970299511701));
#547=CARTESIAN_POINT('',(0.655429383148377,-8.35004622113731,0.547757084315629));
#548=CARTESIAN_POINT('',(0.570619859452294,-8.81186234468501,0.500098476965417));
#549=CARTESIAN_POINT('',(0.446598584299584,-9.27457375473107,0.460533438037875));
#550=CARTESIAN_POINT('',(0.276221132640368,-9.71671792084504,0.433600928110168));
#551=CARTESIAN_POINT('',(0.0202116356399686,-10.1270385880465,0.429129801710759));
#552=CARTESIAN_POINT('',(-0.00397285504914819,-10.6053972256754,0.366417608944632));
#553=CARTESIAN_POINT('',(0.00194090842310533,-11.0741195064748,0.298761007974678));
#554=CARTESIAN_POINT('',(-0.00177798474631123,-11.54275257539,0.233136457122111));
#555=CARTESIAN_POINT('',(0.0163674245702375,-11.94176294905,0.172793600747669));
#556=CARTESIAN_POINT('',(0.173393430970437,-12.2067289013894,0.102329318407458));
#557=CARTESIAN_POINT('',(0.402967314797017,-12.4185283919431,0.0241895176281186));
#558=CARTESIAN_POINT('',(0.631498192669385,-12.4984352307815,-0.0350427515145773));
#559=CARTESIAN_POINT('',(0.786438187159265,-12.4996158796908,-0.0676919705811408));
#560=CARTESIAN_POINT('',(0.,0.,0.));
#561=CARTESIAN_POINT('',(10.3758747722682,0.,0.));
#562=CARTESIAN_POINT('',(10.3758747722682,0.,-12.3959240453443));
#563=CARTESIAN_POINT('',(0.786438187159265,-12.4996158796908,-0.0676919705811408));
#564=CARTESIAN_POINT('',(0.98749284048954,-12.4984846225129,-0.109681165482219));
#565=CARTESIAN_POINT('',(1.38944186947698,-12.497478584102,-0.193803994000284));
#566=CARTESIAN_POINT('',(2.19078738669395,-12.4980720712692,-0.361883733588034));
#567=CARTESIAN_POINT('',(3.58142411840236,-12.4995968873409,-0.653635604744063));
#568=CARTESIAN_POINT('',(5.57641346396279,-12.4633758571186,-1.06673664535662));
#569=CARTESIAN_POINT('',(7.56403099099829,-12.3726632170575,-1.47057091249051));
#570=CARTESIAN_POINT('',(8.96870015711663,-12.3027273383287,-1.75513876085727));
#571=CARTESIAN_POINT('',(9.77261647961024,-12.2524987849982,-1.91655608730904));
#572=CARTESIAN_POINT('',(10.1756384699915,-12.2517171145726,-2.00093564596318));
#573=CARTESIAN_POINT('',(10.3758747722682,-12.2270082219572,-2.03941238550171));
#574=CARTESIAN_POINT('',(0.,0.,0.));
#575=CARTESIAN_POINT('',(10.7103092693313,0.,0.));
#576=CARTESIAN_POINT('',(10.7103092693313,0.,-5.75639571405675));
#577=CARTESIAN_POINT('',(10.3758747722682,-12.2270082219572,-2.03941238550171));
#578=CARTESIAN_POINT('',(10.5306383983482,-12.218543294454,-2.07065787520266));
#579=CARTESIAN_POINT('',(10.7442327610371,-12.0249173192519,-2.08799987741529));
#580=CARTESIAN_POINT('',(10.7436513457207,-11.7142538342996,-2.04385771432899));
#581=CARTESIAN_POINT('',(10.74627661579,-11.4184155883686,-2.00248850801888));
#582=CARTESIAN_POINT('',(10.7500459007982,-11.0642198342822,-1.95309001567717));
#583=CARTESIAN_POINT('',(10.7606382780002,-10.648125267785,-1.89635101582614));
#584=CARTESIAN_POINT('',(10.7891165852818,-10.223984026605,-1.8422214628019));
#585=CARTESIAN_POINT('',(10.8422018596011,-9.78461539552278,-1.79109287775618));
#586=CARTESIAN_POINT('',(10.9270315208912,-9.32281484232429,-1.74344069837192));
#587=CARTESIAN_POINT('',(11.050919715561,-8.86010470923876,-1.70384794113354));
#588=CARTESIAN_POINT('',(11.2212164370865,-8.4179742797244,-1.67690045322584));
#589=CARTESIAN_POINT('',(11.4771199459263,-8.00764587148748,-1.67240601037459));
#590=CARTESIAN_POINT('',(11.5012071178578,-7.5293044723376,-1.6096758581648));
#591=CARTESIAN_POINT('',(11.4951944323487,-7.06058292283659,-1.54199862260852));
#592=CARTESIAN_POINT('',(11.4988132923172,-6.59195795484018,-1.47635424848063));
#593=CARTESIAN_POINT('',(11.4877225140133,-6.19363912139218,-1.41758832836684));
#594=CARTESIAN_POINT('',(11.3171577739208,-5.92737428630394,-1.3441017107921));
#595=CARTESIAN_POINT('',(11.0895112290107,-5.71576931370682,-1.2663935238484));
#596=CARTESIAN_POINT('',(10.8652821369811,-5.63628218638641,-1.2081225616359));
#597=CARTESIAN_POINT('',(10.7103092693313,-5.63510161519317,-1.17546646198787));
#598=CARTESIAN_POINT('',(0.,0.,0.));
#599=CARTESIAN_POINT('',(10.7103092693313,-5.63510161519317,-1.17546646198787));
#600=CARTESIAN_POINT('',(10.5092837292345,-5.63630794282466,-1.13349400774612));
#601=CARTESIAN_POINT('',(10.1069289995842,-5.6387192048747,-1.0494852441808));
#602=CARTESIAN_POINT('',(9.30614894668275,-5.63596340407068,-0.88121765496043));
#603=CARTESIAN_POINT('',(7.91537636874104,-5.63538783560043,-0.589571810852544));
#604=CARTESIAN_POINT('',(5.92003370965617,-5.67084580559895,-0.176288577088927));
#605=CARTESIAN_POINT('',(3.93210856327874,-5.76117489952811,0.22766452753745));
#606=CARTESIAN_POINT('',(2.52754057659247,-5.83147996055823,0.512158852199295));
#607=CARTESIAN_POINT('',(1.72369915077158,-5.88096483820612,0.673665854234432));
#608=CARTESIAN_POINT('',(1.32082200557876,-5.88315501462041,0.757815465324071));
#609=CARTESIAN_POINT('',(1.12053257796598,-5.90692580578623,0.796436268897596));
#610=CARTESIAN_POINT('',(0.,0.,0.));
#611=(
GEOMETRIC_REPRESENTATION_CONTEXT(3)
GLOBAL_UNCERTAINTY_ASSIGNED_CONTEXT((#612))
GLOBAL_UNIT_ASSIGNED_CONTEXT((#618,#614,#613))
REPRESENTATION_CONTEXT('AEM90-R390','TOP_LEVEL_ASSEMBLY_PART')
);
#612=UNCERTAINTY_MEASURE_WITH_UNIT(LENGTH_MEASURE(2.E-5),#618,
'DISTANCE_ACCURACY_VALUE','Maximum Tolerance applied to model');
#613=(
NAMED_UNIT(*)
SI_UNIT($,.STERADIAN.)
SOLID_ANGLE_UNIT()
);
#614=(
CONVERSION_BASED_UNIT('DEGREE',#616)
NAMED_UNIT(#615)
PLANE_ANGLE_UNIT()
);
#615=DIMENSIONAL_EXPONENTS(0.,0.,0.,0.,0.,0.,0.);
#616=PLANE_ANGLE_MEASURE_WITH_UNIT(PLANE_ANGLE_MEASURE(0.0174532925),#617);
#617=(
NAMED_UNIT(*)
PLANE_ANGLE_UNIT()
SI_UNIT($,.RADIAN.)
);
#618=(
LENGTH_UNIT()
NAMED_UNIT(*)
SI_UNIT(.MILLI.,.METRE.)
);
ENDSEC;
END-ISO-10303-21;
