ISO-10303-21;
HEADER;
/* Generated by software containing ST-Developer
 * from STEP Tools, Inc. (www.steptools.com) 
 */
/* OPTION: using custom schema-name function */

FILE_DESCRIPTION(
/* description */ (''),
/* implementation_level */ '2;1');

FILE_NAME(
/* name */ 'AEM90-R390.11-D32-W32-L150-Z05-H.stp',
/* time_stamp */ '2023-10-25T21:14:26+03:00',
/* author */ (''),
/* organization */ (''),
/* preprocessor_version */ 'ST-DEVELOPER v19.4',
/* originating_system */ 'SIEMENS PLM Software NX2306.3001',
/* authorisation */ '');

FILE_SCHEMA (('AUTOMOTIVE_DESIGN { 1 0 10303 214 3 1 1 1 }'));
ENDSEC;

DATA;
#10=SHAPE_REPRESENTATION_RELATIONSHIP('None',
'relationship between AEM90-R390.11-D32-W32-L150-Z05-H-None and AEM90-
R390.11-D32-W32-L150-Z05-H-None',#22,#11);
#11=ADVANCED_BREP_SHAPE_REPRESENTATION(
'AEM90-R390.11-D32-W32-L150-Z05-H-None',(#165,#166),#611);
#12=SHAPE_DEFINITION_REPRESENTATION(#13,#22);
#13=PRODUCT_DEFINITION_SHAPE('','',#14);
#14=PRODUCT_DEFINITION(' ','',#16,#15);
#15=PRODUCT_DEFINITION_CONTEXT('part definition',#21,'design');
#16=PRODUCT_DEFINITION_FORMATION_WITH_SPECIFIED_SOURCE(' ',' ',#18,
 .NOT_KNOWN.);
#17=PRODUCT_RELATED_PRODUCT_CATEGORY('part','',(#18));
#18=PRODUCT('AEM90-R390.11-D32-W32-L150-Z05-H',
'AEM90-R390.11-D32-W32-L150-Z05-H',' ',(#19));
#19=PRODUCT_CONTEXT(' ',#21,'mechanical');
#20=APPLICATION_PROTOCOL_DEFINITION('international standard',
'automotive_design',2010,#21);
#21=APPLICATION_CONTEXT(
'core data for automotive mechanical design processes');
#22=SHAPE_REPRESENTATION('AEM90-R390.11-D32-W32-L150-Z05-H-None',(#376),
#611);
#23=DRAUGHTING_PRE_DEFINED_COLOUR('yellow');
#24=SURFACE_OF_REVOLUTION('',#32,#28);
#25=SURFACE_OF_REVOLUTION('',#33,#29);
#26=SURFACE_OF_REVOLUTION('',#34,#30);
#27=SURFACE_OF_REVOLUTION('',#35,#31);
#28=AXIS1_PLACEMENT('',#560,#480);
#29=AXIS1_PLACEMENT('',#574,#483);
#30=AXIS1_PLACEMENT('',#598,#486);
#31=AXIS1_PLACEMENT('',#610,#487);
#32=B_SPLINE_CURVE_WITH_KNOTS('',3,(#539,#540,#541,#542,#543,#544,#545,
#546,#547,#548,#549,#550,#551,#552,#553,#554,#555,#556,#557,#558,#559),
 .UNSPECIFIED.,.F.,.F.,(4,1,1,1,1,1,1,1,1,1,1,1,1,1,1,1,1,1,4),(0.,0.0625,
0.09375,0.125,0.1875,0.25,0.3125,0.375,0.4375,0.5,0.5625,0.625,0.6875,0.75,
0.8125,0.875,0.90625,0.9375,1.),.UNSPECIFIED.);
#33=B_SPLINE_CURVE_WITH_KNOTS('',3,(#563,#564,#565,#566,#567,#568,#569,
#570,#571,#572,#573),.UNSPECIFIED.,.F.,.F.,(4,1,1,1,1,1,1,1,4),(0.,0.0625,
0.125,0.25,0.5,0.75,0.875,0.9375,1.),.UNSPECIFIED.);
#34=B_SPLINE_CURVE_WITH_KNOTS('',3,(#577,#578,#579,#580,#581,#582,#583,
#584,#585,#586,#587,#588,#589,#590,#591,#592,#593,#594,#595,#596,#597),
 .UNSPECIFIED.,.F.,.F.,(4,1,1,1,1,1,1,1,1,1,1,1,1,1,1,1,1,1,4),(0.,0.0625,
0.09375,0.125,0.1875,0.25,0.3125,0.375,0.4375,0.5,0.5625,0.625,0.6875,0.75,
0.8125,0.875,0.90625,0.9375,1.),.UNSPECIFIED.);
#35=B_SPLINE_CURVE_WITH_KNOTS('',3,(#599,#600,#601,#602,#603,#604,#605,
#606,#607,#608,#609),.UNSPECIFIED.,.F.,.F.,(4,1,1,1,1,1,1,1,4),(0.,0.0625,
0.125,0.25,0.5,0.75,0.875,0.9375,1.),.UNSPECIFIED.);
#36=OVER_RIDING_STYLED_ITEM('',(#56),#183,#53);
#37=OVER_RIDING_STYLED_ITEM('',(#57),#184,#53);
#38=OVER_RIDING_STYLED_ITEM('',(#58),#185,#53);
#39=OVER_RIDING_STYLED_ITEM('',(#59),#186,#53);
#40=OVER_RIDING_STYLED_ITEM('',(#60),#187,#53);
#41=OVER_RIDING_STYLED_ITEM('',(#61),#188,#53);
#42=OVER_RIDING_STYLED_ITEM('',(#62),#189,#53);
#43=OVER_RIDING_STYLED_ITEM('',(#63),#190,#53);
#44=OVER_RIDING_STYLED_ITEM('',(#64),#191,#53);
#45=OVER_RIDING_STYLED_ITEM('',(#65),#192,#53);
#46=OVER_RIDING_STYLED_ITEM('',(#66),#193,#53);
#47=OVER_RIDING_STYLED_ITEM('',(#67),#194,#53);
#48=OVER_RIDING_STYLED_ITEM('',(#68),#195,#53);
#49=OVER_RIDING_STYLED_ITEM('',(#69),#196,#53);
#50=OVER_RIDING_STYLED_ITEM('',(#70),#197,#53);
#51=OVER_RIDING_STYLED_ITEM('',(#71),#198,#53);
#52=PRESENTATION_LAYER_ASSIGNMENT('1','Layer 1',(#165,#166));
#53=STYLED_ITEM('',(#55),#165);
#54=STYLED_ITEM('',(#72),#166);
#55=PRESENTATION_STYLE_ASSIGNMENT((#73));
#56=PRESENTATION_STYLE_ASSIGNMENT((#74));
#57=PRESENTATION_STYLE_ASSIGNMENT((#75));
#58=PRESENTATION_STYLE_ASSIGNMENT((#76));
#59=PRESENTATION_STYLE_ASSIGNMENT((#77));
#60=PRESENTATION_STYLE_ASSIGNMENT((#78));
#61=PRESENTATION_STYLE_ASSIGNMENT((#79));
#62=PRESENTATION_STYLE_ASSIGNMENT((#80));
#63=PRESENTATION_STYLE_ASSIGNMENT((#81));
#64=PRESENTATION_STYLE_ASSIGNMENT((#82));
#65=PRESENTATION_STYLE_ASSIGNMENT((#83));
#66=PRESENTATION_STYLE_ASSIGNMENT((#84));
#67=PRESENTATION_STYLE_ASSIGNMENT((#85));
#68=PRESENTATION_STYLE_ASSIGNMENT((#86));
#69=PRESENTATION_STYLE_ASSIGNMENT((#87));
#70=PRESENTATION_STYLE_ASSIGNMENT((#88));
#71=PRESENTATION_STYLE_ASSIGNMENT((#89));
#72=PRESENTATION_STYLE_ASSIGNMENT((#90));
#73=SURFACE_STYLE_USAGE(.BOTH.,#91);
#74=SURFACE_STYLE_USAGE(.BOTH.,#92);
#75=SURFACE_STYLE_USAGE(.BOTH.,#93);
#76=SURFACE_STYLE_USAGE(.BOTH.,#94);
#77=SURFACE_STYLE_USAGE(.BOTH.,#95);
#78=SURFACE_STYLE_USAGE(.BOTH.,#96);
#79=SURFACE_STYLE_USAGE(.BOTH.,#97);
#80=SURFACE_STYLE_USAGE(.BOTH.,#98);
#81=SURFACE_STYLE_USAGE(.BOTH.,#99);
#82=SURFACE_STYLE_USAGE(.BOTH.,#100);
#83=SURFACE_STYLE_USAGE(.BOTH.,#101);
#84=SURFACE_STYLE_USAGE(.BOTH.,#102);
#85=SURFACE_STYLE_USAGE(.BOTH.,#103);
#86=SURFACE_STYLE_USAGE(.BOTH.,#104);
#87=SURFACE_STYLE_USAGE(.BOTH.,#105);
#88=SURFACE_STYLE_USAGE(.BOTH.,#106);
#89=SURFACE_STYLE_USAGE(.BOTH.,#107);
#90=SURFACE_STYLE_USAGE(.BOTH.,#108);
#91=SURFACE_SIDE_STYLE('',(#109));
#92=SURFACE_SIDE_STYLE('',(#110));
#93=SURFACE_SIDE_STYLE('',(#111));
#94=SURFACE_SIDE_STYLE('',(#112));
#95=SURFACE_SIDE_STYLE('',(#113));
#96=SURFACE_SIDE_STYLE('',(#114));
#97=SURFACE_SIDE_STYLE('',(#115));
#98=SURFACE_SIDE_STYLE('',(#116));
#99=SURFACE_SIDE_STYLE('',(#117));
#100=SURFACE_SIDE_STYLE('',(#118));
#101=SURFACE_SIDE_STYLE('',(#119));
#102=SURFACE_SIDE_STYLE('',(#120));
#103=SURFACE_SIDE_STYLE('',(#121));
#104=SURFACE_SIDE_STYLE('',(#122));
#105=SURFACE_SIDE_STYLE('',(#123));
#106=SURFACE_SIDE_STYLE('',(#124));
#107=SURFACE_SIDE_STYLE('',(#125));
#108=SURFACE_SIDE_STYLE('',(#126));
#109=SURFACE_STYLE_FILL_AREA(#127);
#110=SURFACE_STYLE_FILL_AREA(#128);
#111=SURFACE_STYLE_FILL_AREA(#129);
#112=SURFACE_STYLE_FILL_AREA(#130);
#113=SURFACE_STYLE_FILL_AREA(#131);
#114=SURFACE_STYLE_FILL_AREA(#132);
#115=SURFACE_STYLE_FILL_AREA(#133);
#116=SURFACE_STYLE_FILL_AREA(#134);
#117=SURFACE_STYLE_FILL_AREA(#135);
#118=SURFACE_STYLE_FILL_AREA(#136);
#119=SURFACE_STYLE_FILL_AREA(#137);
#120=SURFACE_STYLE_FILL_AREA(#138);
#121=SURFACE_STYLE_FILL_AREA(#139);
#122=SURFACE_STYLE_FILL_AREA(#140);
#123=SURFACE_STYLE_FILL_AREA(#141);
#124=SURFACE_STYLE_FILL_AREA(#142);
#125=SURFACE_STYLE_FILL_AREA(#143);
#126=SURFACE_STYLE_FILL_AREA(#144);
#127=FILL_AREA_STYLE('',(#145));
#128=FILL_AREA_STYLE('',(#146));
#129=FILL_AREA_STYLE('',(#147));
#130=FILL_AREA_STYLE('',(#148));
#131=FILL_AREA_STYLE('',(#149));
#132=FILL_AREA_STYLE('',(#150));
#133=FILL_AREA_STYLE('',(#151));
#134=FILL_AREA_STYLE('',(#152));
#135=FILL_AREA_STYLE('',(#153));
#136=FILL_AREA_STYLE('',(#154));
#137=FILL_AREA_STYLE('',(#155));
#138=FILL_AREA_STYLE('',(#156));
#139=FILL_AREA_STYLE('',(#157));
#140=FILL_AREA_STYLE('',(#158));
#141=FILL_AREA_STYLE('',(#159));
#142=FILL_AREA_STYLE('',(#160));
#143=FILL_AREA_STYLE('',(#161));
#144=FILL_AREA_STYLE('',(#162));
#145=FILL_AREA_STYLE_COLOUR('',#163);
#146=FILL_AREA_STYLE_COLOUR('',#164);
#147=FILL_AREA_STYLE_COLOUR('',#164);
#148=FILL_AREA_STYLE_COLOUR('',#164);
#149=FILL_AREA_STYLE_COLOUR('',#164);
#150=FILL_AREA_STYLE_COLOUR('',#164);
#151=FILL_AREA_STYLE_COLOUR('',#164);
#152=FILL_AREA_STYLE_COLOUR('',#164);
#153=FILL_AREA_STYLE_COLOUR('',#164);
#154=FILL_AREA_STYLE_COLOUR('',#164);
#155=FILL_AREA_STYLE_COLOUR('',#164);
#156=FILL_AREA_STYLE_COLOUR('',#164);
#157=FILL_AREA_STYLE_COLOUR('',#164);
#158=FILL_AREA_STYLE_COLOUR('',#164);
#159=FILL_AREA_STYLE_COLOUR('',#164);
#160=FILL_AREA_STYLE_COLOUR('',#164);
#161=FILL_AREA_STYLE_COLOUR('',#164);
#162=FILL_AREA_STYLE_COLOUR('',#23);
#163=COLOUR_RGB('Medium Steel',0.611764705882353,0.658823529411765,0.670588235294118);
#164=COLOUR_RGB('silver gray',0.6,0.6,0.6);
#165=MANIFOLD_SOLID_BREP('',#167);
#166=MANIFOLD_SOLID_BREP('',#168);
#167=CLOSED_SHELL('',(#183,#184,#185,#186,#187,#188,#189,#190,#191,#192,
#193,#194,#195,#196,#197,#198));
#168=CLOSED_SHELL('',(#199,#200,#201,#202));
#169=PLANE('',#394);
#170=PLANE('',#396);
#171=PLANE('',#404);
#172=PLANE('',#407);
#173=FACE_OUTER_BOUND('',#259,.T.);
#174=FACE_OUTER_BOUND('',#260,.T.);
#175=CYLINDRICAL_SURFACE('',#383,15.35);
#176=CYLINDRICAL_SURFACE('',#387,16.);
#177=CYLINDRICAL_SURFACE('',#391,15.75);
#178=CONICAL_SURFACE('',#381,15.35,1.3999999999996);
#179=CONICAL_SURFACE('',#385,16.,29.9999999999995);
#180=CONICAL_SURFACE('',#389,15.75,9.99999999999998);
#181=CONICAL_SURFACE('',#400,10.8156854249492,44.9999999999998);
#182=CONICAL_SURFACE('',#406,14.375,78.);
#183=ADVANCED_FACE('',(#207,#208),#203,.T.);
#184=ADVANCED_FACE('',(#209,#210),#178,.T.);
#185=ADVANCED_FACE('',(#211,#212),#175,.T.);
#186=ADVANCED_FACE('',(#213,#214),#179,.T.);
#187=ADVANCED_FACE('',(#215,#216),#176,.T.);
#188=ADVANCED_FACE('',(#217,#218),#180,.T.);
#189=ADVANCED_FACE('',(#219,#220),#177,.T.);
#190=ADVANCED_FACE('',(#221,#222),#204,.T.);
#191=ADVANCED_FACE('',(#173),#169,.F.);
#192=ADVANCED_FACE('',(#174),#170,.F.);
#193=ADVANCED_FACE('',(#223,#224),#205,.F.);
#194=ADVANCED_FACE('',(#225,#226),#181,.F.);
#195=ADVANCED_FACE('',(#227,#228),#206,.T.);
#196=ADVANCED_FACE('',(#229,#230),#171,.F.);
#197=ADVANCED_FACE('',(#231,#232),#182,.F.);
#198=ADVANCED_FACE('',(#233,#234),#172,.F.);
#199=ADVANCED_FACE('',(#235,#236),#24,.T.);
#200=ADVANCED_FACE('',(#237,#238),#25,.T.);
#201=ADVANCED_FACE('',(#239,#240),#26,.T.);
#202=ADVANCED_FACE('',(#241,#242),#27,.T.);
#203=TOROIDAL_SURFACE('',#379,14.6802095416488,0.8);
#204=TOROIDAL_SURFACE('',#393,14.75,1.);
#205=TOROIDAL_SURFACE('',#398,9.94862915010153,0.8);
#206=TOROIDAL_SURFACE('',#402,11.3813708498985,0.8);
#207=FACE_BOUND('',#243,.T.);
#208=FACE_BOUND('',#244,.T.);
#209=FACE_BOUND('',#245,.T.);
#210=FACE_BOUND('',#246,.T.);
#211=FACE_BOUND('',#247,.T.);
#212=FACE_BOUND('',#248,.T.);
#213=FACE_BOUND('',#249,.T.);
#214=FACE_BOUND('',#250,.T.);
#215=FACE_BOUND('',#251,.T.);
#216=FACE_BOUND('',#252,.T.);
#217=FACE_BOUND('',#253,.T.);
#218=FACE_BOUND('',#254,.T.);
#219=FACE_BOUND('',#255,.T.);
#220=FACE_BOUND('',#256,.T.);
#221=FACE_BOUND('',#257,.T.);
#222=FACE_BOUND('',#258,.T.);
#223=FACE_BOUND('',#261,.T.);
#224=FACE_BOUND('',#262,.T.);
#225=FACE_BOUND('',#263,.T.);
#226=FACE_BOUND('',#264,.T.);
#227=FACE_BOUND('',#265,.T.);
#228=FACE_BOUND('',#266,.T.);
#229=FACE_BOUND('',#267,.T.);
#230=FACE_BOUND('',#268,.T.);
#231=FACE_BOUND('',#269,.T.);
#232=FACE_BOUND('',#270,.T.);
#233=FACE_BOUND('',#271,.T.);
#234=FACE_BOUND('',#272,.T.);
#235=FACE_BOUND('',#273,.T.);
#236=FACE_BOUND('',#274,.T.);
#237=FACE_BOUND('',#275,.T.);
#238=FACE_BOUND('',#276,.T.);
#239=FACE_BOUND('',#277,.T.);
#240=FACE_BOUND('',#278,.T.);
#241=FACE_BOUND('',#279,.T.);
#242=FACE_BOUND('',#280,.T.);
#243=EDGE_LOOP('',(#281));
#244=EDGE_LOOP('',(#282));
#245=EDGE_LOOP('',(#283));
#246=EDGE_LOOP('',(#284));
#247=EDGE_LOOP('',(#285));
#248=EDGE_LOOP('',(#286));
#249=EDGE_LOOP('',(#287));
#250=EDGE_LOOP('',(#288));
#251=EDGE_LOOP('',(#289));
#252=EDGE_LOOP('',(#290));
#253=EDGE_LOOP('',(#291));
#254=EDGE_LOOP('',(#292));
#255=EDGE_LOOP('',(#293));
#256=EDGE_LOOP('',(#294));
#257=EDGE_LOOP('',(#295));
#258=EDGE_LOOP('',(#296));
#259=EDGE_LOOP('',(#297));
#260=EDGE_LOOP('',(#298));
#261=EDGE_LOOP('',(#299));
#262=EDGE_LOOP('',(#300));
#263=EDGE_LOOP('',(#301));
#264=EDGE_LOOP('',(#302));
#265=EDGE_LOOP('',(#303));
#266=EDGE_LOOP('',(#304));
#267=EDGE_LOOP('',(#305));
#268=EDGE_LOOP('',(#306));
#269=EDGE_LOOP('',(#307));
#270=EDGE_LOOP('',(#308));
#271=EDGE_LOOP('',(#309));
#272=EDGE_LOOP('',(#310));
#273=EDGE_LOOP('',(#311));
#274=EDGE_LOOP('',(#312));
#275=EDGE_LOOP('',(#313));
#276=EDGE_LOOP('',(#314));
#277=EDGE_LOOP('',(#315));
#278=EDGE_LOOP('',(#316));
#279=EDGE_LOOP('',(#317));
#280=EDGE_LOOP('',(#318));
#281=ORIENTED_EDGE('',*,*,#338,.F.);
#282=ORIENTED_EDGE('',*,*,#339,.T.);
#283=ORIENTED_EDGE('',*,*,#339,.F.);
#284=ORIENTED_EDGE('',*,*,#340,.T.);
#285=ORIENTED_EDGE('',*,*,#340,.F.);
#286=ORIENTED_EDGE('',*,*,#341,.T.);
#287=ORIENTED_EDGE('',*,*,#341,.F.);
#288=ORIENTED_EDGE('',*,*,#342,.T.);
#289=ORIENTED_EDGE('',*,*,#342,.F.);
#290=ORIENTED_EDGE('',*,*,#343,.T.);
#291=ORIENTED_EDGE('',*,*,#343,.F.);
#292=ORIENTED_EDGE('',*,*,#344,.T.);
#293=ORIENTED_EDGE('',*,*,#344,.F.);
#294=ORIENTED_EDGE('',*,*,#345,.T.);
#295=ORIENTED_EDGE('',*,*,#345,.F.);
#296=ORIENTED_EDGE('',*,*,#346,.T.);
#297=ORIENTED_EDGE('',*,*,#346,.F.);
#298=ORIENTED_EDGE('',*,*,#347,.T.);
#299=ORIENTED_EDGE('',*,*,#347,.F.);
#300=ORIENTED_EDGE('',*,*,#348,.T.);
#301=ORIENTED_EDGE('',*,*,#348,.F.);
#302=ORIENTED_EDGE('',*,*,#349,.T.);
#303=ORIENTED_EDGE('',*,*,#349,.F.);
#304=ORIENTED_EDGE('',*,*,#350,.T.);
#305=ORIENTED_EDGE('',*,*,#350,.F.);
#306=ORIENTED_EDGE('',*,*,#351,.T.);
#307=ORIENTED_EDGE('',*,*,#351,.F.);
#308=ORIENTED_EDGE('',*,*,#352,.T.);
#309=ORIENTED_EDGE('',*,*,#352,.F.);
#310=ORIENTED_EDGE('',*,*,#338,.T.);
#311=ORIENTED_EDGE('',*,*,#353,.F.);
#312=ORIENTED_EDGE('',*,*,#354,.T.);
#313=ORIENTED_EDGE('',*,*,#355,.F.);
#314=ORIENTED_EDGE('',*,*,#353,.T.);
#315=ORIENTED_EDGE('',*,*,#356,.F.);
#316=ORIENTED_EDGE('',*,*,#355,.T.);
#317=ORIENTED_EDGE('',*,*,#354,.F.);
#318=ORIENTED_EDGE('',*,*,#356,.T.);
#319=VERTEX_POINT('',#490);
#320=VERTEX_POINT('',#492);
#321=VERTEX_POINT('',#495);
#322=VERTEX_POINT('',#498);
#323=VERTEX_POINT('',#501);
#324=VERTEX_POINT('',#504);
#325=VERTEX_POINT('',#507);
#326=VERTEX_POINT('',#510);
#327=VERTEX_POINT('',#513);
#328=VERTEX_POINT('',#517);
#329=VERTEX_POINT('',#520);
#330=VERTEX_POINT('',#523);
#331=VERTEX_POINT('',#526);
#332=VERTEX_POINT('',#529);
#333=VERTEX_POINT('',#532);
#334=VERTEX_POINT('',#536);
#335=VERTEX_POINT('',#538);
#336=VERTEX_POINT('',#562);
#337=VERTEX_POINT('',#576);
#338=EDGE_CURVE('',#319,#319,#357,.T.);
#339=EDGE_CURVE('',#320,#320,#358,.T.);
#340=EDGE_CURVE('',#321,#321,#359,.T.);
#341=EDGE_CURVE('',#322,#322,#360,.T.);
#342=EDGE_CURVE('',#323,#323,#361,.T.);
#343=EDGE_CURVE('',#324,#324,#362,.T.);
#344=EDGE_CURVE('',#325,#325,#363,.T.);
#345=EDGE_CURVE('',#326,#326,#364,.T.);
#346=EDGE_CURVE('',#327,#327,#365,.T.);
#347=EDGE_CURVE('',#328,#328,#366,.T.);
#348=EDGE_CURVE('',#329,#329,#367,.T.);
#349=EDGE_CURVE('',#330,#330,#368,.T.);
#350=EDGE_CURVE('',#331,#331,#369,.T.);
#351=EDGE_CURVE('',#332,#332,#370,.T.);
#352=EDGE_CURVE('',#333,#333,#371,.T.);
#353=EDGE_CURVE('',#334,#334,#372,.T.);
#354=EDGE_CURVE('',#335,#335,#373,.T.);
#355=EDGE_CURVE('',#336,#336,#374,.T.);
#356=EDGE_CURVE('',#337,#337,#375,.T.);
#357=CIRCLE('',#377,14.6802095416488);
#358=CIRCLE('',#378,15.4799707334737);
#359=CIRCLE('',#380,15.35);
#360=CIRCLE('',#382,15.35);
#361=CIRCLE('',#384,16.);
#362=CIRCLE('',#386,16.);
#363=CIRCLE('',#388,15.75);
#364=CIRCLE('',#390,15.75);
#365=CIRCLE('',#392,14.75);
#366=CIRCLE('',#395,9.94862915010153);
#367=CIRCLE('',#397,10.5143145750508);
#368=CIRCLE('',#399,10.8156854249492);
#369=CIRCLE('',#401,11.3813708498985);
#370=CIRCLE('',#403,13.29293507482);
#371=CIRCLE('',#405,14.375);
#372=CIRCLE('',#408,15.9998584344313);
#373=CIRCLE('',#409,9.40864516239605);
#374=CIRCLE('',#410,15.9093518631364);
#375=CIRCLE('',#411,9.26423629162351);
#376=AXIS2_PLACEMENT_3D('',#488,#412,#413);
#377=AXIS2_PLACEMENT_3D('',#489,#414,#415);
#378=AXIS2_PLACEMENT_3D('',#491,#416,#417);
#379=AXIS2_PLACEMENT_3D('',#493,#418,#419);
#380=AXIS2_PLACEMENT_3D('',#494,#420,#421);
#381=AXIS2_PLACEMENT_3D('',#496,#422,#423);
#382=AXIS2_PLACEMENT_3D('',#497,#424,#425);
#383=AXIS2_PLACEMENT_3D('',#499,#426,#427);
#384=AXIS2_PLACEMENT_3D('',#500,#428,#429);
#385=AXIS2_PLACEMENT_3D('',#502,#430,#431);
#386=AXIS2_PLACEMENT_3D('',#503,#432,#433);
#387=AXIS2_PLACEMENT_3D('',#505,#434,#435);
#388=AXIS2_PLACEMENT_3D('',#506,#436,#437);
#389=AXIS2_PLACEMENT_3D('',#508,#438,#439);
#390=AXIS2_PLACEMENT_3D('',#509,#440,#441);
#391=AXIS2_PLACEMENT_3D('',#511,#442,#443);
#392=AXIS2_PLACEMENT_3D('',#512,#444,#445);
#393=AXIS2_PLACEMENT_3D('',#514,#446,#447);
#394=AXIS2_PLACEMENT_3D('',#515,#448,#449);
#395=AXIS2_PLACEMENT_3D('',#516,#450,#451);
#396=AXIS2_PLACEMENT_3D('',#518,#452,#453);
#397=AXIS2_PLACEMENT_3D('',#519,#454,#455);
#398=AXIS2_PLACEMENT_3D('',#521,#456,#457);
#399=AXIS2_PLACEMENT_3D('',#522,#458,#459);
#400=AXIS2_PLACEMENT_3D('',#524,#460,#461);
#401=AXIS2_PLACEMENT_3D('',#525,#462,#463);
#402=AXIS2_PLACEMENT_3D('',#527,#464,#465);
#403=AXIS2_PLACEMENT_3D('',#528,#466,#467);
#404=AXIS2_PLACEMENT_3D('',#530,#468,#469);
#405=AXIS2_PLACEMENT_3D('',#531,#470,#471);
#406=AXIS2_PLACEMENT_3D('',#533,#472,#473);
#407=AXIS2_PLACEMENT_3D('',#534,#474,#475);
#408=AXIS2_PLACEMENT_3D('',#535,#476,#477);
#409=AXIS2_PLACEMENT_3D('',#537,#478,#479);
#410=AXIS2_PLACEMENT_3D('',#561,#481,#482);
#411=AXIS2_PLACEMENT_3D('',#575,#484,#485);
#412=DIRECTION('',(0.,0.,1.));
#413=DIRECTION('',(1.,0.,0.));
#414=DIRECTION('',(-1.,0.,0.));
#415=DIRECTION('',(0.,0.,1.));
#416=DIRECTION('',(-1.,0.,0.));
#417=DIRECTION('',(0.,0.,1.));
#418=DIRECTION('',(-1.,0.,0.));
#419=DIRECTION('',(0.,0.,1.));
#420=DIRECTION('',(-1.,0.,0.));
#421=DIRECTION('',(0.,0.,1.));
#422=DIRECTION('',(-1.,0.,0.));
#423=DIRECTION('',(1.96188965032919E-16,0.,1.));
#424=DIRECTION('',(-1.,0.,0.));
#425=DIRECTION('',(0.,0.,1.));
#426=DIRECTION('',(-1.,0.,0.));
#427=DIRECTION('',(0.,0.,1.));
#428=DIRECTION('',(-1.,0.,0.));
#429=DIRECTION('',(0.,0.,1.));
#430=DIRECTION('',(1.,0.,0.));
#431=DIRECTION('',(7.01665872340554E-17,0.,-1.));
#432=DIRECTION('',(-1.,0.,0.));
#433=DIRECTION('',(0.,0.,1.));
#434=DIRECTION('',(-1.,0.,0.));
#435=DIRECTION('',(0.,0.,1.));
#436=DIRECTION('',(-1.,0.,0.));
#437=DIRECTION('',(0.,0.,1.));
#438=DIRECTION('',(-1.,0.,0.));
#439=DIRECTION('',(1.44502352719488E-16,0.,1.));
#440=DIRECTION('',(-1.,0.,0.));
#441=DIRECTION('',(0.,0.,1.));
#442=DIRECTION('',(-1.,0.,0.));
#443=DIRECTION('',(0.,0.,1.));
#444=DIRECTION('',(-1.,0.,0.));
#445=DIRECTION('',(0.,0.,1.));
#446=DIRECTION('',(-1.,0.,0.));
#447=DIRECTION('',(0.,0.,1.));
#448=DIRECTION('',(-1.,0.,0.));
#449=DIRECTION('',(0.,0.,1.));
#450=DIRECTION('',(-1.,0.,0.));
#451=DIRECTION('',(0.,0.,1.));
#452=DIRECTION('',(1.,0.,0.));
#453=DIRECTION('',(0.,0.,-1.));
#454=DIRECTION('',(-1.,0.,0.));
#455=DIRECTION('',(0.,0.,1.));
#456=DIRECTION('',(-1.,0.,0.));
#457=DIRECTION('',(0.,0.,1.));
#458=DIRECTION('',(-1.,0.,0.));
#459=DIRECTION('',(0.,0.,1.));
#460=DIRECTION('',(-1.,0.,0.));
#461=DIRECTION('',(-3.26070781437302E-17,0.,1.));
#462=DIRECTION('',(-1.,0.,0.));
#463=DIRECTION('',(0.,0.,1.));
#464=DIRECTION('',(-1.,0.,0.));
#465=DIRECTION('',(0.,0.,1.));
#466=DIRECTION('',(-1.,0.,0.));
#467=DIRECTION('',(0.,0.,1.));
#468=DIRECTION('',(1.,0.,0.));
#469=DIRECTION('',(0.,0.,-1.));
#470=DIRECTION('',(-1.,0.,0.));
#471=DIRECTION('',(0.,0.,1.));
#472=DIRECTION('',(-1.,0.,0.));
#473=DIRECTION('',(7.19124629270575E-18,0.,1.));
#474=DIRECTION('',(1.,0.,0.));
#475=DIRECTION('',(0.,0.,-1.));
#476=DIRECTION('',(1.,0.,0.));
#477=DIRECTION('',(0.,0.,-1.));
#478=DIRECTION('',(1.,0.,0.));
#479=DIRECTION('',(0.,0.,-1.));
#480=DIRECTION('',(1.,0.,0.));
#481=DIRECTION('',(1.,0.,0.));
#482=DIRECTION('',(0.,0.,-1.));
#483=DIRECTION('',(1.,0.,0.));
#484=DIRECTION('',(1.,0.,0.));
#485=DIRECTION('',(0.,0.,-1.));
#486=DIRECTION('',(1.,0.,0.));
#487=DIRECTION('',(1.,0.,0.));
#488=CARTESIAN_POINT('',(0.,0.,0.));
#489=CARTESIAN_POINT('',(0.7,0.,0.));
#490=CARTESIAN_POINT('',(0.7,0.,14.6802095416488));
#491=CARTESIAN_POINT('',(1.51954574252212,0.,0.));
#492=CARTESIAN_POINT('',(1.51954574252212,0.,15.4799707334737));
#493=CARTESIAN_POINT('',(1.5,0.,0.));
#494=CARTESIAN_POINT('',(6.83761174015273,0.,0.));
#495=CARTESIAN_POINT('',(6.83761174015273,0.,15.35));
#496=CARTESIAN_POINT('',(6.83761174015273,0.,0.));
#497=CARTESIAN_POINT('',(48.8741669750802,0.,0.));
#498=CARTESIAN_POINT('',(48.8741669750802,0.,15.35));
#499=CARTESIAN_POINT('',(0.,0.,0.));
#500=CARTESIAN_POINT('',(50.,0.,0.));
#501=CARTESIAN_POINT('',(50.,0.,16.));
#502=CARTESIAN_POINT('',(50.,0.,0.));
#503=CARTESIAN_POINT('',(144.582179545096,0.,0.));
#504=CARTESIAN_POINT('',(144.582179545096,0.,16.));
#505=CARTESIAN_POINT('',(0.,0.,0.));
#506=CARTESIAN_POINT('',(146.,0.,0.));
#507=CARTESIAN_POINT('',(146.,0.,15.75));
#508=CARTESIAN_POINT('',(146.,0.,0.));
#509=CARTESIAN_POINT('',(149.,0.,0.));
#510=CARTESIAN_POINT('',(149.,0.,15.75));
#511=CARTESIAN_POINT('',(0.,0.,0.));
#512=CARTESIAN_POINT('',(150.,0.,0.));
#513=CARTESIAN_POINT('',(150.,0.,14.75));
#514=CARTESIAN_POINT('',(149.,0.,0.));
#515=CARTESIAN_POINT('',(150.,14.75,0.));
#516=CARTESIAN_POINT('',(1.7,0.,0.));
#517=CARTESIAN_POINT('',(1.7,0.,9.94862915010153));
#518=CARTESIAN_POINT('',(1.7,9.94862915010153,0.));
#519=CARTESIAN_POINT('',(1.46568542494924,0.,0.));
#520=CARTESIAN_POINT('',(1.46568542494924,0.,10.5143145750508));
#521=CARTESIAN_POINT('',(0.9,0.,0.));
#522=CARTESIAN_POINT('',(1.16431457505076,0.,0.));
#523=CARTESIAN_POINT('',(1.16431457505076,0.,10.8156854249492));
#524=CARTESIAN_POINT('',(1.16431457505076,0.,0.));
#525=CARTESIAN_POINT('',(0.93,0.,0.));
#526=CARTESIAN_POINT('',(0.93,0.,11.3813708498985));
#527=CARTESIAN_POINT('',(1.73,0.,0.));
#528=CARTESIAN_POINT('',(0.93,0.,0.));
#529=CARTESIAN_POINT('',(0.93,0.,13.29293507482));
#530=CARTESIAN_POINT('',(0.93,13.29293507482,0.));
#531=CARTESIAN_POINT('',(0.7,0.,0.));
#532=CARTESIAN_POINT('',(0.7,0.,14.375));
#533=CARTESIAN_POINT('',(0.7,0.,0.));
#534=CARTESIAN_POINT('',(0.7,14.6802095416488,0.));
#535=CARTESIAN_POINT('',(0.786481722215825,0.,0.));
#536=CARTESIAN_POINT('',(0.786481722215825,0.,-15.9998584344313));
#537=CARTESIAN_POINT('',(1.12123193949606,0.,0.));
#538=CARTESIAN_POINT('',(1.12123193949606,0.,-9.40864516239605));
#539=CARTESIAN_POINT('',(1.12123193949606,-9.38751018759891,0.630282690231385));
#540=CARTESIAN_POINT('',(0.966446584931742,-9.39519039630838,0.661815587658481));
#541=CARTESIAN_POINT('',(0.752873668585756,-9.58834966116553,0.684123759831735));
#542=CARTESIAN_POINT('',(0.753475249105705,-9.90006510533885,0.647798226250766));
#543=CARTESIAN_POINT('',(0.750749292416175,-10.1969375591627,0.613893469388756));
#544=CARTESIAN_POINT('',(0.74801734653466,-10.5522334287364,0.573205256158005));
#545=CARTESIAN_POINT('',(0.736757996821595,-10.9698845436745,0.527062069179247));
#546=CARTESIAN_POINT('',(0.708455817828359,-11.3953993178413,0.483575847442174));
#547=CARTESIAN_POINT('',(0.655629657510203,-11.8359858018295,0.443476689386202));
#548=CARTESIAN_POINT('',(0.570798363818571,-12.2988520462317,0.407494693451535));
#549=CARTESIAN_POINT('',(0.446782764650288,-12.762417640641,0.379639902451093));
#550=CARTESIAN_POINT('',(0.276403687900398,-13.2051021746503,0.363922359198161));
#551=CARTESIAN_POINT('',(0.0204103378149356,-13.6154128385391,0.369899072618933));
#552=CARTESIAN_POINT('',(-0.00378760618623504,-14.0951979162282,0.319250675990099));
#553=CARTESIAN_POINT('',(0.00211079076287703,-14.5654735451268,0.263401959335695));
#554=CARTESIAN_POINT('',(-0.00162266438149387,-15.0356090677,0.209587216252601));
#555=CARTESIAN_POINT('',(0.0165081837129061,-15.4360105279283,0.159290503851533));
#556=CARTESIAN_POINT('',(0.173509556105457,-15.7026610125697,0.0954353676587994));
#557=CARTESIAN_POINT('',(0.403053008439565,-15.9163530649129,0.0225340084840543));
#558=CARTESIAN_POINT('',(0.631557757124171,-15.9977186441547,-0.034782687903275));
#559=CARTESIAN_POINT('',(0.786481722215825,-15.9997161825937,-0.067468498520809));
#560=CARTESIAN_POINT('',(0.,0.,0.));
#561=CARTESIAN_POINT('',(10.3754175739157,0.,0.));
#562=CARTESIAN_POINT('',(10.3754175739157,0.,-15.9093518631364));
#563=CARTESIAN_POINT('',(0.786481722215825,-15.9997161825937,-0.067468498520809));
#564=CARTESIAN_POINT('',(0.987515163146592,-15.9996361486668,-0.109572162087478));
#565=CARTESIAN_POINT('',(1.38942749921863,-16.0007374967228,-0.193893602829176));
#566=CARTESIAN_POINT('',(2.19072171581349,-16.0055472959293,-0.36230916140435));
#567=CARTESIAN_POINT('',(3.58132443400087,-16.0144068687379,-0.654644750753431));
#568=CARTESIAN_POINT('',(5.5762319883152,-15.9885733362428,-1.06954262794954));
#569=CARTESIAN_POINT('',(7.56380018214018,-15.9080413900947,-1.47655091213032));
#570=CARTESIAN_POINT('',(8.96837890814353,-15.8452649064143,-1.76349513355297));
#571=CARTESIAN_POINT('',(9.77221359407256,-15.799091738943,-1.9265222239351));
#572=CARTESIAN_POINT('',(10.1752008205978,-15.8004244188377,-2.01109569982173));
#573=CARTESIAN_POINT('',(10.3754175739157,-15.7766861269385,-2.05028084835889));
#574=CARTESIAN_POINT('',(0.,0.,0.));
#575=CARTESIAN_POINT('',(10.7095467264122,0.,0.));
#576=CARTESIAN_POINT('',(10.7095467264122,0.,-9.26423629162351));
#577=CARTESIAN_POINT('',(10.3754175739157,-15.7766861269385,-2.05028084835889));
#578=CARTESIAN_POINT('',(10.5301668821251,-15.7690062471469,-2.08180623290802));
#579=CARTESIAN_POINT('',(10.7437268516494,-15.5758668117456,-2.10411399574523));
#580=CARTESIAN_POINT('',(10.7431233552012,-15.2641818725405,-2.06779160335293));
#581=CARTESIAN_POINT('',(10.745708916448,-14.9673821766554,-2.03386588550255));
#582=CARTESIAN_POINT('',(10.7494091673545,-14.6120322706042,-1.99337423982938));
#583=CARTESIAN_POINT('',(10.759904292058,-14.1946096171835,-1.94709749243361));
#584=CARTESIAN_POINT('',(10.7882865261544,-13.7692088313773,-1.90364127829555));
#585=CARTESIAN_POINT('',(10.8413048641369,-13.3286695434676,-1.86358785894896));
#586=CARTESIAN_POINT('',(10.9261246260287,-12.865809669883,-1.82760418714879));
#587=CARTESIAN_POINT('',(11.0500223472777,-12.4022491456954,-1.79972529160946));
#588=CARTESIAN_POINT('',(11.2203104088171,-11.9595749282658,-1.78398988034056));
#589=CARTESIAN_POINT('',(11.4762033271241,-11.5492575803181,-1.78994477885651));
#590=CARTESIAN_POINT('',(11.5003025018202,-11.0694888550473,-1.73927759080768));
#591=CARTESIAN_POINT('',(11.4943055079027,-10.5992135337539,-1.68340825555069));
#592=CARTESIAN_POINT('',(11.4979388694253,-10.1290855926546,-1.62957342505687));
#593=CARTESIAN_POINT('',(11.4868619156219,-9.72941494203347,-1.58083924793434));
#594=CARTESIAN_POINT('',(11.3163232649547,-9.46139031603997,-1.51398871182894));
#595=CARTESIAN_POINT('',(11.0887069619373,-9.24790353177765,-1.44151489420572));
#596=CARTESIAN_POINT('',(10.864503553482,-9.16698160444929,-1.38515077397823));
#597=CARTESIAN_POINT('',(10.7095467264122,-9.16498397377707,-1.3524580686452));
#598=CARTESIAN_POINT('',(0.,0.,0.));
#599=CARTESIAN_POINT('',(10.7095467264122,-9.16498397377707,-1.3524580686452));
#600=CARTESIAN_POINT('',(10.5085419012966,-9.16513932937119,-1.31036914669164));
#601=CARTESIAN_POINT('',(10.1062271879936,-9.16544662248983,-1.22612700051451));
#602=CARTESIAN_POINT('',(9.3055696925184,-9.15849150371759,-1.05759568782547));
#603=CARTESIAN_POINT('',(7.91504649230163,-9.15064718136717,-0.765394657118834));
#604=CARTESIAN_POINT('',(5.92003306844466,-9.17578640931579,-0.35039397253825));
#605=CARTESIAN_POINT('',(3.93246274736077,-9.25602219226429,0.0566491506967242));
#606=CARTESIAN_POINT('',(2.52809011281863,-9.31920059036994,0.343503525275146));
#607=CARTESIAN_POINT('',(1.72433002252097,-9.36462796630014,0.506601597957216));
#608=CARTESIAN_POINT('',(1.32150100137532,-9.36471309172534,0.590977282883741));
#609=CARTESIAN_POINT('',(1.12123193949606,-9.38751018759891,0.630282690231385));
#610=CARTESIAN_POINT('',(0.,0.,0.));
#611=(
GEOMETRIC_REPRESENTATION_CONTEXT(3)
GLOBAL_UNCERTAINTY_ASSIGNED_CONTEXT((#612))
GLOBAL_UNIT_ASSIGNED_CONTEXT((#618,#614,#613))
REPRESENTATION_CONTEXT('AEM90-R390','TOP_LEVEL_ASSEMBLY_PART')
);
#612=UNCERTAINTY_MEASURE_WITH_UNIT(LENGTH_MEASURE(2.E-5),#618,
'DISTANCE_ACCURACY_VALUE','Maximum Tolerance applied to model');
#613=(
NAMED_UNIT(*)
SI_UNIT($,.STERADIAN.)
SOLID_ANGLE_UNIT()
);
#614=(
CONVERSION_BASED_UNIT('DEGREE',#616)
NAMED_UNIT(#615)
PLANE_ANGLE_UNIT()
);
#615=DIMENSIONAL_EXPONENTS(0.,0.,0.,0.,0.,0.,0.);
#616=PLANE_ANGLE_MEASURE_WITH_UNIT(PLANE_ANGLE_MEASURE(0.0174532925),#617);
#617=(
NAMED_UNIT(*)
PLANE_ANGLE_UNIT()
SI_UNIT($,.RADIAN.)
);
#618=(
LENGTH_UNIT()
NAMED_UNIT(*)
SI_UNIT(.MILLI.,.METRE.)
);
ENDSEC;
END-ISO-10303-21;
