ISO-10303-21;
HEADER;
/* Generated by software containing ST-Developer
 * from STEP Tools, Inc. (www.steptools.com) 
 */
/* OPTION: using custom schema-name function */

FILE_DESCRIPTION(
/* description */ (''),
/* implementation_level */ '2;1');

FILE_NAME(
/* name */ 'AEM90-SPGT0602-D16-W16-L150-Z02.stp',
/* time_stamp */ '2023-10-26T22:00:09+03:00',
/* author */ (''),
/* organization */ (''),
/* preprocessor_version */ 'ST-DEVELOPER v19.4',
/* originating_system */ 'SIEMENS PLM Software NX2306.3001',
/* authorisation */ '');

FILE_SCHEMA (('AUTOMOTIVE_DESIGN { 1 0 10303 214 3 1 1 1 }'));
ENDSEC;

DATA;
#10=SHAPE_REPRESENTATION_RELATIONSHIP('None',
'relationship between AEM90-SPGT0602-D16-W16-L150-Z02-None and AEM90-S
PGT0602-D16-W16-L150-Z02-None',#22,#11);
#11=ADVANCED_BREP_SHAPE_REPRESENTATION(
'AEM90-SPGT0602-D16-W16-L150-Z02-None',(#163,#164),#601);
#12=SHAPE_DEFINITION_REPRESENTATION(#13,#22);
#13=PRODUCT_DEFINITION_SHAPE('','',#14);
#14=PRODUCT_DEFINITION(' ','',#16,#15);
#15=PRODUCT_DEFINITION_CONTEXT('part definition',#21,'design');
#16=PRODUCT_DEFINITION_FORMATION_WITH_SPECIFIED_SOURCE(' ',' ',#18,
 .NOT_KNOWN.);
#17=PRODUCT_RELATED_PRODUCT_CATEGORY('part','',(#18));
#18=PRODUCT('AEM90-SPGT0602-D16-W16-L150-Z02',
'AEM90-SPGT0602-D16-W16-L150-Z02',' ',(#19));
#19=PRODUCT_CONTEXT(' ',#21,'mechanical');
#20=APPLICATION_PROTOCOL_DEFINITION('international standard',
'automotive_design',2010,#21);
#21=APPLICATION_CONTEXT(
'core data for automotive mechanical design processes');
#22=SHAPE_REPRESENTATION('AEM90-SPGT0602-D16-W16-L150-Z02-None',(#396),
#601);
#23=DRAUGHTING_PRE_DEFINED_COLOUR('yellow');
#24=SURFACE_OF_REVOLUTION('',#40,#32);
#25=SURFACE_OF_REVOLUTION('',#387,#33);
#26=SURFACE_OF_REVOLUTION('',#41,#34);
#27=SURFACE_OF_REVOLUTION('',#390,#35);
#28=SURFACE_OF_REVOLUTION('',#42,#36);
#29=SURFACE_OF_REVOLUTION('',#393,#37);
#30=SURFACE_OF_REVOLUTION('',#43,#38);
#31=SURFACE_OF_REVOLUTION('',#395,#39);
#32=AXIS1_PLACEMENT('',#574,#497);
#33=AXIS1_PLACEMENT('',#578,#502);
#34=AXIS1_PLACEMENT('',#582,#506);
#35=AXIS1_PLACEMENT('',#586,#511);
#36=AXIS1_PLACEMENT('',#590,#515);
#37=AXIS1_PLACEMENT('',#594,#520);
#38=AXIS1_PLACEMENT('',#598,#524);
#39=AXIS1_PLACEMENT('',#600,#527);
#40=LINE('',#573,#44);
#41=LINE('',#581,#45);
#42=LINE('',#589,#46);
#43=LINE('',#597,#47);
#44=VECTOR('',#496,5.19999999999999);
#45=VECTOR('',#505,5.2);
#46=VECTOR('',#514,5.20000000000001);
#47=VECTOR('',#523,5.2);
#48=OVER_RIDING_STYLED_ITEM('',(#66),#179,#63);
#49=OVER_RIDING_STYLED_ITEM('',(#67),#180,#63);
#50=OVER_RIDING_STYLED_ITEM('',(#68),#181,#63);
#51=OVER_RIDING_STYLED_ITEM('',(#69),#182,#63);
#52=OVER_RIDING_STYLED_ITEM('',(#70),#183,#63);
#53=OVER_RIDING_STYLED_ITEM('',(#71),#184,#63);
#54=OVER_RIDING_STYLED_ITEM('',(#72),#185,#63);
#55=OVER_RIDING_STYLED_ITEM('',(#73),#186,#63);
#56=OVER_RIDING_STYLED_ITEM('',(#74),#187,#63);
#57=OVER_RIDING_STYLED_ITEM('',(#75),#188,#63);
#58=OVER_RIDING_STYLED_ITEM('',(#76),#189,#63);
#59=OVER_RIDING_STYLED_ITEM('',(#77),#190,#63);
#60=OVER_RIDING_STYLED_ITEM('',(#78),#191,#63);
#61=OVER_RIDING_STYLED_ITEM('',(#79),#192,#63);
#62=PRESENTATION_LAYER_ASSIGNMENT('1','Layer 1',(#163,#164));
#63=STYLED_ITEM('',(#65),#163);
#64=STYLED_ITEM('',(#80),#164);
#65=PRESENTATION_STYLE_ASSIGNMENT((#81));
#66=PRESENTATION_STYLE_ASSIGNMENT((#82));
#67=PRESENTATION_STYLE_ASSIGNMENT((#83));
#68=PRESENTATION_STYLE_ASSIGNMENT((#84));
#69=PRESENTATION_STYLE_ASSIGNMENT((#85));
#70=PRESENTATION_STYLE_ASSIGNMENT((#86));
#71=PRESENTATION_STYLE_ASSIGNMENT((#87));
#72=PRESENTATION_STYLE_ASSIGNMENT((#88));
#73=PRESENTATION_STYLE_ASSIGNMENT((#89));
#74=PRESENTATION_STYLE_ASSIGNMENT((#90));
#75=PRESENTATION_STYLE_ASSIGNMENT((#91));
#76=PRESENTATION_STYLE_ASSIGNMENT((#92));
#77=PRESENTATION_STYLE_ASSIGNMENT((#93));
#78=PRESENTATION_STYLE_ASSIGNMENT((#94));
#79=PRESENTATION_STYLE_ASSIGNMENT((#95));
#80=PRESENTATION_STYLE_ASSIGNMENT((#96));
#81=SURFACE_STYLE_USAGE(.BOTH.,#97);
#82=SURFACE_STYLE_USAGE(.BOTH.,#98);
#83=SURFACE_STYLE_USAGE(.BOTH.,#99);
#84=SURFACE_STYLE_USAGE(.BOTH.,#100);
#85=SURFACE_STYLE_USAGE(.BOTH.,#101);
#86=SURFACE_STYLE_USAGE(.BOTH.,#102);
#87=SURFACE_STYLE_USAGE(.BOTH.,#103);
#88=SURFACE_STYLE_USAGE(.BOTH.,#104);
#89=SURFACE_STYLE_USAGE(.BOTH.,#105);
#90=SURFACE_STYLE_USAGE(.BOTH.,#106);
#91=SURFACE_STYLE_USAGE(.BOTH.,#107);
#92=SURFACE_STYLE_USAGE(.BOTH.,#108);
#93=SURFACE_STYLE_USAGE(.BOTH.,#109);
#94=SURFACE_STYLE_USAGE(.BOTH.,#110);
#95=SURFACE_STYLE_USAGE(.BOTH.,#111);
#96=SURFACE_STYLE_USAGE(.BOTH.,#112);
#97=SURFACE_SIDE_STYLE('',(#113));
#98=SURFACE_SIDE_STYLE('',(#114));
#99=SURFACE_SIDE_STYLE('',(#115));
#100=SURFACE_SIDE_STYLE('',(#116));
#101=SURFACE_SIDE_STYLE('',(#117));
#102=SURFACE_SIDE_STYLE('',(#118));
#103=SURFACE_SIDE_STYLE('',(#119));
#104=SURFACE_SIDE_STYLE('',(#120));
#105=SURFACE_SIDE_STYLE('',(#121));
#106=SURFACE_SIDE_STYLE('',(#122));
#107=SURFACE_SIDE_STYLE('',(#123));
#108=SURFACE_SIDE_STYLE('',(#124));
#109=SURFACE_SIDE_STYLE('',(#125));
#110=SURFACE_SIDE_STYLE('',(#126));
#111=SURFACE_SIDE_STYLE('',(#127));
#112=SURFACE_SIDE_STYLE('',(#128));
#113=SURFACE_STYLE_FILL_AREA(#129);
#114=SURFACE_STYLE_FILL_AREA(#130);
#115=SURFACE_STYLE_FILL_AREA(#131);
#116=SURFACE_STYLE_FILL_AREA(#132);
#117=SURFACE_STYLE_FILL_AREA(#133);
#118=SURFACE_STYLE_FILL_AREA(#134);
#119=SURFACE_STYLE_FILL_AREA(#135);
#120=SURFACE_STYLE_FILL_AREA(#136);
#121=SURFACE_STYLE_FILL_AREA(#137);
#122=SURFACE_STYLE_FILL_AREA(#138);
#123=SURFACE_STYLE_FILL_AREA(#139);
#124=SURFACE_STYLE_FILL_AREA(#140);
#125=SURFACE_STYLE_FILL_AREA(#141);
#126=SURFACE_STYLE_FILL_AREA(#142);
#127=SURFACE_STYLE_FILL_AREA(#143);
#128=SURFACE_STYLE_FILL_AREA(#144);
#129=FILL_AREA_STYLE('',(#145));
#130=FILL_AREA_STYLE('',(#146));
#131=FILL_AREA_STYLE('',(#147));
#132=FILL_AREA_STYLE('',(#148));
#133=FILL_AREA_STYLE('',(#149));
#134=FILL_AREA_STYLE('',(#150));
#135=FILL_AREA_STYLE('',(#151));
#136=FILL_AREA_STYLE('',(#152));
#137=FILL_AREA_STYLE('',(#153));
#138=FILL_AREA_STYLE('',(#154));
#139=FILL_AREA_STYLE('',(#155));
#140=FILL_AREA_STYLE('',(#156));
#141=FILL_AREA_STYLE('',(#157));
#142=FILL_AREA_STYLE('',(#158));
#143=FILL_AREA_STYLE('',(#159));
#144=FILL_AREA_STYLE('',(#160));
#145=FILL_AREA_STYLE_COLOUR('',#161);
#146=FILL_AREA_STYLE_COLOUR('',#162);
#147=FILL_AREA_STYLE_COLOUR('',#162);
#148=FILL_AREA_STYLE_COLOUR('',#162);
#149=FILL_AREA_STYLE_COLOUR('',#162);
#150=FILL_AREA_STYLE_COLOUR('',#162);
#151=FILL_AREA_STYLE_COLOUR('',#162);
#152=FILL_AREA_STYLE_COLOUR('',#162);
#153=FILL_AREA_STYLE_COLOUR('',#162);
#154=FILL_AREA_STYLE_COLOUR('',#162);
#155=FILL_AREA_STYLE_COLOUR('',#162);
#156=FILL_AREA_STYLE_COLOUR('',#162);
#157=FILL_AREA_STYLE_COLOUR('',#162);
#158=FILL_AREA_STYLE_COLOUR('',#162);
#159=FILL_AREA_STYLE_COLOUR('',#162);
#160=FILL_AREA_STYLE_COLOUR('',#23);
#161=COLOUR_RGB('Medium Steel',0.611764705882353,0.658823529411765,0.670588235294118);
#162=COLOUR_RGB('silver gray',0.6,0.6,0.6);
#163=MANIFOLD_SOLID_BREP('',#165);
#164=MANIFOLD_SOLID_BREP('',#166);
#165=CLOSED_SHELL('',(#179,#180,#181,#182,#183,#184,#185,#186,#187,#188,
#189,#190,#191,#192));
#166=CLOSED_SHELL('',(#193,#194,#195,#196,#197,#198,#199,#200));
#167=FACE_OUTER_BOUND('',#267,.T.);
#168=FACE_OUTER_BOUND('',#268,.T.);
#169=CYLINDRICAL_SURFACE('',#407,7.5);
#170=CYLINDRICAL_SURFACE('',#413,8.);
#171=CYLINDRICAL_SURFACE('',#417,7.75);
#172=CONICAL_SURFACE('',#405,7.5,1.4999999999996);
#173=CONICAL_SURFACE('',#411,8.,29.9999999999999);
#174=CONICAL_SURFACE('',#415,7.75,9.99999999999958);
#175=CONICAL_SURFACE('',#423,2.76794919243113,60.0000000000001);
#176=PLANE('',#401);
#177=PLANE('',#420);
#178=PLANE('',#422);
#179=ADVANCED_FACE('',(#205,#206),#201,.T.);
#180=ADVANCED_FACE('',(#207,#208),#176,.F.);
#181=ADVANCED_FACE('',(#209,#210),#202,.T.);
#182=ADVANCED_FACE('',(#211,#212),#172,.T.);
#183=ADVANCED_FACE('',(#213,#214),#169,.T.);
#184=ADVANCED_FACE('',(#215,#216),#203,.F.);
#185=ADVANCED_FACE('',(#217,#218),#173,.T.);
#186=ADVANCED_FACE('',(#219,#220),#170,.T.);
#187=ADVANCED_FACE('',(#221,#222),#174,.T.);
#188=ADVANCED_FACE('',(#223,#224),#171,.T.);
#189=ADVANCED_FACE('',(#225,#226),#204,.T.);
#190=ADVANCED_FACE('',(#167),#177,.F.);
#191=ADVANCED_FACE('',(#168),#178,.F.);
#192=ADVANCED_FACE('',(#227,#228),#175,.F.);
#193=ADVANCED_FACE('',(#229,#230),#24,.T.);
#194=ADVANCED_FACE('',(#231,#232),#25,.T.);
#195=ADVANCED_FACE('',(#233,#234),#26,.T.);
#196=ADVANCED_FACE('',(#235,#236),#27,.T.);
#197=ADVANCED_FACE('',(#237,#238),#28,.T.);
#198=ADVANCED_FACE('',(#239,#240),#29,.T.);
#199=ADVANCED_FACE('',(#241,#242),#30,.T.);
#200=ADVANCED_FACE('',(#243,#244),#31,.T.);
#201=TOROIDAL_SURFACE('',#399,3.26794919243112,1.);
#202=TOROIDAL_SURFACE('',#403,6.60283785620134,0.8);
#203=TOROIDAL_SURFACE('',#409,10.,2.5);
#204=TOROIDAL_SURFACE('',#419,6.75,1.);
#205=FACE_BOUND('',#245,.T.);
#206=FACE_BOUND('',#246,.T.);
#207=FACE_BOUND('',#247,.T.);
#208=FACE_BOUND('',#248,.T.);
#209=FACE_BOUND('',#249,.T.);
#210=FACE_BOUND('',#250,.T.);
#211=FACE_BOUND('',#251,.T.);
#212=FACE_BOUND('',#252,.T.);
#213=FACE_BOUND('',#253,.T.);
#214=FACE_BOUND('',#254,.T.);
#215=FACE_BOUND('',#255,.T.);
#216=FACE_BOUND('',#256,.T.);
#217=FACE_BOUND('',#257,.T.);
#218=FACE_BOUND('',#258,.T.);
#219=FACE_BOUND('',#259,.T.);
#220=FACE_BOUND('',#260,.T.);
#221=FACE_BOUND('',#261,.T.);
#222=FACE_BOUND('',#262,.T.);
#223=FACE_BOUND('',#263,.T.);
#224=FACE_BOUND('',#264,.T.);
#225=FACE_BOUND('',#265,.T.);
#226=FACE_BOUND('',#266,.T.);
#227=FACE_BOUND('',#269,.T.);
#228=FACE_BOUND('',#270,.T.);
#229=FACE_BOUND('',#271,.T.);
#230=FACE_BOUND('',#272,.T.);
#231=FACE_BOUND('',#273,.T.);
#232=FACE_BOUND('',#274,.T.);
#233=FACE_BOUND('',#275,.T.);
#234=FACE_BOUND('',#276,.T.);
#235=FACE_BOUND('',#277,.T.);
#236=FACE_BOUND('',#278,.T.);
#237=FACE_BOUND('',#279,.T.);
#238=FACE_BOUND('',#280,.T.);
#239=FACE_BOUND('',#281,.T.);
#240=FACE_BOUND('',#282,.T.);
#241=FACE_BOUND('',#283,.T.);
#242=FACE_BOUND('',#284,.T.);
#243=FACE_BOUND('',#285,.T.);
#244=FACE_BOUND('',#286,.T.);
#245=EDGE_LOOP('',(#287));
#246=EDGE_LOOP('',(#288));
#247=EDGE_LOOP('',(#289));
#248=EDGE_LOOP('',(#290));
#249=EDGE_LOOP('',(#291));
#250=EDGE_LOOP('',(#292));
#251=EDGE_LOOP('',(#293));
#252=EDGE_LOOP('',(#294));
#253=EDGE_LOOP('',(#295));
#254=EDGE_LOOP('',(#296));
#255=EDGE_LOOP('',(#297));
#256=EDGE_LOOP('',(#298));
#257=EDGE_LOOP('',(#299));
#258=EDGE_LOOP('',(#300));
#259=EDGE_LOOP('',(#301));
#260=EDGE_LOOP('',(#302));
#261=EDGE_LOOP('',(#303));
#262=EDGE_LOOP('',(#304));
#263=EDGE_LOOP('',(#305));
#264=EDGE_LOOP('',(#306));
#265=EDGE_LOOP('',(#307));
#266=EDGE_LOOP('',(#308));
#267=EDGE_LOOP('',(#309));
#268=EDGE_LOOP('',(#310));
#269=EDGE_LOOP('',(#311));
#270=EDGE_LOOP('',(#312));
#271=EDGE_LOOP('',(#313));
#272=EDGE_LOOP('',(#314));
#273=EDGE_LOOP('',(#315));
#274=EDGE_LOOP('',(#316));
#275=EDGE_LOOP('',(#317));
#276=EDGE_LOOP('',(#318));
#277=EDGE_LOOP('',(#319));
#278=EDGE_LOOP('',(#320));
#279=EDGE_LOOP('',(#321));
#280=EDGE_LOOP('',(#322));
#281=EDGE_LOOP('',(#323));
#282=EDGE_LOOP('',(#324));
#283=EDGE_LOOP('',(#325));
#284=EDGE_LOOP('',(#326));
#285=EDGE_LOOP('',(#327));
#286=EDGE_LOOP('',(#328));
#287=ORIENTED_EDGE('',*,*,#350,.F.);
#288=ORIENTED_EDGE('',*,*,#351,.T.);
#289=ORIENTED_EDGE('',*,*,#351,.F.);
#290=ORIENTED_EDGE('',*,*,#352,.T.);
#291=ORIENTED_EDGE('',*,*,#352,.F.);
#292=ORIENTED_EDGE('',*,*,#353,.T.);
#293=ORIENTED_EDGE('',*,*,#353,.F.);
#294=ORIENTED_EDGE('',*,*,#354,.T.);
#295=ORIENTED_EDGE('',*,*,#354,.F.);
#296=ORIENTED_EDGE('',*,*,#355,.T.);
#297=ORIENTED_EDGE('',*,*,#355,.F.);
#298=ORIENTED_EDGE('',*,*,#356,.T.);
#299=ORIENTED_EDGE('',*,*,#356,.F.);
#300=ORIENTED_EDGE('',*,*,#357,.T.);
#301=ORIENTED_EDGE('',*,*,#357,.F.);
#302=ORIENTED_EDGE('',*,*,#358,.T.);
#303=ORIENTED_EDGE('',*,*,#358,.F.);
#304=ORIENTED_EDGE('',*,*,#359,.T.);
#305=ORIENTED_EDGE('',*,*,#359,.F.);
#306=ORIENTED_EDGE('',*,*,#360,.T.);
#307=ORIENTED_EDGE('',*,*,#360,.F.);
#308=ORIENTED_EDGE('',*,*,#361,.T.);
#309=ORIENTED_EDGE('',*,*,#361,.F.);
#310=ORIENTED_EDGE('',*,*,#362,.T.);
#311=ORIENTED_EDGE('',*,*,#362,.F.);
#312=ORIENTED_EDGE('',*,*,#350,.T.);
#313=ORIENTED_EDGE('',*,*,#363,.F.);
#314=ORIENTED_EDGE('',*,*,#364,.T.);
#315=ORIENTED_EDGE('',*,*,#365,.F.);
#316=ORIENTED_EDGE('',*,*,#363,.T.);
#317=ORIENTED_EDGE('',*,*,#366,.F.);
#318=ORIENTED_EDGE('',*,*,#365,.T.);
#319=ORIENTED_EDGE('',*,*,#367,.F.);
#320=ORIENTED_EDGE('',*,*,#366,.T.);
#321=ORIENTED_EDGE('',*,*,#368,.F.);
#322=ORIENTED_EDGE('',*,*,#367,.T.);
#323=ORIENTED_EDGE('',*,*,#369,.F.);
#324=ORIENTED_EDGE('',*,*,#368,.T.);
#325=ORIENTED_EDGE('',*,*,#370,.F.);
#326=ORIENTED_EDGE('',*,*,#369,.T.);
#327=ORIENTED_EDGE('',*,*,#364,.F.);
#328=ORIENTED_EDGE('',*,*,#370,.T.);
#329=VERTEX_POINT('',#530);
#330=VERTEX_POINT('',#532);
#331=VERTEX_POINT('',#535);
#332=VERTEX_POINT('',#538);
#333=VERTEX_POINT('',#541);
#334=VERTEX_POINT('',#544);
#335=VERTEX_POINT('',#547);
#336=VERTEX_POINT('',#550);
#337=VERTEX_POINT('',#553);
#338=VERTEX_POINT('',#556);
#339=VERTEX_POINT('',#559);
#340=VERTEX_POINT('',#562);
#341=VERTEX_POINT('',#566);
#342=VERTEX_POINT('',#570);
#343=VERTEX_POINT('',#572);
#344=VERTEX_POINT('',#576);
#345=VERTEX_POINT('',#580);
#346=VERTEX_POINT('',#584);
#347=VERTEX_POINT('',#588);
#348=VERTEX_POINT('',#592);
#349=VERTEX_POINT('',#596);
#350=EDGE_CURVE('',#329,#329,#371,.T.);
#351=EDGE_CURVE('',#330,#330,#372,.T.);
#352=EDGE_CURVE('',#331,#331,#373,.T.);
#353=EDGE_CURVE('',#332,#332,#374,.T.);
#354=EDGE_CURVE('',#333,#333,#375,.T.);
#355=EDGE_CURVE('',#334,#334,#376,.T.);
#356=EDGE_CURVE('',#335,#335,#377,.T.);
#357=EDGE_CURVE('',#336,#336,#378,.T.);
#358=EDGE_CURVE('',#337,#337,#379,.T.);
#359=EDGE_CURVE('',#338,#338,#380,.T.);
#360=EDGE_CURVE('',#339,#339,#381,.T.);
#361=EDGE_CURVE('',#340,#340,#382,.T.);
#362=EDGE_CURVE('',#341,#341,#383,.T.);
#363=EDGE_CURVE('',#342,#342,#384,.T.);
#364=EDGE_CURVE('',#343,#343,#385,.T.);
#365=EDGE_CURVE('',#344,#344,#386,.T.);
#366=EDGE_CURVE('',#345,#345,#388,.T.);
#367=EDGE_CURVE('',#346,#346,#389,.T.);
#368=EDGE_CURVE('',#347,#347,#391,.T.);
#369=EDGE_CURVE('',#348,#348,#392,.T.);
#370=EDGE_CURVE('',#349,#349,#394,.T.);
#371=CIRCLE('',#397,2.76794919243113);
#372=CIRCLE('',#398,3.26794919243112);
#373=CIRCLE('',#400,6.60283785620134);
#374=CIRCLE('',#402,7.40256371618179);
#375=CIRCLE('',#404,7.5);
#376=CIRCLE('',#406,7.5);
#377=CIRCLE('',#408,7.83493649053891);
#378=CIRCLE('',#410,8.);
#379=CIRCLE('',#412,8.);
#380=CIRCLE('',#414,7.75);
#381=CIRCLE('',#416,7.75);
#382=CIRCLE('',#418,6.75);
#383=CIRCLE('',#421,2.13397459621555);
#384=CIRCLE('',#424,7.60514498620699);
#385=CIRCLE('',#425,2.57522616152862);
#386=CIRCLE('',#426,7.99999853911126);
#387=CIRCLE('',#427,0.4);
#388=CIRCLE('',#428,7.99504599703348);
#389=CIRCLE('',#429,7.59693891347017);
#390=CIRCLE('',#430,0.4);
#391=CIRCLE('',#431,2.46445532771129);
#392=CIRCLE('',#432,2.09034915844346);
#393=CIRCLE('',#433,0.4);
#394=CIRCLE('',#434,2.2095873030525);
#395=CIRCLE('',#435,0.4);
#396=AXIS2_PLACEMENT_3D('',#528,#436,#437);
#397=AXIS2_PLACEMENT_3D('',#529,#438,#439);
#398=AXIS2_PLACEMENT_3D('',#531,#440,#441);
#399=AXIS2_PLACEMENT_3D('',#533,#442,#443);
#400=AXIS2_PLACEMENT_3D('',#534,#444,#445);
#401=AXIS2_PLACEMENT_3D('',#536,#446,#447);
#402=AXIS2_PLACEMENT_3D('',#537,#448,#449);
#403=AXIS2_PLACEMENT_3D('',#539,#450,#451);
#404=AXIS2_PLACEMENT_3D('',#540,#452,#453);
#405=AXIS2_PLACEMENT_3D('',#542,#454,#455);
#406=AXIS2_PLACEMENT_3D('',#543,#456,#457);
#407=AXIS2_PLACEMENT_3D('',#545,#458,#459);
#408=AXIS2_PLACEMENT_3D('',#546,#460,#461);
#409=AXIS2_PLACEMENT_3D('',#548,#462,#463);
#410=AXIS2_PLACEMENT_3D('',#549,#464,#465);
#411=AXIS2_PLACEMENT_3D('',#551,#466,#467);
#412=AXIS2_PLACEMENT_3D('',#552,#468,#469);
#413=AXIS2_PLACEMENT_3D('',#554,#470,#471);
#414=AXIS2_PLACEMENT_3D('',#555,#472,#473);
#415=AXIS2_PLACEMENT_3D('',#557,#474,#475);
#416=AXIS2_PLACEMENT_3D('',#558,#476,#477);
#417=AXIS2_PLACEMENT_3D('',#560,#478,#479);
#418=AXIS2_PLACEMENT_3D('',#561,#480,#481);
#419=AXIS2_PLACEMENT_3D('',#563,#482,#483);
#420=AXIS2_PLACEMENT_3D('',#564,#484,#485);
#421=AXIS2_PLACEMENT_3D('',#565,#486,#487);
#422=AXIS2_PLACEMENT_3D('',#567,#488,#489);
#423=AXIS2_PLACEMENT_3D('',#568,#490,#491);
#424=AXIS2_PLACEMENT_3D('',#569,#492,#493);
#425=AXIS2_PLACEMENT_3D('',#571,#494,#495);
#426=AXIS2_PLACEMENT_3D('',#575,#498,#499);
#427=AXIS2_PLACEMENT_3D('',#577,#500,#501);
#428=AXIS2_PLACEMENT_3D('',#579,#503,#504);
#429=AXIS2_PLACEMENT_3D('',#583,#507,#508);
#430=AXIS2_PLACEMENT_3D('',#585,#509,#510);
#431=AXIS2_PLACEMENT_3D('',#587,#512,#513);
#432=AXIS2_PLACEMENT_3D('',#591,#516,#517);
#433=AXIS2_PLACEMENT_3D('',#593,#518,#519);
#434=AXIS2_PLACEMENT_3D('',#595,#521,#522);
#435=AXIS2_PLACEMENT_3D('',#599,#525,#526);
#436=DIRECTION('',(0.,0.,1.));
#437=DIRECTION('',(1.,0.,0.));
#438=DIRECTION('',(-1.,0.,0.));
#439=DIRECTION('',(0.,0.,1.));
#440=DIRECTION('',(-1.,0.,0.));
#441=DIRECTION('',(0.,0.,1.));
#442=DIRECTION('',(-1.,0.,0.));
#443=DIRECTION('',(0.,0.,1.));
#444=DIRECTION('',(-1.,0.,0.));
#445=DIRECTION('',(0.,0.,1.));
#446=DIRECTION('',(1.,0.,0.));
#447=DIRECTION('',(0.,0.,-1.));
#448=DIRECTION('',(-1.,0.,0.));
#449=DIRECTION('',(0.,0.,1.));
#450=DIRECTION('',(-1.,0.,0.));
#451=DIRECTION('',(0.,0.,1.));
#452=DIRECTION('',(-1.,0.,0.));
#453=DIRECTION('',(0.,0.,1.));
#454=DIRECTION('',(1.,0.,0.));
#455=DIRECTION('',(-3.16706472030092E-15,0.,-1.));
#456=DIRECTION('',(-1.,0.,0.));
#457=DIRECTION('',(0.,0.,1.));
#458=DIRECTION('',(-1.,0.,0.));
#459=DIRECTION('',(0.,0.,1.));
#460=DIRECTION('',(-1.,0.,0.));
#461=DIRECTION('',(0.,0.,1.));
#462=DIRECTION('',(-1.,0.,0.));
#463=DIRECTION('',(0.,0.,1.));
#464=DIRECTION('',(-1.,0.,0.));
#465=DIRECTION('',(0.,0.,1.));
#466=DIRECTION('',(1.,0.,0.));
#467=DIRECTION('',(7.1125556123997E-17,0.,-1.));
#468=DIRECTION('',(-1.,0.,0.));
#469=DIRECTION('',(0.,0.,1.));
#470=DIRECTION('',(-1.,0.,0.));
#471=DIRECTION('',(0.,0.,1.));
#472=DIRECTION('',(-1.,0.,0.));
#473=DIRECTION('',(0.,0.,1.));
#474=DIRECTION('',(-1.,0.,0.));
#475=DIRECTION('',(1.50782436287286E-16,0.,1.));
#476=DIRECTION('',(-1.,0.,0.));
#477=DIRECTION('',(0.,0.,1.));
#478=DIRECTION('',(-1.,0.,0.));
#479=DIRECTION('',(0.,0.,1.));
#480=DIRECTION('',(-1.,0.,0.));
#481=DIRECTION('',(0.,0.,1.));
#482=DIRECTION('',(-1.,0.,0.));
#483=DIRECTION('',(0.,0.,1.));
#484=DIRECTION('',(-1.,0.,0.));
#485=DIRECTION('',(0.,0.,1.));
#486=DIRECTION('',(-1.,0.,0.));
#487=DIRECTION('',(0.,0.,1.));
#488=DIRECTION('',(1.,0.,0.));
#489=DIRECTION('',(0.,0.,-1.));
#490=DIRECTION('',(-1.,0.,0.));
#491=DIRECTION('',(3.16857596396037E-17,0.,1.));
#492=DIRECTION('',(1.,0.,0.));
#493=DIRECTION('',(0.,0.,-1.));
#494=DIRECTION('',(1.,0.,0.));
#495=DIRECTION('',(0.,0.,-1.));
#496=DIRECTION('',(-0.00696425429875266,-0.990311712251367,-0.138687460643811));
#497=DIRECTION('',(1.,0.,0.));
#498=DIRECTION('',(1.,0.,0.));
#499=DIRECTION('',(0.,0.,-1.));
#500=DIRECTION('',(0.0697564737441254,-0.138834082280942,0.987855825496815));
#501=DIRECTION('',(0.997539740327596,0.00279466902777576,-0.0700475288085007));
#502=DIRECTION('',(1.,0.,0.));
#503=DIRECTION('',(1.,0.,0.));
#504=DIRECTION('',(0.,0.,-1.));
#505=DIRECTION('',(0.997539740327596,0.00279466902777523,-0.0700475288085007));
#506=DIRECTION('',(1.,0.,0.));
#507=DIRECTION('',(1.,0.,0.));
#508=DIRECTION('',(0.,0.,-1.));
#509=DIRECTION('',(0.0697564737441254,-0.138834082280942,0.987855825496815));
#510=DIRECTION('',(0.997539740327596,0.00279466902777576,-0.0700475288085007));
#511=DIRECTION('',(1.,0.,0.));
#512=DIRECTION('',(1.,0.,0.));
#513=DIRECTION('',(0.,0.,-1.));
#514=DIRECTION('',(0.00696425429875272,0.990311712251367,0.138687460643811));
#515=DIRECTION('',(1.,0.,0.));
#516=DIRECTION('',(1.,0.,0.));
#517=DIRECTION('',(0.,0.,-1.));
#518=DIRECTION('',(0.0697564737441254,-0.138834082280942,0.987855825496815));
#519=DIRECTION('',(0.997539740327596,0.00279466902777554,-0.0700475288085008));
#520=DIRECTION('',(1.,0.,0.));
#521=DIRECTION('',(1.,0.,0.));
#522=DIRECTION('',(0.,0.,-1.));
#523=DIRECTION('',(-0.997539740327596,-0.00279466902777556,0.0700475288085007));
#524=DIRECTION('',(1.,0.,0.));
#525=DIRECTION('',(0.0697564737441254,-0.138834082280942,0.987855825496815));
#526=DIRECTION('',(-0.997539740327596,-0.00279466902777564,0.0700475288085008));
#527=DIRECTION('',(1.,0.,0.));
#528=CARTESIAN_POINT('',(0.,0.,0.));
#529=CARTESIAN_POINT('',(0.633974596215559,0.,0.));
#530=CARTESIAN_POINT('',(0.633974596215559,0.,2.76794919243113));
#531=CARTESIAN_POINT('',(0.5,0.,0.));
#532=CARTESIAN_POINT('',(0.5,0.,3.26794919243112));
#533=CARTESIAN_POINT('',(1.5,0.,0.));
#534=CARTESIAN_POINT('',(0.5,0.,0.));
#535=CARTESIAN_POINT('',(0.5,0.,6.60283785620134));
#536=CARTESIAN_POINT('',(0.5,3.26794919243112,0.));
#537=CARTESIAN_POINT('',(1.27905844135371,0.,0.));
#538=CARTESIAN_POINT('',(1.27905844135371,0.,7.40256371618179));
#539=CARTESIAN_POINT('',(1.3,0.,0.));
#540=CARTESIAN_POINT('',(5.,0.,0.));
#541=CARTESIAN_POINT('',(5.,0.,7.5));
#542=CARTESIAN_POINT('',(5.,0.,0.));
#543=CARTESIAN_POINT('',(48.4641016151378,0.,0.));
#544=CARTESIAN_POINT('',(48.4641016151378,0.,7.5));
#545=CARTESIAN_POINT('',(0.,0.,0.));
#546=CARTESIAN_POINT('',(49.7141016151378,0.,0.));
#547=CARTESIAN_POINT('',(49.7141016151378,0.,7.83493649053891));
#548=CARTESIAN_POINT('',(48.4641016151378,0.,0.));
#549=CARTESIAN_POINT('',(50.,0.,0.));
#550=CARTESIAN_POINT('',(50.,0.,8.));
#551=CARTESIAN_POINT('',(50.,0.,0.));
#552=CARTESIAN_POINT('',(144.582179545095,0.,0.));
#553=CARTESIAN_POINT('',(144.582179545095,0.,8.));
#554=CARTESIAN_POINT('',(0.,0.,0.));
#555=CARTESIAN_POINT('',(146.,0.,0.));
#556=CARTESIAN_POINT('',(146.,0.,7.75));
#557=CARTESIAN_POINT('',(146.,0.,0.));
#558=CARTESIAN_POINT('',(149.,0.,0.));
#559=CARTESIAN_POINT('',(149.,0.,7.75));
#560=CARTESIAN_POINT('',(0.,0.,0.));
#561=CARTESIAN_POINT('',(150.,0.,0.));
#562=CARTESIAN_POINT('',(150.,0.,6.75));
#563=CARTESIAN_POINT('',(149.,0.,0.));
#564=CARTESIAN_POINT('',(150.,6.75,0.));
#565=CARTESIAN_POINT('',(1.,0.,0.));
#566=CARTESIAN_POINT('',(1.,0.,2.13397459621555));
#567=CARTESIAN_POINT('',(1.,2.13397459621555,0.));
#568=CARTESIAN_POINT('',(0.633974596215559,0.,0.));
#569=CARTESIAN_POINT('',(0.00278570171950102,0.,0.));
#570=CARTESIAN_POINT('',(0.00278570171950102,0.,-7.60514498620699));
#571=CARTESIAN_POINT('',(0.0389998240730152,0.,0.));
#572=CARTESIAN_POINT('',(0.0389998240730152,0.,-2.57522616152862));
#573=CARTESIAN_POINT('',(0.0389998240730148,-2.45532175139235,0.776649779605341));
#574=CARTESIAN_POINT('',(5.,0.,0.));
#575=CARTESIAN_POINT('',(0.399015896131042,0.,0.));
#576=CARTESIAN_POINT('',(0.399015896131042,0.,-7.99999853911126));
#577=CARTESIAN_POINT('',(0.401801597850541,-7.60382478748836,0.0274559727341233));
#578=CARTESIAN_POINT('',(5.,0.,0.));
#579=CARTESIAN_POINT('',(5.58622254583454,0.,0.));
#580=CARTESIAN_POINT('',(5.58622254583454,0.,-7.99504599703348));
#581=CARTESIAN_POINT('',(0.399015896131042,-7.99994947238889,-0.0280190115234005));
#582=CARTESIAN_POINT('',(5.,0.,0.));
#583=CARTESIAN_POINT('',(5.98802414368508,0.,0.));
#584=CARTESIAN_POINT('',(5.98802414368508,0.,-7.59693891347017));
#585=CARTESIAN_POINT('',(5.58900824755404,-7.58929250854392,-0.336791177070081));
#586=CARTESIAN_POINT('',(5.,0.,0.));
#587=CARTESIAN_POINT('',(6.02423826603859,0.,0.));
#588=CARTESIAN_POINT('',(6.02423826603859,0.,-2.46445532771129));
#589=CARTESIAN_POINT('',(5.98802414368508,-7.58817464093281,-0.364810188593481));
#590=CARTESIAN_POINT('',(5.,0.,0.));
#591=CARTESIAN_POINT('',(5.62800807162706,0.,0.));
#592=CARTESIAN_POINT('',(5.62800807162706,0.,-2.09034915844346));
#593=CARTESIAN_POINT('',(5.62522236990756,-2.43967160483681,0.384383618277739));
#594=CARTESIAN_POINT('',(5.,0.,0.));
#595=CARTESIAN_POINT('',(0.440801421923557,0.,0.));
#596=CARTESIAN_POINT('',(0.440801421923557,0.,-2.2095873030525));
#597=CARTESIAN_POINT('',(5.62800807162706,-2.04354691993626,0.439858602535262));
#598=CARTESIAN_POINT('',(5.,0.,0.));
#599=CARTESIAN_POINT('',(0.438015720204054,-2.45420388378125,0.748630768081942));
#600=CARTESIAN_POINT('',(5.,0.,0.));
#601=(
GEOMETRIC_REPRESENTATION_CONTEXT(3)
GLOBAL_UNCERTAINTY_ASSIGNED_CONTEXT((#602))
GLOBAL_UNIT_ASSIGNED_CONTEXT((#608,#604,#603))
REPRESENTATION_CONTEXT('AEM90-SPGT0602-D16-W16-L150-Z02',
'TOP_LEVEL_ASSEMBLY_PART')
);
#602=UNCERTAINTY_MEASURE_WITH_UNIT(LENGTH_MEASURE(2.E-5),#608,
'DISTANCE_ACCURACY_VALUE','Maximum Tolerance applied to model');
#603=(
NAMED_UNIT(*)
SI_UNIT($,.STERADIAN.)
SOLID_ANGLE_UNIT()
);
#604=(
CONVERSION_BASED_UNIT('DEGREE',#606)
NAMED_UNIT(#605)
PLANE_ANGLE_UNIT()
);
#605=DIMENSIONAL_EXPONENTS(0.,0.,0.,0.,0.,0.,0.);
#606=PLANE_ANGLE_MEASURE_WITH_UNIT(PLANE_ANGLE_MEASURE(0.0174532925),#607);
#607=(
NAMED_UNIT(*)
PLANE_ANGLE_UNIT()
SI_UNIT($,.RADIAN.)
);
#608=(
LENGTH_UNIT()
NAMED_UNIT(*)
SI_UNIT(.MILLI.,.METRE.)
);
ENDSEC;
END-ISO-10303-21;
