ISO-10303-21;
HEADER;
/* Generated by software containing ST-Developer
 * from STEP Tools, Inc. (www.steptools.com) 
 */
/* OPTION: using custom schema-name function */

FILE_DESCRIPTION(
/* description */ (''),
/* implementation_level */ '2;1');

FILE_NAME(
/* name */ 'model1.stp',
/* time_stamp */ '2023-11-06T19:39:03+03:00',
/* author */ (''),
/* organization */ (''),
/* preprocessor_version */ 'ST-DEVELOPER v19.4',
/* originating_system */ 'SIEMENS PLM Software NX2306.3001',
/* authorisation */ '');

FILE_SCHEMA (('AUTOMOTIVE_DESIGN { 1 0 10303 214 3 1 1 1 }'));
ENDSEC;

DATA;
#10=PROPERTY_DEFINITION_REPRESENTATION(#14,#12);
#11=PROPERTY_DEFINITION_REPRESENTATION(#15,#13);
#12=REPRESENTATION('',(#16),#451);
#13=REPRESENTATION('',(#17),#451);
#14=PROPERTY_DEFINITION('pmi validation property','',#21);
#15=PROPERTY_DEFINITION('pmi validation property','',#21);
#16=VALUE_REPRESENTATION_ITEM('number of annotations',COUNT_MEASURE(0.));
#17=VALUE_REPRESENTATION_ITEM('number of views',COUNT_MEASURE(0.));
#18=SHAPE_REPRESENTATION_RELATIONSHIP('None',
'relationship between model1_objects-None and model1_objects-None',#30,
#19);
#19=ADVANCED_BREP_SHAPE_REPRESENTATION('model1_objects-None',(#125,#126),
#451);
#20=SHAPE_DEFINITION_REPRESENTATION(#21,#30);
#21=PRODUCT_DEFINITION_SHAPE('','',#22);
#22=PRODUCT_DEFINITION(' ','',#24,#23);
#23=PRODUCT_DEFINITION_CONTEXT('part definition',#29,'design');
#24=PRODUCT_DEFINITION_FORMATION_WITH_SPECIFIED_SOURCE(' ',' ',#26,
 .NOT_KNOWN.);
#25=PRODUCT_RELATED_PRODUCT_CATEGORY('part','',(#26));
#26=PRODUCT('model1_objects','model1_objects',' ',(#27));
#27=PRODUCT_CONTEXT(' ',#29,'mechanical');
#28=APPLICATION_PROTOCOL_DEFINITION('international standard',
'automotive_design',2010,#29);
#29=APPLICATION_CONTEXT(
'core data for automotive mechanical design processes');
#30=SHAPE_REPRESENTATION('model1_objects-None',(#230),#451);
#31=OVER_RIDING_STYLED_ITEM('',(#60),#131,#57);
#32=OVER_RIDING_STYLED_ITEM('',(#61),#132,#57);
#33=OVER_RIDING_STYLED_ITEM('',(#62),#133,#57);
#34=OVER_RIDING_STYLED_ITEM('',(#63),#134,#57);
#35=OVER_RIDING_STYLED_ITEM('',(#64),#135,#57);
#36=OVER_RIDING_STYLED_ITEM('',(#65),#136,#57);
#37=OVER_RIDING_STYLED_ITEM('',(#66),#137,#57);
#38=OVER_RIDING_STYLED_ITEM('',(#67),#138,#57);
#39=OVER_RIDING_STYLED_ITEM('',(#68),#139,#57);
#40=COLOUR_RGB('Medium Steel',0.611764705882353,0.658823529411765,0.670588235294118);
#41=COLOUR_RGB('silver gray',0.6,0.6,0.6);
#42=CONICAL_SURFACE('',#247,4.75,9.99999999999998);
#43=CYLINDRICAL_SURFACE('',#241,3.49999999999991);
#44=CYLINDRICAL_SURFACE('',#245,5.);
#45=CYLINDRICAL_SURFACE('',#248,4.75);
#46=SURFACE_OF_REVOLUTION('',#48,#47);
#47=AXIS1_PLACEMENT('',#437,#269);
#48=B_SPLINE_CURVE_WITH_KNOTS('',3,(#381,#382,#383,#384,#385,#386,#387,
#388,#389,#390,#391,#392,#393,#394,#395,#396,#397,#398,#399,#400,#401,#402,
#403,#404,#405,#406,#407,#408,#409,#410,#411,#412,#413,#414,#415,#416,#417,
#418,#419,#420,#421,#422,#423,#424,#425,#426,#427,#428,#429,#430,#431,#432,
#433,#434,#435,#436),.UNSPECIFIED.,.T.,.F.,(2,2,2,2,2,2,2,2,2,2,2,2,2,2,
2,2,2,2,2,2,2,2,2,2,2,2,2,2,2,2),(-0.0625,0.,0.0625,0.09375,0.125,0.15625,
0.1875,0.21875,0.25,0.28125,0.3125,0.34375,0.375,0.40625,0.4375,0.46875,
0.5,0.5625,0.625,0.65625,0.6875,0.75,0.78125,0.8125,0.84375,0.875,0.90625,
0.9375,1.,1.0625),.UNSPECIFIED.);
#49=PLANE('',#236);
#50=PLANE('',#238);
#51=FACE_OUTER_BOUND('',#166,.T.);
#52=FACE_OUTER_BOUND('',#167,.T.);
#53=TOROIDAL_SURFACE('',#235,3.75,1.);
#54=TOROIDAL_SURFACE('',#243,9.5,6.);
#55=PRESENTATION_LAYER_ASSIGNMENT('1','Layer 1',(#125,#126));
#56=STYLED_ITEM('',(#58),#125);
#57=STYLED_ITEM('',(#59),#126);
#58=PRESENTATION_STYLE_ASSIGNMENT((#69));
#59=PRESENTATION_STYLE_ASSIGNMENT((#70));
#60=PRESENTATION_STYLE_ASSIGNMENT((#71));
#61=PRESENTATION_STYLE_ASSIGNMENT((#72));
#62=PRESENTATION_STYLE_ASSIGNMENT((#73));
#63=PRESENTATION_STYLE_ASSIGNMENT((#74));
#64=PRESENTATION_STYLE_ASSIGNMENT((#75));
#65=PRESENTATION_STYLE_ASSIGNMENT((#76));
#66=PRESENTATION_STYLE_ASSIGNMENT((#77));
#67=PRESENTATION_STYLE_ASSIGNMENT((#78));
#68=PRESENTATION_STYLE_ASSIGNMENT((#79));
#69=SURFACE_STYLE_USAGE(.BOTH.,#80);
#70=SURFACE_STYLE_USAGE(.BOTH.,#81);
#71=SURFACE_STYLE_USAGE(.BOTH.,#82);
#72=SURFACE_STYLE_USAGE(.BOTH.,#83);
#73=SURFACE_STYLE_USAGE(.BOTH.,#84);
#74=SURFACE_STYLE_USAGE(.BOTH.,#85);
#75=SURFACE_STYLE_USAGE(.BOTH.,#86);
#76=SURFACE_STYLE_USAGE(.BOTH.,#87);
#77=SURFACE_STYLE_USAGE(.BOTH.,#88);
#78=SURFACE_STYLE_USAGE(.BOTH.,#89);
#79=SURFACE_STYLE_USAGE(.BOTH.,#90);
#80=SURFACE_SIDE_STYLE('',(#91));
#81=SURFACE_SIDE_STYLE('',(#92));
#82=SURFACE_SIDE_STYLE('',(#93));
#83=SURFACE_SIDE_STYLE('',(#94));
#84=SURFACE_SIDE_STYLE('',(#95));
#85=SURFACE_SIDE_STYLE('',(#96));
#86=SURFACE_SIDE_STYLE('',(#97));
#87=SURFACE_SIDE_STYLE('',(#98));
#88=SURFACE_SIDE_STYLE('',(#99));
#89=SURFACE_SIDE_STYLE('',(#100));
#90=SURFACE_SIDE_STYLE('',(#101));
#91=SURFACE_STYLE_FILL_AREA(#102);
#92=SURFACE_STYLE_FILL_AREA(#103);
#93=SURFACE_STYLE_FILL_AREA(#104);
#94=SURFACE_STYLE_FILL_AREA(#105);
#95=SURFACE_STYLE_FILL_AREA(#106);
#96=SURFACE_STYLE_FILL_AREA(#107);
#97=SURFACE_STYLE_FILL_AREA(#108);
#98=SURFACE_STYLE_FILL_AREA(#109);
#99=SURFACE_STYLE_FILL_AREA(#110);
#100=SURFACE_STYLE_FILL_AREA(#111);
#101=SURFACE_STYLE_FILL_AREA(#112);
#102=FILL_AREA_STYLE('',(#113));
#103=FILL_AREA_STYLE('',(#114));
#104=FILL_AREA_STYLE('',(#115));
#105=FILL_AREA_STYLE('',(#116));
#106=FILL_AREA_STYLE('',(#117));
#107=FILL_AREA_STYLE('',(#118));
#108=FILL_AREA_STYLE('',(#119));
#109=FILL_AREA_STYLE('',(#120));
#110=FILL_AREA_STYLE('',(#121));
#111=FILL_AREA_STYLE('',(#122));
#112=FILL_AREA_STYLE('',(#123));
#113=FILL_AREA_STYLE_COLOUR('',#124);
#114=FILL_AREA_STYLE_COLOUR('',#40);
#115=FILL_AREA_STYLE_COLOUR('',#41);
#116=FILL_AREA_STYLE_COLOUR('',#41);
#117=FILL_AREA_STYLE_COLOUR('',#41);
#118=FILL_AREA_STYLE_COLOUR('',#41);
#119=FILL_AREA_STYLE_COLOUR('',#41);
#120=FILL_AREA_STYLE_COLOUR('',#41);
#121=FILL_AREA_STYLE_COLOUR('',#41);
#122=FILL_AREA_STYLE_COLOUR('',#41);
#123=FILL_AREA_STYLE_COLOUR('',#41);
#124=DRAUGHTING_PRE_DEFINED_COLOUR('yellow');
#125=MANIFOLD_SOLID_BREP('',#127);
#126=MANIFOLD_SOLID_BREP('',#128);
#127=CLOSED_SHELL('',(#129,#130));
#128=CLOSED_SHELL('',(#131,#132,#133,#134,#135,#136,#137,#138,#139));
#129=ADVANCED_FACE('',(#142,#143),#140,.F.);
#130=ADVANCED_FACE('',(#144,#145),#141,.F.);
#131=ADVANCED_FACE('',(#146,#147),#53,.T.);
#132=ADVANCED_FACE('',(#51),#49,.F.);
#133=ADVANCED_FACE('',(#52),#50,.F.);
#134=ADVANCED_FACE('',(#148,#149),#46,.T.);
#135=ADVANCED_FACE('',(#150,#151),#43,.T.);
#136=ADVANCED_FACE('',(#152,#153),#54,.F.);
#137=ADVANCED_FACE('',(#154,#155),#44,.T.);
#138=ADVANCED_FACE('',(#156,#157),#42,.T.);
#139=ADVANCED_FACE('',(#158,#159),#45,.T.);
#140=(
BOUNDED_SURFACE()
B_SPLINE_SURFACE(3,3,((#293,#294,#295,#296,#297,#298,#299),(#300,#301,#302,
#303,#304,#305,#306),(#307,#308,#309,#310,#311,#312,#313),(#314,#315,#316,
#317,#318,#319,#320),(#321,#322,#323,#324,#325,#326,#327),(#328,#329,#330,
#331,#332,#333,#334),(#335,#336,#337,#338,#339,#340,#341)),
 .UNSPECIFIED.,.T.,.F.,.F.)
B_SPLINE_SURFACE_WITH_KNOTS((1,3,3,3,1),(4,3,4),(-0.5,0.,0.5,1.,1.5),(0.,
0.5,1.),.UNSPECIFIED.)
GEOMETRIC_REPRESENTATION_ITEM()
RATIONAL_B_SPLINE_SURFACE(((1.,0.575183425739992,0.575183425739992,1.,0.575183425739992,
0.575183425739992,1.),(0.333333333333334,0.191727808579998,0.191727808579998,
0.333333333333334,0.191727808579998,0.191727808579998,0.333333333333334),
(0.333333333333334,0.191727808579998,0.191727808579998,0.333333333333334,
0.191727808579998,0.191727808579998,0.333333333333334),(1.,0.575183425739992,
0.575183425739992,1.,0.575183425739992,0.575183425739992,1.),(0.333333333333334,
0.191727808579998,0.191727808579998,0.333333333333334,0.191727808579998,
0.191727808579998,0.333333333333334),(0.333333333333334,0.191727808579998,
0.191727808579998,0.333333333333334,0.191727808579998,0.191727808579998,
0.333333333333334),(1.,0.575183425739992,0.575183425739992,1.,0.575183425739992,
0.575183425739992,1.)))
REPRESENTATION_ITEM('')
SURFACE()
);
#141=(
BOUNDED_SURFACE()
B_SPLINE_SURFACE(3,3,((#342,#343,#344,#345),(#346,#347,#348,#349),(#350,
#351,#352,#353),(#354,#355,#356,#357),(#358,#359,#360,#361),(#362,#363,
#364,#365),(#366,#367,#368,#369)),.UNSPECIFIED.,.T.,.F.,.F.)
B_SPLINE_SURFACE_WITH_KNOTS((1,3,3,3,1),(4,4),(-0.5,0.,0.5,1.,1.5),(0.,
1.),.UNSPECIFIED.)
GEOMETRIC_REPRESENTATION_ITEM()
RATIONAL_B_SPLINE_SURFACE(((1.,0.824525598408673,0.824525598408673,1.),
(0.333333333333334,0.274841866136224,0.274841866136224,0.333333333333334),
(0.333333333333334,0.274841866136224,0.274841866136224,0.333333333333334),
(1.,0.824525598408673,0.824525598408673,1.),(0.333333333333334,0.274841866136224,
0.274841866136224,0.333333333333334),(0.333333333333334,0.274841866136224,
0.274841866136224,0.333333333333334),(1.,0.824525598408673,0.824525598408673,
1.)))
REPRESENTATION_ITEM('')
SURFACE()
);
#142=FACE_BOUND('',#160,.T.);
#143=FACE_BOUND('',#161,.T.);
#144=FACE_BOUND('',#162,.T.);
#145=FACE_BOUND('',#163,.T.);
#146=FACE_BOUND('',#164,.T.);
#147=FACE_BOUND('',#165,.T.);
#148=FACE_BOUND('',#168,.T.);
#149=FACE_BOUND('',#169,.T.);
#150=FACE_BOUND('',#170,.T.);
#151=FACE_BOUND('',#171,.T.);
#152=FACE_BOUND('',#172,.T.);
#153=FACE_BOUND('',#173,.T.);
#154=FACE_BOUND('',#174,.T.);
#155=FACE_BOUND('',#175,.T.);
#156=FACE_BOUND('',#176,.T.);
#157=FACE_BOUND('',#177,.T.);
#158=FACE_BOUND('',#178,.T.);
#159=FACE_BOUND('',#179,.T.);
#160=EDGE_LOOP('',(#180));
#161=EDGE_LOOP('',(#181));
#162=EDGE_LOOP('',(#182));
#163=EDGE_LOOP('',(#183));
#164=EDGE_LOOP('',(#184));
#165=EDGE_LOOP('',(#185));
#166=EDGE_LOOP('',(#186));
#167=EDGE_LOOP('',(#187));
#168=EDGE_LOOP('',(#188));
#169=EDGE_LOOP('',(#189));
#170=EDGE_LOOP('',(#190));
#171=EDGE_LOOP('',(#191));
#172=EDGE_LOOP('',(#192));
#173=EDGE_LOOP('',(#193));
#174=EDGE_LOOP('',(#194));
#175=EDGE_LOOP('',(#195));
#176=EDGE_LOOP('',(#196));
#177=EDGE_LOOP('',(#197));
#178=EDGE_LOOP('',(#198));
#179=EDGE_LOOP('',(#199));
#180=ORIENTED_EDGE('',*,*,#210,.T.);
#181=ORIENTED_EDGE('',*,*,#211,.F.);
#182=ORIENTED_EDGE('',*,*,#211,.T.);
#183=ORIENTED_EDGE('',*,*,#210,.F.);
#184=ORIENTED_EDGE('',*,*,#212,.F.);
#185=ORIENTED_EDGE('',*,*,#213,.T.);
#186=ORIENTED_EDGE('',*,*,#213,.F.);
#187=ORIENTED_EDGE('',*,*,#214,.T.);
#188=ORIENTED_EDGE('',*,*,#214,.F.);
#189=ORIENTED_EDGE('',*,*,#215,.T.);
#190=ORIENTED_EDGE('',*,*,#215,.F.);
#191=ORIENTED_EDGE('',*,*,#216,.T.);
#192=ORIENTED_EDGE('',*,*,#216,.F.);
#193=ORIENTED_EDGE('',*,*,#217,.T.);
#194=ORIENTED_EDGE('',*,*,#217,.F.);
#195=ORIENTED_EDGE('',*,*,#218,.T.);
#196=ORIENTED_EDGE('',*,*,#218,.F.);
#197=ORIENTED_EDGE('',*,*,#219,.T.);
#198=ORIENTED_EDGE('',*,*,#219,.F.);
#199=ORIENTED_EDGE('',*,*,#212,.T.);
#200=VERTEX_POINT('',#290);
#201=VERTEX_POINT('',#292);
#202=VERTEX_POINT('',#371);
#203=VERTEX_POINT('',#373);
#204=VERTEX_POINT('',#377);
#205=VERTEX_POINT('',#380);
#206=VERTEX_POINT('',#439);
#207=VERTEX_POINT('',#442);
#208=VERTEX_POINT('',#445);
#209=VERTEX_POINT('',#448);
#210=EDGE_CURVE('',#200,#200,#220,.T.);
#211=EDGE_CURVE('',#201,#201,#221,.T.);
#212=EDGE_CURVE('',#202,#202,#222,.T.);
#213=EDGE_CURVE('',#203,#203,#223,.T.);
#214=EDGE_CURVE('',#204,#204,#224,.T.);
#215=EDGE_CURVE('',#205,#205,#225,.T.);
#216=EDGE_CURVE('',#206,#206,#226,.T.);
#217=EDGE_CURVE('',#207,#207,#227,.T.);
#218=EDGE_CURVE('',#208,#208,#228,.T.);
#219=EDGE_CURVE('',#209,#209,#229,.T.);
#220=CIRCLE('',#231,2.5);
#221=CIRCLE('',#232,2.5);
#222=CIRCLE('',#233,4.75);
#223=CIRCLE('',#234,3.75);
#224=CIRCLE('',#237,1.23506715273757);
#225=CIRCLE('',#239,3.49999999999982);
#226=CIRCLE('',#240,3.5);
#227=CIRCLE('',#242,5.);
#228=CIRCLE('',#244,5.);
#229=CIRCLE('',#246,4.75);
#230=AXIS2_PLACEMENT_3D('',#288,#249,#250);
#231=AXIS2_PLACEMENT_3D('',#289,#251,#252);
#232=AXIS2_PLACEMENT_3D('',#291,#253,#254);
#233=AXIS2_PLACEMENT_3D('',#370,#255,#256);
#234=AXIS2_PLACEMENT_3D('',#372,#257,#258);
#235=AXIS2_PLACEMENT_3D('',#374,#259,#260);
#236=AXIS2_PLACEMENT_3D('',#375,#261,#262);
#237=AXIS2_PLACEMENT_3D('',#376,#263,#264);
#238=AXIS2_PLACEMENT_3D('',#378,#265,#266);
#239=AXIS2_PLACEMENT_3D('',#379,#267,#268);
#240=AXIS2_PLACEMENT_3D('',#438,#270,#271);
#241=AXIS2_PLACEMENT_3D('',#440,#272,#273);
#242=AXIS2_PLACEMENT_3D('',#441,#274,#275);
#243=AXIS2_PLACEMENT_3D('',#443,#276,#277);
#244=AXIS2_PLACEMENT_3D('',#444,#278,#279);
#245=AXIS2_PLACEMENT_3D('',#446,#280,#281);
#246=AXIS2_PLACEMENT_3D('',#447,#282,#283);
#247=AXIS2_PLACEMENT_3D('',#449,#284,#285);
#248=AXIS2_PLACEMENT_3D('',#450,#286,#287);
#249=DIRECTION('',(0.,0.,1.));
#250=DIRECTION('',(1.,0.,0.));
#251=DIRECTION('',(0.,0.996319758523582,0.0857142857142901));
#252=DIRECTION('',(1.,0.,0.));
#253=DIRECTION('',(0.,0.,1.));
#254=DIRECTION('',(1.,0.,0.));
#255=DIRECTION('',(-1.,0.,0.));
#256=DIRECTION('',(0.,0.,1.));
#257=DIRECTION('',(-1.,0.,0.));
#258=DIRECTION('',(0.,0.,1.));
#259=DIRECTION('',(-1.,0.,0.));
#260=DIRECTION('',(0.,0.,1.));
#261=DIRECTION('',(-1.,0.,0.));
#262=DIRECTION('',(0.,0.,1.));
#263=DIRECTION('',(-1.,0.,0.));
#264=DIRECTION('',(0.,0.,1.));
#265=DIRECTION('',(1.,0.,0.));
#266=DIRECTION('',(0.,0.,-1.));
#267=DIRECTION('',(-1.,0.,0.));
#268=DIRECTION('',(0.,0.,1.));
#269=DIRECTION('',(-1.,0.,0.));
#270=DIRECTION('',(-1.,0.,0.));
#271=DIRECTION('',(0.,0.,1.));
#272=DIRECTION('',(-1.,0.,0.));
#273=DIRECTION('',(0.,0.,1.));
#274=DIRECTION('',(-1.,0.,0.));
#275=DIRECTION('',(0.,0.,1.));
#276=DIRECTION('',(-1.,0.,0.));
#277=DIRECTION('',(0.,0.,1.));
#278=DIRECTION('',(-1.,0.,0.));
#279=DIRECTION('',(0.,0.,1.));
#280=DIRECTION('',(-1.,0.,0.));
#281=DIRECTION('',(0.,0.,1.));
#282=DIRECTION('',(-1.,0.,0.));
#283=DIRECTION('',(0.,0.,1.));
#284=DIRECTION('',(-1.,0.,0.));
#285=DIRECTION('',(-1.53280530231038E-16,0.,1.));
#286=DIRECTION('',(-1.,0.,0.));
#287=DIRECTION('',(0.,0.,1.));
#288=CARTESIAN_POINT('',(0.,0.,0.));
#289=CARTESIAN_POINT('',(2.5,0.171296232414211,1.50889875599245));
#290=CARTESIAN_POINT('',(5.,0.171296232414211,1.50889875599245));
#291=CARTESIAN_POINT('',(2.5,-1.48866311,0.3));
#292=CARTESIAN_POINT('',(5.,-1.48866311,0.3));
#293=CARTESIAN_POINT('',(5.,-1.48866311,0.3));
#294=CARTESIAN_POINT('',(5.,-1.81269077360801,-1.30789343144245));
#295=CARTESIAN_POINT('',(5.,-0.43188151657127,-2.19315102634953));
#296=CARTESIAN_POINT('',(5.,0.893992686267655,-1.22755648830301));
#297=CARTESIAN_POINT('',(5.,2.21986688910658,-0.261961950256486));
#298=CARTESIAN_POINT('',(5.,1.80104602749843,1.32388302941235));
#299=CARTESIAN_POINT('',(5.,0.171296232414211,1.50889875599245));
#300=CARTESIAN_POINT('',(4.99999999999999,3.51133689,0.3));
#301=CARTESIAN_POINT('',(4.99999999999999,3.18730922639199,4.09256762869105));
#302=CARTESIAN_POINT('',(4.99999999999999,-0.46444539066232,5.16646304343173));
#303=CARTESIAN_POINT('',(4.99999999999999,-2.78994930179739,2.15306053061105));
#304=CARTESIAN_POINT('',(4.99999999999999,-5.11545321293245,-0.860341982209637));
#305=CARTESIAN_POINT('',(4.99999999999999,-3.15096860327833,-4.12061242550274));
#306=CARTESIAN_POINT('',(4.99999999999999,0.599867660985661,-3.47270003662546));
#307=CARTESIAN_POINT('',(-2.55038338414727E-16,3.51133689,0.3));
#308=CARTESIAN_POINT('',(-2.55038338414726E-16,3.18730922639199,4.09256762869105));
#309=CARTESIAN_POINT('',(-2.55038338414726E-16,-0.46444539066232,5.16646304343173));
#310=CARTESIAN_POINT('',(-2.55038338414727E-16,-2.78994930179739,2.15306053061105));
#311=CARTESIAN_POINT('',(-2.55038338414726E-16,-5.11545321293245,-0.860341982209637));
#312=CARTESIAN_POINT('',(-2.55038338414726E-16,-3.15096860327833,-4.12061242550274));
#313=CARTESIAN_POINT('',(-2.55038338414727E-16,0.599867660985661,-3.47270003662546));
#314=CARTESIAN_POINT('',(-8.67361737988404E-16,-1.48866311,0.3));
#315=CARTESIAN_POINT('',(-8.67361737988403E-16,-1.81269077360801,-1.30789343144245));
#316=CARTESIAN_POINT('',(-8.67361737988403E-16,-0.43188151657127,-2.19315102634953));
#317=CARTESIAN_POINT('',(-8.67361737988404E-16,0.893992686267654,-1.22755648830301));
#318=CARTESIAN_POINT('',(-8.67361737988403E-16,2.21986688910658,-0.261961950256486));
#319=CARTESIAN_POINT('',(-8.67361737988403E-16,1.80104602749843,1.32388302941235));
#320=CARTESIAN_POINT('',(-8.67361737988404E-16,0.171296232414211,1.50889875599245));
#321=CARTESIAN_POINT('',(-1.47968513756208E-15,-6.48866311,0.3));
#322=CARTESIAN_POINT('',(-1.47968513756208E-15,-6.812690773608,-6.70835449157594));
#323=CARTESIAN_POINT('',(-1.47968513756208E-15,-0.399317642480218,-9.55276509613079));
#324=CARTESIAN_POINT('',(-1.47968513756208E-15,4.57793467433269,-4.60817350721707));
#325=CARTESIAN_POINT('',(-1.47968513756208E-15,9.55518699114559,0.336418081696667));
#326=CARTESIAN_POINT('',(-1.47968513756208E-15,6.75306065827519,6.76837848432742));
#327=CARTESIAN_POINT('',(-1.47968513756208E-15,-0.25727519615724,6.49049754861036));
#328=CARTESIAN_POINT('',(4.99999999999999,-6.48866311,0.3));
#329=CARTESIAN_POINT('',(4.99999999999999,-6.812690773608,-6.70835449157594));
#330=CARTESIAN_POINT('',(4.99999999999999,-0.399317642480218,-9.55276509613079));
#331=CARTESIAN_POINT('',(4.99999999999999,4.57793467433269,-4.60817350721707));
#332=CARTESIAN_POINT('',(4.99999999999999,9.55518699114559,0.336418081696667));
#333=CARTESIAN_POINT('',(4.99999999999999,6.75306065827519,6.76837848432742));
#334=CARTESIAN_POINT('',(4.99999999999999,-0.25727519615724,6.49049754861036));
#335=CARTESIAN_POINT('',(5.,-1.48866311,0.3));
#336=CARTESIAN_POINT('',(5.,-1.81269077360801,-1.30789343144245));
#337=CARTESIAN_POINT('',(5.,-0.43188151657127,-2.19315102634953));
#338=CARTESIAN_POINT('',(5.,0.893992686267655,-1.22755648830301));
#339=CARTESIAN_POINT('',(5.,2.21986688910658,-0.261961950256486));
#340=CARTESIAN_POINT('',(5.,1.80104602749843,1.32388302941235));
#341=CARTESIAN_POINT('',(5.,0.171296232414211,1.50889875599245));
#342=CARTESIAN_POINT('',(5.,0.171296232414211,1.50889875599245));
#343=CARTESIAN_POINT('',(5.,-0.653583564998383,1.60254241560196));
#344=CARTESIAN_POINT('',(5.,-1.32466009903521,1.113817441174));
#345=CARTESIAN_POINT('',(5.,-1.48866311,0.3));
#346=CARTESIAN_POINT('',(4.99999999999999,0.599867660985661,-3.47270003662546));
#347=CARTESIAN_POINT('',(5.,2.49831186826597,-3.14476636135196));
#348=CARTESIAN_POINT('',(5.,3.67533990096478,-1.61956607490573));
#349=CARTESIAN_POINT('',(4.99999999999999,3.51133689,0.3));
#350=CARTESIAN_POINT('',(-2.55038338414727E-16,0.599867660985661,-3.47270003662546));
#351=CARTESIAN_POINT('',(-2.55038338414727E-16,2.49831186826597,-3.14476636135196));
#352=CARTESIAN_POINT('',(-2.55038338414727E-16,3.67533990096478,-1.61956607490573));
#353=CARTESIAN_POINT('',(-2.55038338414727E-16,3.51133689,0.3));
#354=CARTESIAN_POINT('',(-8.67361737988404E-16,0.171296232414211,1.50889875599245));
#355=CARTESIAN_POINT('',(-8.67361737988403E-16,-0.653583564998383,1.60254241560196));
#356=CARTESIAN_POINT('',(-8.67361737988403E-16,-1.32466009903521,1.113817441174));
#357=CARTESIAN_POINT('',(-8.67361737988404E-16,-1.48866311,0.3));
#358=CARTESIAN_POINT('',(-1.47968513756208E-15,-0.25727519615724,6.49049754861036));
#359=CARTESIAN_POINT('',(-1.47968513756208E-15,-3.80547899826273,6.3498511925559));
#360=CARTESIAN_POINT('',(-1.47968513756208E-15,-6.32466009903522,3.84720095725373));
#361=CARTESIAN_POINT('',(-1.47968513756208E-15,-6.48866311,0.3));
#362=CARTESIAN_POINT('',(4.99999999999999,-0.25727519615724,6.49049754861036));
#363=CARTESIAN_POINT('',(5.,-3.80547899826273,6.3498511925559));
#364=CARTESIAN_POINT('',(5.,-6.32466009903522,3.84720095725373));
#365=CARTESIAN_POINT('',(4.99999999999999,-6.48866311,0.3));
#366=CARTESIAN_POINT('',(5.,0.171296232414211,1.50889875599245));
#367=CARTESIAN_POINT('',(5.,-0.653583564998383,1.60254241560196));
#368=CARTESIAN_POINT('',(5.,-1.32466009903521,1.113817441174));
#369=CARTESIAN_POINT('',(5.,-1.48866311,0.3));
#370=CARTESIAN_POINT('',(99.,0.,0.));
#371=CARTESIAN_POINT('',(99.,0.,4.75));
#372=CARTESIAN_POINT('',(100.,0.,0.));
#373=CARTESIAN_POINT('',(100.,0.,3.75));
#374=CARTESIAN_POINT('',(99.,0.,0.));
#375=CARTESIAN_POINT('',(100.,0.,0.));
#376=CARTESIAN_POINT('',(0.900000000036226,0.,0.));
#377=CARTESIAN_POINT('',(0.900000000036226,0.,1.23506715273757));
#378=CARTESIAN_POINT('',(0.900000000018113,1.23506715274898,0.));
#379=CARTESIAN_POINT('',(3.36895840823784,0.,0.));
#380=CARTESIAN_POINT('',(3.36895840823784,0.,3.49999999999982));
#381=CARTESIAN_POINT('',(2.27394896165735,1.30364938071185,0.));
#382=CARTESIAN_POINT('',(2.72605103834265,1.30364938071185,0.));
#383=CARTESIAN_POINT('',(2.94882365534051,1.28753068855812,0.));
#384=CARTESIAN_POINT('',(3.28379616299652,1.2502924295877,0.));
#385=CARTESIAN_POINT('',(3.39531448586723,1.23583207970662,0.));
#386=CARTESIAN_POINT('',(3.61860484164225,1.21057568756109,0.));
#387=CARTESIAN_POINT('',(3.7303418730489,1.19925266741006,0.));
#388=CARTESIAN_POINT('',(3.95551982197568,1.20081768782251,0.));
#389=CARTESIAN_POINT('',(4.07115646085716,1.21464994700664,0.));
#390=CARTESIAN_POINT('',(4.27613386504497,1.31342741782245,0.));
#391=CARTESIAN_POINT('',(4.35725394215902,1.39855737383899,0.));
#392=CARTESIAN_POINT('',(4.46146251413461,1.60130459087277,0.));
#393=CARTESIAN_POINT('',(4.48657394557755,1.71387665388558,0.));
#394=CARTESIAN_POINT('',(4.50330809743323,1.93879930243534,0.));
#395=CARTESIAN_POINT('',(4.49468775535454,2.0524342973415,0.));
#396=CARTESIAN_POINT('',(4.45269224018757,2.2740285763683,0.));
#397=CARTESIAN_POINT('',(4.4196076164998,2.38098970508444,0.));
#398=CARTESIAN_POINT('',(4.33287809437226,2.58838674454356,0.));
#399=CARTESIAN_POINT('',(4.27884543400216,2.68874925547071,0.));
#400=CARTESIAN_POINT('',(4.15596490922973,2.87519186307975,0.));
#401=CARTESIAN_POINT('',(4.08665446764322,2.96245037442718,0.));
#402=CARTESIAN_POINT('',(3.93287242183176,3.12548063628463,0.));
#403=CARTESIAN_POINT('',(3.84787392734698,3.20139791637893,0.));
#404=CARTESIAN_POINT('',(3.66935793666168,3.3360737295036,0.));
#405=CARTESIAN_POINT('',(3.57514720243964,3.39568273462687,0.));
#406=CARTESIAN_POINT('',(3.37697840891017,3.49968974411052,0.));
#407=CARTESIAN_POINT('',(3.27214547156471,3.54426128240271,0.));
#408=CARTESIAN_POINT('',(3.05959171496974,3.61504327894764,0.));
#409=CARTESIAN_POINT('',(2.95128734384482,3.64170815611006,0.));
#410=CARTESIAN_POINT('',(2.73067454902941,3.67780487900537,0.));
#411=CARTESIAN_POINT('',(2.61733991701483,3.6871821180444,0.));
#412=CARTESIAN_POINT('',(2.2805894693281,3.68799324297209,0.));
#413=CARTESIAN_POINT('',(2.05733319362453,3.65282541485568,0.));
#414=CARTESIAN_POINT('',(1.62989945205873,3.51274606680734,0.));
#415=CARTESIAN_POINT('',(1.42899062346432,3.4089643071584,0.));
#416=CARTESIAN_POINT('',(1.15865565130824,3.20693728959838,0.));
#417=CARTESIAN_POINT('',(1.07488220291663,3.13277972734549,0.));
#418=CARTESIAN_POINT('',(0.920235760824759,2.97059325898457,0.));
#419=CARTESIAN_POINT('',(0.84892512691878,2.88177252122635,0.));
#420=CARTESIAN_POINT('',(0.662315907293734,2.6010718898317,0.));
#421=CARTESIAN_POINT('',(0.570452200949277,2.39023313625522,0.));
#422=CARTESIAN_POINT('',(0.506274007028604,2.06032864275471,0.));
#423=CARTESIAN_POINT('',(0.496952393272304,1.94598492017064,0.));
#424=CARTESIAN_POINT('',(0.512096679347477,1.72175356749032,0.));
#425=CARTESIAN_POINT('',(0.536533117546417,1.60854327221919,0.));
#426=CARTESIAN_POINT('',(0.637101779112365,1.40644202740694,0.));
#427=CARTESIAN_POINT('',(0.718398462291337,1.31801893229106,0.));
#428=CARTESIAN_POINT('',(0.920356314095665,1.2169132227173,0.));
#429=CARTESIAN_POINT('',(1.03648330719663,1.20146589620321,0.));
#430=CARTESIAN_POINT('',(1.26330626807604,1.19874035563221,0.));
#431=CARTESIAN_POINT('',(1.37565631686034,1.20999741197567,0.));
#432=CARTESIAN_POINT('',(1.60012619665959,1.23524868472519,0.));
#433=CARTESIAN_POINT('',(1.71220252427442,1.24981075776493,0.));
#434=CARTESIAN_POINT('',(2.04892142333824,1.28735205768434,0.));
#435=CARTESIAN_POINT('',(2.27394896165735,1.30364938071185,0.));
#436=CARTESIAN_POINT('',(2.72605103834265,1.30364938071185,0.));
#437=CARTESIAN_POINT('',(0.,0.,0.));
#438=CARTESIAN_POINT('',(18.0313730334031,0.,0.));
#439=CARTESIAN_POINT('',(18.0313730334031,0.,3.5));
#440=CARTESIAN_POINT('',(0.,0.,0.));
#441=CARTESIAN_POINT('',(22.,0.,0.));
#442=CARTESIAN_POINT('',(22.,0.,5.));
#443=CARTESIAN_POINT('',(18.0313730334031,0.,0.));
#444=CARTESIAN_POINT('',(94.5821795450956,0.,0.));
#445=CARTESIAN_POINT('',(94.5821795450956,0.,5.));
#446=CARTESIAN_POINT('',(0.,0.,0.));
#447=CARTESIAN_POINT('',(96.,0.,0.));
#448=CARTESIAN_POINT('',(96.,0.,4.75));
#449=CARTESIAN_POINT('',(96.,0.,0.));
#450=CARTESIAN_POINT('',(0.,0.,0.));
#451=(
GEOMETRIC_REPRESENTATION_CONTEXT(3)
GLOBAL_UNCERTAINTY_ASSIGNED_CONTEXT((#452))
GLOBAL_UNIT_ASSIGNED_CONTEXT((#458,#454,#453))
REPRESENTATION_CONTEXT('model1','TOP_LEVEL_ASSEMBLY_PART')
);
#452=UNCERTAINTY_MEASURE_WITH_UNIT(LENGTH_MEASURE(2.E-5),#458,
'DISTANCE_ACCURACY_VALUE','Maximum Tolerance applied to model');
#453=(
NAMED_UNIT(*)
SI_UNIT($,.STERADIAN.)
SOLID_ANGLE_UNIT()
);
#454=(
CONVERSION_BASED_UNIT('DEGREE',#456)
NAMED_UNIT(#455)
PLANE_ANGLE_UNIT()
);
#455=DIMENSIONAL_EXPONENTS(0.,0.,0.,0.,0.,0.,0.);
#456=PLANE_ANGLE_MEASURE_WITH_UNIT(PLANE_ANGLE_MEASURE(0.0174532925),#457);
#457=(
NAMED_UNIT(*)
PLANE_ANGLE_UNIT()
SI_UNIT($,.RADIAN.)
);
#458=(
LENGTH_UNIT()
NAMED_UNIT(*)
SI_UNIT(.MILLI.,.METRE.)
);
ENDSEC;
END-ISO-10303-21;
