ISO-10303-21;
HEADER;
/* Generated by software containing ST-Developer
 * from STEP Tools, Inc. (www.steptools.com) 
 */
/* OPTION: using custom schema-name function */

FILE_DESCRIPTION(
/* description */ (''),
/* implementation_level */ '2;1');

FILE_NAME(
/* name */ 'model1.stp',
/* time_stamp */ '2023-11-06T19:43:59+03:00',
/* author */ (''),
/* organization */ (''),
/* preprocessor_version */ 'ST-DEVELOPER v19.4',
/* originating_system */ 'SIEMENS PLM Software NX2306.3001',
/* authorisation */ '');

FILE_SCHEMA (('AUTOMOTIVE_DESIGN { 1 0 10303 214 3 1 1 1 }'));
ENDSEC;

DATA;
#10=PROPERTY_DEFINITION_REPRESENTATION(#14,#12);
#11=PROPERTY_DEFINITION_REPRESENTATION(#15,#13);
#12=REPRESENTATION('',(#16),#447);
#13=REPRESENTATION('',(#17),#447);
#14=PROPERTY_DEFINITION('pmi validation property','',#21);
#15=PROPERTY_DEFINITION('pmi validation property','',#21);
#16=VALUE_REPRESENTATION_ITEM('number of annotations',COUNT_MEASURE(0.));
#17=VALUE_REPRESENTATION_ITEM('number of views',COUNT_MEASURE(0.));
#18=SHAPE_REPRESENTATION_RELATIONSHIP('None',
'relationship between model1_objects-None and model1_objects-None',#30,
#19);
#19=ADVANCED_BREP_SHAPE_REPRESENTATION('model1_objects-None',(#125,#126),
#447);
#20=SHAPE_DEFINITION_REPRESENTATION(#21,#30);
#21=PRODUCT_DEFINITION_SHAPE('','',#22);
#22=PRODUCT_DEFINITION(' ','',#24,#23);
#23=PRODUCT_DEFINITION_CONTEXT('part definition',#29,'design');
#24=PRODUCT_DEFINITION_FORMATION_WITH_SPECIFIED_SOURCE(' ',' ',#26,
 .NOT_KNOWN.);
#25=PRODUCT_RELATED_PRODUCT_CATEGORY('part','',(#26));
#26=PRODUCT('model1_objects','model1_objects',' ',(#27));
#27=PRODUCT_CONTEXT(' ',#29,'mechanical');
#28=APPLICATION_PROTOCOL_DEFINITION('international standard',
'automotive_design',2010,#29);
#29=APPLICATION_CONTEXT(
'core data for automotive mechanical design processes');
#30=SHAPE_REPRESENTATION('model1_objects-None',(#230),#447);
#31=OVER_RIDING_STYLED_ITEM('',(#60),#131,#57);
#32=OVER_RIDING_STYLED_ITEM('',(#61),#132,#57);
#33=OVER_RIDING_STYLED_ITEM('',(#62),#133,#57);
#34=OVER_RIDING_STYLED_ITEM('',(#63),#134,#57);
#35=OVER_RIDING_STYLED_ITEM('',(#64),#135,#57);
#36=OVER_RIDING_STYLED_ITEM('',(#65),#136,#57);
#37=OVER_RIDING_STYLED_ITEM('',(#66),#137,#57);
#38=OVER_RIDING_STYLED_ITEM('',(#67),#138,#57);
#39=OVER_RIDING_STYLED_ITEM('',(#68),#139,#57);
#40=COLOUR_RGB('Medium Steel',0.611764705882353,0.658823529411765,0.670588235294118);
#41=COLOUR_RGB('silver gray',0.6,0.6,0.6);
#42=CONICAL_SURFACE('',#247,5.75,9.99999999999998);
#43=CYLINDRICAL_SURFACE('',#241,4.49999999999917);
#44=CYLINDRICAL_SURFACE('',#245,6.);
#45=CYLINDRICAL_SURFACE('',#248,5.75);
#46=SURFACE_OF_REVOLUTION('',#48,#47);
#47=AXIS1_PLACEMENT('',#433,#269);
#48=B_SPLINE_CURVE_WITH_KNOTS('',3,(#381,#382,#383,#384,#385,#386,#387,
#388,#389,#390,#391,#392,#393,#394,#395,#396,#397,#398,#399,#400,#401,#402,
#403,#404,#405,#406,#407,#408,#409,#410,#411,#412,#413,#414,#415,#416,#417,
#418,#419,#420,#421,#422,#423,#424,#425,#426,#427,#428,#429,#430,#431,#432),
 .UNSPECIFIED.,.T.,.F.,(2,2,2,2,2,2,2,2,2,2,2,2,2,2,2,2,2,2,2,2,2,2,2,2,
2,2,2,2),(-0.0625,0.,0.0625,0.09375,0.125,0.15625,0.1875,0.25,0.28125,0.3125,
0.34375,0.375,0.40625,0.4375,0.5,0.5625,0.59375,0.625,0.65625,0.6875,0.75,
0.8125,0.84375,0.875,0.90625,0.9375,1.,1.0625),.UNSPECIFIED.);
#49=PLANE('',#236);
#50=PLANE('',#238);
#51=FACE_OUTER_BOUND('',#166,.T.);
#52=FACE_OUTER_BOUND('',#167,.T.);
#53=TOROIDAL_SURFACE('',#235,4.75,1.);
#54=TOROIDAL_SURFACE('',#243,12.5,8.);
#55=PRESENTATION_LAYER_ASSIGNMENT('1','Layer 1',(#125,#126));
#56=STYLED_ITEM('',(#58),#125);
#57=STYLED_ITEM('',(#59),#126);
#58=PRESENTATION_STYLE_ASSIGNMENT((#69));
#59=PRESENTATION_STYLE_ASSIGNMENT((#70));
#60=PRESENTATION_STYLE_ASSIGNMENT((#71));
#61=PRESENTATION_STYLE_ASSIGNMENT((#72));
#62=PRESENTATION_STYLE_ASSIGNMENT((#73));
#63=PRESENTATION_STYLE_ASSIGNMENT((#74));
#64=PRESENTATION_STYLE_ASSIGNMENT((#75));
#65=PRESENTATION_STYLE_ASSIGNMENT((#76));
#66=PRESENTATION_STYLE_ASSIGNMENT((#77));
#67=PRESENTATION_STYLE_ASSIGNMENT((#78));
#68=PRESENTATION_STYLE_ASSIGNMENT((#79));
#69=SURFACE_STYLE_USAGE(.BOTH.,#80);
#70=SURFACE_STYLE_USAGE(.BOTH.,#81);
#71=SURFACE_STYLE_USAGE(.BOTH.,#82);
#72=SURFACE_STYLE_USAGE(.BOTH.,#83);
#73=SURFACE_STYLE_USAGE(.BOTH.,#84);
#74=SURFACE_STYLE_USAGE(.BOTH.,#85);
#75=SURFACE_STYLE_USAGE(.BOTH.,#86);
#76=SURFACE_STYLE_USAGE(.BOTH.,#87);
#77=SURFACE_STYLE_USAGE(.BOTH.,#88);
#78=SURFACE_STYLE_USAGE(.BOTH.,#89);
#79=SURFACE_STYLE_USAGE(.BOTH.,#90);
#80=SURFACE_SIDE_STYLE('',(#91));
#81=SURFACE_SIDE_STYLE('',(#92));
#82=SURFACE_SIDE_STYLE('',(#93));
#83=SURFACE_SIDE_STYLE('',(#94));
#84=SURFACE_SIDE_STYLE('',(#95));
#85=SURFACE_SIDE_STYLE('',(#96));
#86=SURFACE_SIDE_STYLE('',(#97));
#87=SURFACE_SIDE_STYLE('',(#98));
#88=SURFACE_SIDE_STYLE('',(#99));
#89=SURFACE_SIDE_STYLE('',(#100));
#90=SURFACE_SIDE_STYLE('',(#101));
#91=SURFACE_STYLE_FILL_AREA(#102);
#92=SURFACE_STYLE_FILL_AREA(#103);
#93=SURFACE_STYLE_FILL_AREA(#104);
#94=SURFACE_STYLE_FILL_AREA(#105);
#95=SURFACE_STYLE_FILL_AREA(#106);
#96=SURFACE_STYLE_FILL_AREA(#107);
#97=SURFACE_STYLE_FILL_AREA(#108);
#98=SURFACE_STYLE_FILL_AREA(#109);
#99=SURFACE_STYLE_FILL_AREA(#110);
#100=SURFACE_STYLE_FILL_AREA(#111);
#101=SURFACE_STYLE_FILL_AREA(#112);
#102=FILL_AREA_STYLE('',(#113));
#103=FILL_AREA_STYLE('',(#114));
#104=FILL_AREA_STYLE('',(#115));
#105=FILL_AREA_STYLE('',(#116));
#106=FILL_AREA_STYLE('',(#117));
#107=FILL_AREA_STYLE('',(#118));
#108=FILL_AREA_STYLE('',(#119));
#109=FILL_AREA_STYLE('',(#120));
#110=FILL_AREA_STYLE('',(#121));
#111=FILL_AREA_STYLE('',(#122));
#112=FILL_AREA_STYLE('',(#123));
#113=FILL_AREA_STYLE_COLOUR('',#124);
#114=FILL_AREA_STYLE_COLOUR('',#40);
#115=FILL_AREA_STYLE_COLOUR('',#41);
#116=FILL_AREA_STYLE_COLOUR('',#41);
#117=FILL_AREA_STYLE_COLOUR('',#41);
#118=FILL_AREA_STYLE_COLOUR('',#41);
#119=FILL_AREA_STYLE_COLOUR('',#41);
#120=FILL_AREA_STYLE_COLOUR('',#41);
#121=FILL_AREA_STYLE_COLOUR('',#41);
#122=FILL_AREA_STYLE_COLOUR('',#41);
#123=FILL_AREA_STYLE_COLOUR('',#41);
#124=DRAUGHTING_PRE_DEFINED_COLOUR('yellow');
#125=MANIFOLD_SOLID_BREP('',#127);
#126=MANIFOLD_SOLID_BREP('',#128);
#127=CLOSED_SHELL('',(#129,#130));
#128=CLOSED_SHELL('',(#131,#132,#133,#134,#135,#136,#137,#138,#139));
#129=ADVANCED_FACE('',(#142,#143),#140,.F.);
#130=ADVANCED_FACE('',(#144,#145),#141,.F.);
#131=ADVANCED_FACE('',(#146,#147),#53,.T.);
#132=ADVANCED_FACE('',(#51),#49,.F.);
#133=ADVANCED_FACE('',(#52),#50,.F.);
#134=ADVANCED_FACE('',(#148,#149),#46,.T.);
#135=ADVANCED_FACE('',(#150,#151),#43,.T.);
#136=ADVANCED_FACE('',(#152,#153),#54,.F.);
#137=ADVANCED_FACE('',(#154,#155),#44,.T.);
#138=ADVANCED_FACE('',(#156,#157),#42,.T.);
#139=ADVANCED_FACE('',(#158,#159),#45,.T.);
#140=(
BOUNDED_SURFACE()
B_SPLINE_SURFACE(3,3,((#293,#294,#295,#296,#297,#298,#299),(#300,#301,#302,
#303,#304,#305,#306),(#307,#308,#309,#310,#311,#312,#313),(#314,#315,#316,
#317,#318,#319,#320),(#321,#322,#323,#324,#325,#326,#327),(#328,#329,#330,
#331,#332,#333,#334),(#335,#336,#337,#338,#339,#340,#341)),
 .UNSPECIFIED.,.T.,.F.,.F.)
B_SPLINE_SURFACE_WITH_KNOTS((1,3,3,3,1),(4,3,4),(-0.5,0.,0.5,1.,1.5),(0.,
0.5,1.),.UNSPECIFIED.)
GEOMETRIC_REPRESENTATION_ITEM()
RATIONAL_B_SPLINE_SURFACE(((1.,0.571214726515387,0.571214726515387,1.,0.571214726515387,
0.571214726515387,1.),(0.333333333333334,0.190404908838463,0.190404908838463,
0.333333333333334,0.190404908838463,0.190404908838463,0.333333333333334),
(0.333333333333334,0.190404908838463,0.190404908838463,0.333333333333334,
0.190404908838463,0.190404908838463,0.333333333333334),(1.,0.571214726515387,
0.571214726515387,1.,0.571214726515387,0.571214726515387,1.),(0.333333333333334,
0.190404908838463,0.190404908838463,0.333333333333334,0.190404908838463,
0.190404908838463,0.333333333333334),(0.333333333333334,0.190404908838463,
0.190404908838463,0.333333333333334,0.190404908838463,0.190404908838463,
0.333333333333334),(1.,0.571214726515387,0.571214726515387,1.,0.571214726515387,
0.571214726515387,1.)))
REPRESENTATION_ITEM('')
SURFACE()
);
#141=(
BOUNDED_SURFACE()
B_SPLINE_SURFACE(3,3,((#342,#343,#344,#345),(#346,#347,#348,#349),(#350,
#351,#352,#353),(#354,#355,#356,#357),(#358,#359,#360,#361),(#362,#363,
#364,#365),(#366,#367,#368,#369)),.UNSPECIFIED.,.T.,.F.,.F.)
B_SPLINE_SURFACE_WITH_KNOTS((1,3,3,3,1),(4,4),(-0.5,0.,0.5,1.,1.5),(0.,
1.),.UNSPECIFIED.)
GEOMETRIC_REPRESENTATION_ITEM()
RATIONAL_B_SPLINE_SURFACE(((1.,0.830237328333296,0.830237328333296,1.),
(0.333333333333334,0.276745776111099,0.276745776111099,0.333333333333334),
(0.333333333333334,0.276745776111099,0.276745776111099,0.333333333333334),
(1.,0.830237328333296,0.830237328333296,1.),(0.333333333333334,0.276745776111099,
0.276745776111099,0.333333333333334),(0.333333333333334,0.276745776111099,
0.276745776111099,0.333333333333334),(1.,0.830237328333296,0.830237328333296,
1.)))
REPRESENTATION_ITEM('')
SURFACE()
);
#142=FACE_BOUND('',#160,.T.);
#143=FACE_BOUND('',#161,.T.);
#144=FACE_BOUND('',#162,.T.);
#145=FACE_BOUND('',#163,.T.);
#146=FACE_BOUND('',#164,.T.);
#147=FACE_BOUND('',#165,.T.);
#148=FACE_BOUND('',#168,.T.);
#149=FACE_BOUND('',#169,.T.);
#150=FACE_BOUND('',#170,.T.);
#151=FACE_BOUND('',#171,.T.);
#152=FACE_BOUND('',#172,.T.);
#153=FACE_BOUND('',#173,.T.);
#154=FACE_BOUND('',#174,.T.);
#155=FACE_BOUND('',#175,.T.);
#156=FACE_BOUND('',#176,.T.);
#157=FACE_BOUND('',#177,.T.);
#158=FACE_BOUND('',#178,.T.);
#159=FACE_BOUND('',#179,.T.);
#160=EDGE_LOOP('',(#180));
#161=EDGE_LOOP('',(#181));
#162=EDGE_LOOP('',(#182));
#163=EDGE_LOOP('',(#183));
#164=EDGE_LOOP('',(#184));
#165=EDGE_LOOP('',(#185));
#166=EDGE_LOOP('',(#186));
#167=EDGE_LOOP('',(#187));
#168=EDGE_LOOP('',(#188));
#169=EDGE_LOOP('',(#189));
#170=EDGE_LOOP('',(#190));
#171=EDGE_LOOP('',(#191));
#172=EDGE_LOOP('',(#192));
#173=EDGE_LOOP('',(#193));
#174=EDGE_LOOP('',(#194));
#175=EDGE_LOOP('',(#195));
#176=EDGE_LOOP('',(#196));
#177=EDGE_LOOP('',(#197));
#178=EDGE_LOOP('',(#198));
#179=EDGE_LOOP('',(#199));
#180=ORIENTED_EDGE('',*,*,#210,.T.);
#181=ORIENTED_EDGE('',*,*,#211,.F.);
#182=ORIENTED_EDGE('',*,*,#211,.T.);
#183=ORIENTED_EDGE('',*,*,#210,.F.);
#184=ORIENTED_EDGE('',*,*,#212,.F.);
#185=ORIENTED_EDGE('',*,*,#213,.T.);
#186=ORIENTED_EDGE('',*,*,#213,.F.);
#187=ORIENTED_EDGE('',*,*,#214,.T.);
#188=ORIENTED_EDGE('',*,*,#214,.F.);
#189=ORIENTED_EDGE('',*,*,#215,.T.);
#190=ORIENTED_EDGE('',*,*,#215,.F.);
#191=ORIENTED_EDGE('',*,*,#216,.T.);
#192=ORIENTED_EDGE('',*,*,#216,.F.);
#193=ORIENTED_EDGE('',*,*,#217,.T.);
#194=ORIENTED_EDGE('',*,*,#217,.F.);
#195=ORIENTED_EDGE('',*,*,#218,.T.);
#196=ORIENTED_EDGE('',*,*,#218,.F.);
#197=ORIENTED_EDGE('',*,*,#219,.T.);
#198=ORIENTED_EDGE('',*,*,#219,.F.);
#199=ORIENTED_EDGE('',*,*,#212,.T.);
#200=VERTEX_POINT('',#290);
#201=VERTEX_POINT('',#292);
#202=VERTEX_POINT('',#371);
#203=VERTEX_POINT('',#373);
#204=VERTEX_POINT('',#377);
#205=VERTEX_POINT('',#380);
#206=VERTEX_POINT('',#435);
#207=VERTEX_POINT('',#438);
#208=VERTEX_POINT('',#441);
#209=VERTEX_POINT('',#444);
#210=EDGE_CURVE('',#200,#200,#220,.T.);
#211=EDGE_CURVE('',#201,#201,#221,.T.);
#212=EDGE_CURVE('',#202,#202,#222,.T.);
#213=EDGE_CURVE('',#203,#203,#223,.T.);
#214=EDGE_CURVE('',#204,#204,#224,.T.);
#215=EDGE_CURVE('',#205,#205,#225,.T.);
#216=EDGE_CURVE('',#206,#206,#226,.T.);
#217=EDGE_CURVE('',#207,#207,#227,.T.);
#218=EDGE_CURVE('',#208,#208,#228,.T.);
#219=EDGE_CURVE('',#209,#209,#229,.T.);
#220=CIRCLE('',#231,2.5);
#221=CIRCLE('',#232,2.5);
#222=CIRCLE('',#233,5.75);
#223=CIRCLE('',#234,4.75);
#224=CIRCLE('',#237,1.52784832460078);
#225=CIRCLE('',#239,4.49999999999835);
#226=CIRCLE('',#240,4.5);
#227=CIRCLE('',#242,6.);
#228=CIRCLE('',#244,6.);
#229=CIRCLE('',#246,5.75);
#230=AXIS2_PLACEMENT_3D('',#288,#249,#250);
#231=AXIS2_PLACEMENT_3D('',#289,#251,#252);
#232=AXIS2_PLACEMENT_3D('',#291,#253,#254);
#233=AXIS2_PLACEMENT_3D('',#370,#255,#256);
#234=AXIS2_PLACEMENT_3D('',#372,#257,#258);
#235=AXIS2_PLACEMENT_3D('',#374,#259,#260);
#236=AXIS2_PLACEMENT_3D('',#375,#261,#262);
#237=AXIS2_PLACEMENT_3D('',#376,#263,#264);
#238=AXIS2_PLACEMENT_3D('',#378,#265,#266);
#239=AXIS2_PLACEMENT_3D('',#379,#267,#268);
#240=AXIS2_PLACEMENT_3D('',#434,#270,#271);
#241=AXIS2_PLACEMENT_3D('',#436,#272,#273);
#242=AXIS2_PLACEMENT_3D('',#437,#274,#275);
#243=AXIS2_PLACEMENT_3D('',#439,#276,#277);
#244=AXIS2_PLACEMENT_3D('',#440,#278,#279);
#245=AXIS2_PLACEMENT_3D('',#442,#280,#281);
#246=AXIS2_PLACEMENT_3D('',#443,#282,#283);
#247=AXIS2_PLACEMENT_3D('',#445,#284,#285);
#248=AXIS2_PLACEMENT_3D('',#446,#286,#287);
#249=DIRECTION('',(0.,0.,1.));
#250=DIRECTION('',(1.,0.,0.));
#251=DIRECTION('',(0.,0.993807989999902,0.111111111111152));
#252=DIRECTION('',(1.,0.,0.));
#253=DIRECTION('',(0.,0.,1.));
#254=DIRECTION('',(1.,0.,0.));
#255=DIRECTION('',(-1.,0.,0.));
#256=DIRECTION('',(0.,0.,1.));
#257=DIRECTION('',(-1.,0.,0.));
#258=DIRECTION('',(0.,0.,1.));
#259=DIRECTION('',(-1.,0.,0.));
#260=DIRECTION('',(0.,0.,1.));
#261=DIRECTION('',(-1.,0.,0.));
#262=DIRECTION('',(0.,0.,1.));
#263=DIRECTION('',(-1.,0.,0.));
#264=DIRECTION('',(0.,0.,1.));
#265=DIRECTION('',(1.,0.,0.));
#266=DIRECTION('',(0.,0.,-1.));
#267=DIRECTION('',(-1.,0.,0.));
#268=DIRECTION('',(0.,0.,1.));
#269=DIRECTION('',(-1.,0.,0.));
#270=DIRECTION('',(-1.,0.,0.));
#271=DIRECTION('',(0.,0.,1.));
#272=DIRECTION('',(-1.,0.,0.));
#273=DIRECTION('',(0.,0.,1.));
#274=DIRECTION('',(-1.,0.,0.));
#275=DIRECTION('',(0.,0.,1.));
#276=DIRECTION('',(-1.,0.,0.));
#277=DIRECTION('',(0.,0.,1.));
#278=DIRECTION('',(-1.,0.,0.));
#279=DIRECTION('',(0.,0.,1.));
#280=DIRECTION('',(-1.,0.,0.));
#281=DIRECTION('',(0.,0.,1.));
#282=DIRECTION('',(-1.,0.,0.));
#283=DIRECTION('',(0.,0.,1.));
#284=DIRECTION('',(-1.,0.,0.));
#285=DIRECTION('',(-1.52438685591289E-16,0.,1.));
#286=DIRECTION('',(-1.,0.,0.));
#287=DIRECTION('',(0.,0.,1.));
#288=CARTESIAN_POINT('',(0.,0.,0.));
#289=CARTESIAN_POINT('',(2.5,0.22191092999985,2.51516830227964));
#290=CARTESIAN_POINT('',(5.,0.22191092999985,2.51516830227964));
#291=CARTESIAN_POINT('',(2.5,-2.474937585,0.5));
#292=CARTESIAN_POINT('',(5.,-2.474937585,0.5));
#293=CARTESIAN_POINT('',(5.,-2.474937585,0.5));
#294=CARTESIAN_POINT('',(5.,-3.02007546724702,-2.19836446756089));
#295=CARTESIAN_POINT('',(5.,-0.69385520560233,-3.67045325726402));
#296=CARTESIAN_POINT('',(5.,1.51137622670976,-2.02263638624994));
#297=CARTESIAN_POINT('',(5.,3.71660765902185,-0.374819515235843));
#298=CARTESIAN_POINT('',(5.,2.96413797359894,2.27322419342447));
#299=CARTESIAN_POINT('',(5.,0.221910929999851,2.51516830227963));
#300=CARTESIAN_POINT('',(4.99999999999999,2.525062415,0.499999999999999));
#301=CARTESIAN_POINT('',(5.,1.97992453275298,3.25301435490927));
#302=CARTESIAN_POINT('',(5.,-0.786382619788691,3.72609794878465));
#303=CARTESIAN_POINT('',(4.99999999999999,-2.21540373578995,1.31069694708332));
#304=CARTESIAN_POINT('',(5.,-3.64442485179122,-1.104704054618));
#305=CARTESIAN_POINT('',(5.,-1.8979303011324,-3.3015245146275));
#306=CARTESIAN_POINT('',(4.99999999999999,0.777466485555608,-2.45387164771987));
#307=CARTESIAN_POINT('',(-2.55038338414727E-16,2.525062415,0.499999999999999));
#308=CARTESIAN_POINT('',(-2.55038338414727E-16,1.97992453275298,3.25301435490927));
#309=CARTESIAN_POINT('',(-2.55038338414727E-16,-0.786382619788691,3.72609794878465));
#310=CARTESIAN_POINT('',(-2.55038338414727E-16,-2.21540373578995,1.31069694708332));
#311=CARTESIAN_POINT('',(-2.55038338414727E-16,-3.64442485179122,-1.104704054618));
#312=CARTESIAN_POINT('',(-2.55038338414727E-16,-1.8979303011324,-3.3015245146275));
#313=CARTESIAN_POINT('',(-2.55038338414727E-16,0.777466485555608,-2.45387164771987));
#314=CARTESIAN_POINT('',(-8.67361737988404E-16,-2.474937585,0.5));
#315=CARTESIAN_POINT('',(-8.67361737988404E-16,-3.02007546724702,-2.19836446756089));
#316=CARTESIAN_POINT('',(-8.67361737988404E-16,-0.69385520560233,-3.67045325726402));
#317=CARTESIAN_POINT('',(-8.67361737988404E-16,1.51137622670976,-2.02263638624994));
#318=CARTESIAN_POINT('',(-8.67361737988404E-16,3.71660765902185,-0.374819515235843));
#319=CARTESIAN_POINT('',(-8.67361737988404E-16,2.96413797359894,2.27322419342447));
#320=CARTESIAN_POINT('',(-8.67361737988404E-16,0.221910929999851,2.51516830227963));
#321=CARTESIAN_POINT('',(-1.47968513756208E-15,-7.47493758499999,0.499999999999999));
#322=CARTESIAN_POINT('',(-1.47968513756208E-15,-8.020075467247,-7.64974329003104));
#323=CARTESIAN_POINT('',(-1.47968513756208E-15,-0.601327791415968,-11.0670044633127));
#324=CARTESIAN_POINT('',(-1.47968513756208E-15,5.23815618920947,-5.35596971958319));
#325=CARTESIAN_POINT('',(-1.47968513756208E-15,11.0776401698349,0.355065024146318));
#326=CARTESIAN_POINT('',(-1.47968513756208E-15,7.82620624833027,7.84797290147643));
#327=CARTESIAN_POINT('',(-1.47968513756208E-15,-0.333644625555907,7.48420825227915));
#328=CARTESIAN_POINT('',(4.99999999999999,-7.47493758499999,0.499999999999999));
#329=CARTESIAN_POINT('',(5.,-8.020075467247,-7.64974329003104));
#330=CARTESIAN_POINT('',(5.,-0.601327791415968,-11.0670044633127));
#331=CARTESIAN_POINT('',(4.99999999999999,5.23815618920947,-5.35596971958319));
#332=CARTESIAN_POINT('',(5.,11.0776401698349,0.355065024146318));
#333=CARTESIAN_POINT('',(5.,7.82620624833027,7.84797290147643));
#334=CARTESIAN_POINT('',(4.99999999999999,-0.333644625555907,7.48420825227915));
#335=CARTESIAN_POINT('',(5.,-2.474937585,0.5));
#336=CARTESIAN_POINT('',(5.,-3.02007546724702,-2.19836446756089));
#337=CARTESIAN_POINT('',(5.,-0.69385520560233,-3.67045325726402));
#338=CARTESIAN_POINT('',(5.,1.51137622670976,-2.02263638624994));
#339=CARTESIAN_POINT('',(5.,3.71660765902185,-0.374819515235843));
#340=CARTESIAN_POINT('',(5.,2.96413797359894,2.27322419342447));
#341=CARTESIAN_POINT('',(5.,0.221910929999851,2.51516830227963));
#342=CARTESIAN_POINT('',(5.,0.22191092999985,2.51516830227964));
#343=CARTESIAN_POINT('',(5.,-1.12451441205869,2.63396214186515));
#344=CARTESIAN_POINT('',(5.,-2.20727650227281,1.82488894736662));
#345=CARTESIAN_POINT('',(5.,-2.474937585,0.5));
#346=CARTESIAN_POINT('',(4.99999999999999,0.77746648555561,-2.45387164771987));
#347=CARTESIAN_POINT('',(5.,2.09107836976011,-2.03767660510404));
#348=CARTESIAN_POINT('',(5.,2.79272349772719,-0.851721879905253));
#349=CARTESIAN_POINT('',(4.99999999999999,2.525062415,0.500000000000001));
#350=CARTESIAN_POINT('',(-2.55038338414727E-16,0.77746648555561,-2.45387164771987));
#351=CARTESIAN_POINT('',(-2.55038338414727E-16,2.09107836976011,-2.03767660510404));
#352=CARTESIAN_POINT('',(-2.55038338414727E-16,2.79272349772719,-0.851721879905253));
#353=CARTESIAN_POINT('',(-2.55038338414727E-16,2.525062415,0.500000000000001));
#354=CARTESIAN_POINT('',(-8.67361737988404E-16,0.22191092999985,2.51516830227963));
#355=CARTESIAN_POINT('',(-8.67361737988403E-16,-1.12451441205869,2.63396214186515));
#356=CARTESIAN_POINT('',(-8.67361737988403E-16,-2.20727650227281,1.82488894736662));
#357=CARTESIAN_POINT('',(-8.67361737988404E-16,-2.474937585,0.5));
#358=CARTESIAN_POINT('',(-1.47968513756208E-15,-0.33364462555591,7.48420825227915));
#359=CARTESIAN_POINT('',(-1.47968513756208E-15,-4.34010719387748,7.30560088883436));
#360=CARTESIAN_POINT('',(-1.47968513756208E-15,-7.20727650227282,4.50149977463849));
#361=CARTESIAN_POINT('',(-1.47968513756208E-15,-7.47493758499999,0.499999999999999));
#362=CARTESIAN_POINT('',(4.99999999999999,-0.33364462555591,7.48420825227915));
#363=CARTESIAN_POINT('',(5.,-4.34010719387748,7.30560088883436));
#364=CARTESIAN_POINT('',(5.,-7.20727650227282,4.50149977463849));
#365=CARTESIAN_POINT('',(4.99999999999999,-7.47493758499999,0.499999999999999));
#366=CARTESIAN_POINT('',(5.,0.22191092999985,2.51516830227964));
#367=CARTESIAN_POINT('',(5.,-1.12451441205869,2.63396214186515));
#368=CARTESIAN_POINT('',(5.,-2.20727650227281,1.82488894736662));
#369=CARTESIAN_POINT('',(5.,-2.474937585,0.5));
#370=CARTESIAN_POINT('',(99.,0.,0.));
#371=CARTESIAN_POINT('',(99.,0.,5.75));
#372=CARTESIAN_POINT('',(100.,0.,0.));
#373=CARTESIAN_POINT('',(100.,0.,4.75));
#374=CARTESIAN_POINT('',(99.,0.,0.));
#375=CARTESIAN_POINT('',(100.,0.,0.));
#376=CARTESIAN_POINT('',(0.999999999999661,0.,0.));
#377=CARTESIAN_POINT('',(0.999999999999661,0.,1.52784832460078));
#378=CARTESIAN_POINT('',(0.999999999999831,1.52784832460049,0.));
#379=CARTESIAN_POINT('',(3.07800959263226,0.,0.));
#380=CARTESIAN_POINT('',(3.07800959263226,0.,4.49999999999835));
#381=CARTESIAN_POINT('',(2.25342136560792,1.10787940213554,0.));
#382=CARTESIAN_POINT('',(2.74657863439208,1.10787940213554,0.));
#383=CARTESIAN_POINT('',(2.99914675966577,1.12528795321276,0.));
#384=CARTESIAN_POINT('',(3.36364765165824,1.20210793595999,0.));
#385=CARTESIAN_POINT('',(3.48236869239913,1.23649718228312,0.));
#386=CARTESIAN_POINT('',(3.71168448622142,1.33095513744214,0.));
#387=CARTESIAN_POINT('',(3.8225821102297,1.39186614666044,0.));
#388=CARTESIAN_POINT('',(4.02140260412386,1.53910447655176,0.));
#389=CARTESIAN_POINT('',(4.11217188400458,1.62762532633749,0.));
#390=CARTESIAN_POINT('',(4.26412814814515,1.8232058490645,0.));
#391=CARTESIAN_POINT('',(4.32598853617281,1.92974363604672,0.));
#392=CARTESIAN_POINT('',(4.47165597548473,2.27408802547207,0.));
#393=CARTESIAN_POINT('',(4.50974539742787,2.52377723752236,0.));
#394=CARTESIAN_POINT('',(4.48766701072613,2.89604280576031,0.));
#395=CARTESIAN_POINT('',(4.46735553998627,3.01752371895722,0.));
#396=CARTESIAN_POINT('',(4.40270190090403,3.25564747899936,0.));
#397=CARTESIAN_POINT('',(4.35759231974447,3.37341561760137,0.));
#398=CARTESIAN_POINT('',(4.24708684445155,3.59462292773887,0.));
#399=CARTESIAN_POINT('',(4.18169402231202,3.69896814477197,0.));
#400=CARTESIAN_POINT('',(4.03106946425429,3.89541404451862,0.));
#401=CARTESIAN_POINT('',(3.94533231735403,3.98757754051095,0.));
#402=CARTESIAN_POINT('',(3.76124628300485,4.15185171264116,0.));
#403=CARTESIAN_POINT('',(3.66213764641519,4.22510830288303,0.));
#404=CARTESIAN_POINT('',(3.44967578216134,4.35371802379593,0.));
#405=CARTESIAN_POINT('',(3.3369615844254,4.4083854725246,0.));
#406=CARTESIAN_POINT('',(2.99104928448704,4.5389409249306,0.));
#407=CARTESIAN_POINT('',(2.74149473995018,4.58402160048931,0.));
#408=CARTESIAN_POINT('',(2.24861575328805,4.58283122602987,0.));
#409=CARTESIAN_POINT('',(1.99927035486161,4.53655903543891,0.));
#410=CARTESIAN_POINT('',(1.65382199048562,4.40423154593143,0.));
#411=CARTESIAN_POINT('',(1.54137783400798,4.34900058526206,0.));
#412=CARTESIAN_POINT('',(1.32950950536436,4.21929465460194,0.));
#413=CARTESIAN_POINT('',(1.23065824191823,4.14546426963437,0.));
#414=CARTESIAN_POINT('',(1.04708280725383,3.97989772388609,0.));
#415=CARTESIAN_POINT('',(0.961822001110312,3.88721312893409,0.));
#416=CARTESIAN_POINT('',(0.81232807756796,3.69000403258504,0.));
#417=CARTESIAN_POINT('',(0.747298545987739,3.58502635733353,0.));
#418=CARTESIAN_POINT('',(0.582599921605163,3.25016222436724,0.));
#419=CARTESIAN_POINT('',(0.51682759169676,3.00564095833054,0.));
#420=CARTESIAN_POINT('',(0.491523070938937,2.50931962712501,0.));
#421=CARTESIAN_POINT('',(0.532469382169897,2.25789051206982,0.));
#422=CARTESIAN_POINT('',(0.681107747148985,1.91650245252304,0.));
#423=CARTESIAN_POINT('',(0.745782175793101,1.80804773905302,0.));
#424=CARTESIAN_POINT('',(0.899764292866765,1.61503514197198,0.));
#425=CARTESIAN_POINT('',(0.991472417415847,1.52779700555072,0.));
#426=CARTESIAN_POINT('',(1.1924425487334,1.38277822175848,0.));
#427=CARTESIAN_POINT('',(1.30229183996422,1.32400555616127,0.));
#428=CARTESIAN_POINT('',(1.53376370429855,1.23121126865816,0.));
#429=CARTESIAN_POINT('',(1.65168677651289,1.19824877053716,0.));
#430=CARTESIAN_POINT('',(2.00959893441328,1.12480955404374,0.));
#431=CARTESIAN_POINT('',(2.25342136560792,1.10787940213554,0.));
#432=CARTESIAN_POINT('',(2.74657863439208,1.10787940213554,0.));
#433=CARTESIAN_POINT('',(0.,0.,0.));
#434=CARTESIAN_POINT('',(27.3363104734556,0.,0.));
#435=CARTESIAN_POINT('',(27.3363104734556,0.,4.5));
#436=CARTESIAN_POINT('',(0.,0.,0.));
#437=CARTESIAN_POINT('',(32.,0.,0.));
#438=CARTESIAN_POINT('',(32.,0.,6.));
#439=CARTESIAN_POINT('',(27.3363104734556,0.,0.));
#440=CARTESIAN_POINT('',(94.5821795450956,0.,0.));
#441=CARTESIAN_POINT('',(94.5821795450956,0.,6.));
#442=CARTESIAN_POINT('',(0.,0.,0.));
#443=CARTESIAN_POINT('',(96.,0.,0.));
#444=CARTESIAN_POINT('',(96.,0.,5.75));
#445=CARTESIAN_POINT('',(96.,0.,0.));
#446=CARTESIAN_POINT('',(0.,0.,0.));
#447=(
GEOMETRIC_REPRESENTATION_CONTEXT(3)
GLOBAL_UNCERTAINTY_ASSIGNED_CONTEXT((#448))
GLOBAL_UNIT_ASSIGNED_CONTEXT((#454,#450,#449))
REPRESENTATION_CONTEXT('model1','TOP_LEVEL_ASSEMBLY_PART')
);
#448=UNCERTAINTY_MEASURE_WITH_UNIT(LENGTH_MEASURE(2.E-5),#454,
'DISTANCE_ACCURACY_VALUE','Maximum Tolerance applied to model');
#449=(
NAMED_UNIT(*)
SI_UNIT($,.STERADIAN.)
SOLID_ANGLE_UNIT()
);
#450=(
CONVERSION_BASED_UNIT('DEGREE',#452)
NAMED_UNIT(#451)
PLANE_ANGLE_UNIT()
);
#451=DIMENSIONAL_EXPONENTS(0.,0.,0.,0.,0.,0.,0.);
#452=PLANE_ANGLE_MEASURE_WITH_UNIT(PLANE_ANGLE_MEASURE(0.0174532925),#453);
#453=(
NAMED_UNIT(*)
PLANE_ANGLE_UNIT()
SI_UNIT($,.RADIAN.)
);
#454=(
LENGTH_UNIT()
NAMED_UNIT(*)
SI_UNIT(.MILLI.,.METRE.)
);
ENDSEC;
END-ISO-10303-21;
