ISO-10303-21;
HEADER;
/* Generated by software containing ST-Developer
 * from STEP Tools, Inc. (www.steptools.com) 
 */
/* OPTION: using custom schema-name function */

FILE_DESCRIPTION(
/* description */ (''),
/* implementation_level */ '2;1');

FILE_NAME(
/* name */ 'model1.stp',
/* time_stamp */ '2023-11-06T19:41:33+03:00',
/* author */ (''),
/* organization */ (''),
/* preprocessor_version */ 'ST-DEVELOPER v19.4',
/* originating_system */ 'SIEMENS PLM Software NX2306.3001',
/* authorisation */ '');

FILE_SCHEMA (('AUTOMOTIVE_DESIGN { 1 0 10303 214 3 1 1 1 }'));
ENDSEC;

DATA;
#10=PROPERTY_DEFINITION_REPRESENTATION(#14,#12);
#11=PROPERTY_DEFINITION_REPRESENTATION(#15,#13);
#12=REPRESENTATION('',(#16),#472);
#13=REPRESENTATION('',(#17),#472);
#14=PROPERTY_DEFINITION('pmi validation property','',#21);
#15=PROPERTY_DEFINITION('pmi validation property','',#21);
#16=VALUE_REPRESENTATION_ITEM('number of annotations',COUNT_MEASURE(0.));
#17=VALUE_REPRESENTATION_ITEM('number of views',COUNT_MEASURE(0.));
#18=SHAPE_REPRESENTATION_RELATIONSHIP('None',
'relationship between model1_objects-None and model1_objects-None',#30,
#19);
#19=ADVANCED_BREP_SHAPE_REPRESENTATION('model1_objects-None',(#133,#134),
#472);
#20=SHAPE_DEFINITION_REPRESENTATION(#21,#30);
#21=PRODUCT_DEFINITION_SHAPE('','',#22);
#22=PRODUCT_DEFINITION(' ','',#24,#23);
#23=PRODUCT_DEFINITION_CONTEXT('part definition',#29,'design');
#24=PRODUCT_DEFINITION_FORMATION_WITH_SPECIFIED_SOURCE(' ',' ',#26,
 .NOT_KNOWN.);
#25=PRODUCT_RELATED_PRODUCT_CATEGORY('part','',(#26));
#26=PRODUCT('model1_objects','model1_objects',' ',(#27));
#27=PRODUCT_CONTEXT(' ',#29,'mechanical');
#28=APPLICATION_PROTOCOL_DEFINITION('international standard',
'automotive_design',2010,#29);
#29=APPLICATION_CONTEXT(
'core data for automotive mechanical design processes');
#30=SHAPE_REPRESENTATION('model1_objects-None',(#248),#472);
#31=OVER_RIDING_STYLED_ITEM('',(#62),#139,#59);
#32=OVER_RIDING_STYLED_ITEM('',(#63),#140,#59);
#33=OVER_RIDING_STYLED_ITEM('',(#64),#141,#59);
#34=OVER_RIDING_STYLED_ITEM('',(#65),#142,#59);
#35=OVER_RIDING_STYLED_ITEM('',(#66),#143,#59);
#36=OVER_RIDING_STYLED_ITEM('',(#67),#144,#59);
#37=OVER_RIDING_STYLED_ITEM('',(#68),#145,#59);
#38=OVER_RIDING_STYLED_ITEM('',(#69),#146,#59);
#39=OVER_RIDING_STYLED_ITEM('',(#70),#147,#59);
#40=OVER_RIDING_STYLED_ITEM('',(#71),#148,#59);
#41=COLOUR_RGB('Medium Steel',0.611764705882353,0.658823529411765,0.670588235294118);
#42=COLOUR_RGB('silver gray',0.6,0.6,0.6);
#43=CONICAL_SURFACE('',#263,6.,45.0000000000007);
#44=CONICAL_SURFACE('',#267,5.75,9.99999999999998);
#45=CYLINDRICAL_SURFACE('',#259,5.4);
#46=CYLINDRICAL_SURFACE('',#265,6.);
#47=CYLINDRICAL_SURFACE('',#268,5.75);
#48=SURFACE_OF_REVOLUTION('',#50,#49);
#49=AXIS1_PLACEMENT('',#455,#289);
#50=B_SPLINE_CURVE_WITH_KNOTS('',3,(#405,#406,#407,#408,#409,#410,#411,
#412,#413,#414,#415,#416,#417,#418,#419,#420,#421,#422,#423,#424,#425,#426,
#427,#428,#429,#430,#431,#432,#433,#434,#435,#436,#437,#438,#439,#440,#441,
#442,#443,#444,#445,#446,#447,#448,#449,#450,#451,#452,#453,#454),
 .UNSPECIFIED.,.T.,.F.,(2,2,2,2,2,2,2,2,2,2,2,2,2,2,2,2,2,2,2,2,2,2,2,2,
2,2,2),(-0.0625,0.,0.0625,0.125,0.15625,0.1875,0.21875,0.25,0.28125,0.3125,
0.375,0.4375,0.5,0.53125,0.5625,0.59375,0.625,0.6875,0.71875,0.75,0.8125,
0.84375,0.875,0.90625,0.9375,1.,1.0625),.UNSPECIFIED.);
#51=PLANE('',#254);
#52=PLANE('',#256);
#53=FACE_OUTER_BOUND('',#177,.T.);
#54=FACE_OUTER_BOUND('',#178,.T.);
#55=TOROIDAL_SURFACE('',#253,4.75,1.);
#56=TOROIDAL_SURFACE('',#261,6.4,1.);
#57=PRESENTATION_LAYER_ASSIGNMENT('1','Layer 1',(#133,#134));
#58=STYLED_ITEM('',(#60),#133);
#59=STYLED_ITEM('',(#61),#134);
#60=PRESENTATION_STYLE_ASSIGNMENT((#72));
#61=PRESENTATION_STYLE_ASSIGNMENT((#73));
#62=PRESENTATION_STYLE_ASSIGNMENT((#74));
#63=PRESENTATION_STYLE_ASSIGNMENT((#75));
#64=PRESENTATION_STYLE_ASSIGNMENT((#76));
#65=PRESENTATION_STYLE_ASSIGNMENT((#77));
#66=PRESENTATION_STYLE_ASSIGNMENT((#78));
#67=PRESENTATION_STYLE_ASSIGNMENT((#79));
#68=PRESENTATION_STYLE_ASSIGNMENT((#80));
#69=PRESENTATION_STYLE_ASSIGNMENT((#81));
#70=PRESENTATION_STYLE_ASSIGNMENT((#82));
#71=PRESENTATION_STYLE_ASSIGNMENT((#83));
#72=SURFACE_STYLE_USAGE(.BOTH.,#84);
#73=SURFACE_STYLE_USAGE(.BOTH.,#85);
#74=SURFACE_STYLE_USAGE(.BOTH.,#86);
#75=SURFACE_STYLE_USAGE(.BOTH.,#87);
#76=SURFACE_STYLE_USAGE(.BOTH.,#88);
#77=SURFACE_STYLE_USAGE(.BOTH.,#89);
#78=SURFACE_STYLE_USAGE(.BOTH.,#90);
#79=SURFACE_STYLE_USAGE(.BOTH.,#91);
#80=SURFACE_STYLE_USAGE(.BOTH.,#92);
#81=SURFACE_STYLE_USAGE(.BOTH.,#93);
#82=SURFACE_STYLE_USAGE(.BOTH.,#94);
#83=SURFACE_STYLE_USAGE(.BOTH.,#95);
#84=SURFACE_SIDE_STYLE('',(#96));
#85=SURFACE_SIDE_STYLE('',(#97));
#86=SURFACE_SIDE_STYLE('',(#98));
#87=SURFACE_SIDE_STYLE('',(#99));
#88=SURFACE_SIDE_STYLE('',(#100));
#89=SURFACE_SIDE_STYLE('',(#101));
#90=SURFACE_SIDE_STYLE('',(#102));
#91=SURFACE_SIDE_STYLE('',(#103));
#92=SURFACE_SIDE_STYLE('',(#104));
#93=SURFACE_SIDE_STYLE('',(#105));
#94=SURFACE_SIDE_STYLE('',(#106));
#95=SURFACE_SIDE_STYLE('',(#107));
#96=SURFACE_STYLE_FILL_AREA(#108);
#97=SURFACE_STYLE_FILL_AREA(#109);
#98=SURFACE_STYLE_FILL_AREA(#110);
#99=SURFACE_STYLE_FILL_AREA(#111);
#100=SURFACE_STYLE_FILL_AREA(#112);
#101=SURFACE_STYLE_FILL_AREA(#113);
#102=SURFACE_STYLE_FILL_AREA(#114);
#103=SURFACE_STYLE_FILL_AREA(#115);
#104=SURFACE_STYLE_FILL_AREA(#116);
#105=SURFACE_STYLE_FILL_AREA(#117);
#106=SURFACE_STYLE_FILL_AREA(#118);
#107=SURFACE_STYLE_FILL_AREA(#119);
#108=FILL_AREA_STYLE('',(#120));
#109=FILL_AREA_STYLE('',(#121));
#110=FILL_AREA_STYLE('',(#122));
#111=FILL_AREA_STYLE('',(#123));
#112=FILL_AREA_STYLE('',(#124));
#113=FILL_AREA_STYLE('',(#125));
#114=FILL_AREA_STYLE('',(#126));
#115=FILL_AREA_STYLE('',(#127));
#116=FILL_AREA_STYLE('',(#128));
#117=FILL_AREA_STYLE('',(#129));
#118=FILL_AREA_STYLE('',(#130));
#119=FILL_AREA_STYLE('',(#131));
#120=FILL_AREA_STYLE_COLOUR('',#132);
#121=FILL_AREA_STYLE_COLOUR('',#41);
#122=FILL_AREA_STYLE_COLOUR('',#42);
#123=FILL_AREA_STYLE_COLOUR('',#42);
#124=FILL_AREA_STYLE_COLOUR('',#42);
#125=FILL_AREA_STYLE_COLOUR('',#42);
#126=FILL_AREA_STYLE_COLOUR('',#42);
#127=FILL_AREA_STYLE_COLOUR('',#42);
#128=FILL_AREA_STYLE_COLOUR('',#42);
#129=FILL_AREA_STYLE_COLOUR('',#42);
#130=FILL_AREA_STYLE_COLOUR('',#42);
#131=FILL_AREA_STYLE_COLOUR('',#42);
#132=DRAUGHTING_PRE_DEFINED_COLOUR('yellow');
#133=MANIFOLD_SOLID_BREP('',#135);
#134=MANIFOLD_SOLID_BREP('',#136);
#135=CLOSED_SHELL('',(#137,#138));
#136=CLOSED_SHELL('',(#139,#140,#141,#142,#143,#144,#145,#146,#147,#148));
#137=ADVANCED_FACE('',(#151,#152),#149,.F.);
#138=ADVANCED_FACE('',(#153,#154),#150,.F.);
#139=ADVANCED_FACE('',(#155,#156),#55,.T.);
#140=ADVANCED_FACE('',(#53),#51,.F.);
#141=ADVANCED_FACE('',(#54),#52,.F.);
#142=ADVANCED_FACE('',(#157,#158),#48,.T.);
#143=ADVANCED_FACE('',(#159,#160),#45,.T.);
#144=ADVANCED_FACE('',(#161,#162),#56,.F.);
#145=ADVANCED_FACE('',(#163,#164),#43,.T.);
#146=ADVANCED_FACE('',(#165,#166),#46,.T.);
#147=ADVANCED_FACE('',(#167,#168),#44,.T.);
#148=ADVANCED_FACE('',(#169,#170),#47,.T.);
#149=(
BOUNDED_SURFACE()
B_SPLINE_SURFACE(3,3,((#317,#318,#319,#320,#321,#322,#323),(#324,#325,#326,
#327,#328,#329,#330),(#331,#332,#333,#334,#335,#336,#337),(#338,#339,#340,
#341,#342,#343,#344),(#345,#346,#347,#348,#349,#350,#351),(#352,#353,#354,
#355,#356,#357,#358),(#359,#360,#361,#362,#363,#364,#365)),
 .UNSPECIFIED.,.T.,.F.,.F.)
B_SPLINE_SURFACE_WITH_KNOTS((1,3,3,3,1),(4,3,4),(-0.5,0.,0.5,1.,1.5),(0.,
0.5,1.),.UNSPECIFIED.)
GEOMETRIC_REPRESENTATION_ITEM()
RATIONAL_B_SPLINE_SURFACE(((1.,0.579872418692237,0.579872418692237,1.,0.579872418692237,
0.579872418692237,1.),(0.333333333333334,0.193290806230745,0.193290806230745,
0.333333333333334,0.193290806230745,0.193290806230745,0.333333333333334),
(0.333333333333334,0.193290806230745,0.193290806230745,0.333333333333334,
0.193290806230745,0.193290806230745,0.333333333333334),(1.,0.579872418692237,
0.579872418692237,1.,0.579872418692237,0.579872418692237,1.),(0.333333333333334,
0.193290806230745,0.193290806230745,0.333333333333334,0.193290806230745,
0.193290806230745,0.333333333333334),(0.333333333333334,0.193290806230745,
0.193290806230745,0.333333333333334,0.193290806230745,0.193290806230745,
0.333333333333334),(1.,0.579872418692237,0.579872418692237,1.,0.579872418692237,
0.579872418692237,1.)))
REPRESENTATION_ITEM('')
SURFACE()
);
#150=(
BOUNDED_SURFACE()
B_SPLINE_SURFACE(3,3,((#366,#367,#368,#369),(#370,#371,#372,#373),(#374,
#375,#376,#377),(#378,#379,#380,#381),(#382,#383,#384,#385),(#386,#387,
#388,#389),(#390,#391,#392,#393)),.UNSPECIFIED.,.T.,.F.,.F.)
B_SPLINE_SURFACE_WITH_KNOTS((1,3,3,3,1),(4,4),(-0.5,0.,0.5,1.,1.5),(0.,
1.),.UNSPECIFIED.)
GEOMETRIC_REPRESENTATION_ITEM()
RATIONAL_B_SPLINE_SURFACE(((1.,0.817655438171186,0.817655438171186,1.),
(0.333333333333334,0.272551812723729,0.272551812723729,0.333333333333334),
(0.333333333333334,0.272551812723729,0.272551812723729,0.333333333333334),
(1.,0.817655438171186,0.817655438171186,1.),(0.333333333333334,0.272551812723729,
0.272551812723729,0.333333333333334),(0.333333333333334,0.272551812723729,
0.272551812723729,0.333333333333334),(1.,0.817655438171186,0.817655438171186,
1.)))
REPRESENTATION_ITEM('')
SURFACE()
);
#151=FACE_BOUND('',#171,.T.);
#152=FACE_BOUND('',#172,.T.);
#153=FACE_BOUND('',#173,.T.);
#154=FACE_BOUND('',#174,.T.);
#155=FACE_BOUND('',#175,.T.);
#156=FACE_BOUND('',#176,.T.);
#157=FACE_BOUND('',#179,.T.);
#158=FACE_BOUND('',#180,.T.);
#159=FACE_BOUND('',#181,.T.);
#160=FACE_BOUND('',#182,.T.);
#161=FACE_BOUND('',#183,.T.);
#162=FACE_BOUND('',#184,.T.);
#163=FACE_BOUND('',#185,.T.);
#164=FACE_BOUND('',#186,.T.);
#165=FACE_BOUND('',#187,.T.);
#166=FACE_BOUND('',#188,.T.);
#167=FACE_BOUND('',#189,.T.);
#168=FACE_BOUND('',#190,.T.);
#169=FACE_BOUND('',#191,.T.);
#170=FACE_BOUND('',#192,.T.);
#171=EDGE_LOOP('',(#193));
#172=EDGE_LOOP('',(#194));
#173=EDGE_LOOP('',(#195));
#174=EDGE_LOOP('',(#196));
#175=EDGE_LOOP('',(#197));
#176=EDGE_LOOP('',(#198));
#177=EDGE_LOOP('',(#199));
#178=EDGE_LOOP('',(#200));
#179=EDGE_LOOP('',(#201));
#180=EDGE_LOOP('',(#202));
#181=EDGE_LOOP('',(#203));
#182=EDGE_LOOP('',(#204));
#183=EDGE_LOOP('',(#205));
#184=EDGE_LOOP('',(#206));
#185=EDGE_LOOP('',(#207));
#186=EDGE_LOOP('',(#208));
#187=EDGE_LOOP('',(#209));
#188=EDGE_LOOP('',(#210));
#189=EDGE_LOOP('',(#211));
#190=EDGE_LOOP('',(#212));
#191=EDGE_LOOP('',(#213));
#192=EDGE_LOOP('',(#214));
#193=ORIENTED_EDGE('',*,*,#226,.T.);
#194=ORIENTED_EDGE('',*,*,#227,.F.);
#195=ORIENTED_EDGE('',*,*,#227,.T.);
#196=ORIENTED_EDGE('',*,*,#226,.F.);
#197=ORIENTED_EDGE('',*,*,#228,.F.);
#198=ORIENTED_EDGE('',*,*,#229,.T.);
#199=ORIENTED_EDGE('',*,*,#229,.F.);
#200=ORIENTED_EDGE('',*,*,#230,.T.);
#201=ORIENTED_EDGE('',*,*,#230,.F.);
#202=ORIENTED_EDGE('',*,*,#231,.T.);
#203=ORIENTED_EDGE('',*,*,#231,.F.);
#204=ORIENTED_EDGE('',*,*,#232,.T.);
#205=ORIENTED_EDGE('',*,*,#232,.F.);
#206=ORIENTED_EDGE('',*,*,#233,.T.);
#207=ORIENTED_EDGE('',*,*,#233,.F.);
#208=ORIENTED_EDGE('',*,*,#234,.T.);
#209=ORIENTED_EDGE('',*,*,#234,.F.);
#210=ORIENTED_EDGE('',*,*,#235,.T.);
#211=ORIENTED_EDGE('',*,*,#235,.F.);
#212=ORIENTED_EDGE('',*,*,#236,.T.);
#213=ORIENTED_EDGE('',*,*,#236,.F.);
#214=ORIENTED_EDGE('',*,*,#228,.T.);
#215=VERTEX_POINT('',#314);
#216=VERTEX_POINT('',#316);
#217=VERTEX_POINT('',#395);
#218=VERTEX_POINT('',#397);
#219=VERTEX_POINT('',#401);
#220=VERTEX_POINT('',#404);
#221=VERTEX_POINT('',#457);
#222=VERTEX_POINT('',#460);
#223=VERTEX_POINT('',#463);
#224=VERTEX_POINT('',#466);
#225=VERTEX_POINT('',#469);
#226=EDGE_CURVE('',#215,#215,#237,.T.);
#227=EDGE_CURVE('',#216,#216,#238,.T.);
#228=EDGE_CURVE('',#217,#217,#239,.T.);
#229=EDGE_CURVE('',#218,#218,#240,.T.);
#230=EDGE_CURVE('',#219,#219,#241,.T.);
#231=EDGE_CURVE('',#220,#220,#242,.T.);
#232=EDGE_CURVE('',#221,#221,#243,.T.);
#233=EDGE_CURVE('',#222,#222,#244,.T.);
#234=EDGE_CURVE('',#223,#223,#245,.T.);
#235=EDGE_CURVE('',#224,#224,#246,.T.);
#236=EDGE_CURVE('',#225,#225,#247,.T.);
#237=CIRCLE('',#249,2.5);
#238=CIRCLE('',#250,2.5);
#239=CIRCLE('',#251,5.75);
#240=CIRCLE('',#252,4.75);
#241=CIRCLE('',#255,2.48186075330116);
#242=CIRCLE('',#257,5.39999999999994);
#243=CIRCLE('',#258,5.4);
#244=CIRCLE('',#260,5.69289321881345);
#245=CIRCLE('',#262,6.);
#246=CIRCLE('',#264,6.);
#247=CIRCLE('',#266,5.75);
#248=AXIS2_PLACEMENT_3D('',#312,#269,#270);
#249=AXIS2_PLACEMENT_3D('',#313,#271,#272);
#250=AXIS2_PLACEMENT_3D('',#315,#273,#274);
#251=AXIS2_PLACEMENT_3D('',#394,#275,#276);
#252=AXIS2_PLACEMENT_3D('',#396,#277,#278);
#253=AXIS2_PLACEMENT_3D('',#398,#279,#280);
#254=AXIS2_PLACEMENT_3D('',#399,#281,#282);
#255=AXIS2_PLACEMENT_3D('',#400,#283,#284);
#256=AXIS2_PLACEMENT_3D('',#402,#285,#286);
#257=AXIS2_PLACEMENT_3D('',#403,#287,#288);
#258=AXIS2_PLACEMENT_3D('',#456,#290,#291);
#259=AXIS2_PLACEMENT_3D('',#458,#292,#293);
#260=AXIS2_PLACEMENT_3D('',#459,#294,#295);
#261=AXIS2_PLACEMENT_3D('',#461,#296,#297);
#262=AXIS2_PLACEMENT_3D('',#462,#298,#299);
#263=AXIS2_PLACEMENT_3D('',#464,#300,#301);
#264=AXIS2_PLACEMENT_3D('',#465,#302,#303);
#265=AXIS2_PLACEMENT_3D('',#467,#304,#305);
#266=AXIS2_PLACEMENT_3D('',#468,#306,#307);
#267=AXIS2_PLACEMENT_3D('',#470,#308,#309);
#268=AXIS2_PLACEMENT_3D('',#471,#310,#311);
#269=DIRECTION('',(0.,0.,1.));
#270=DIRECTION('',(1.,0.,0.));
#271=DIRECTION('',(0.,0.998455597533968,0.0555555555555563));
#272=DIRECTION('',(1.,0.,0.));
#273=DIRECTION('',(0.,0.,1.));
#274=DIRECTION('',(1.,0.,0.));
#275=DIRECTION('',(-1.,0.,0.));
#276=DIRECTION('',(0.,0.,1.));
#277=DIRECTION('',(-1.,0.,0.));
#278=DIRECTION('',(0.,0.,1.));
#279=DIRECTION('',(-1.,0.,0.));
#280=DIRECTION('',(0.,0.,1.));
#281=DIRECTION('',(-1.,0.,0.));
#282=DIRECTION('',(0.,0.,1.));
#283=DIRECTION('',(-1.,0.,0.));
#284=DIRECTION('',(0.,0.,1.));
#285=DIRECTION('',(1.,0.,0.));
#286=DIRECTION('',(0.,0.,-1.));
#287=DIRECTION('',(-1.,0.,0.));
#288=DIRECTION('',(0.,0.,1.));
#289=DIRECTION('',(-1.,0.,0.));
#290=DIRECTION('',(-1.,0.,0.));
#291=DIRECTION('',(0.,0.,1.));
#292=DIRECTION('',(-1.,0.,0.));
#293=DIRECTION('',(0.,0.,1.));
#294=DIRECTION('',(-1.,0.,0.));
#295=DIRECTION('',(0.,0.,1.));
#296=DIRECTION('',(-1.,0.,0.));
#297=DIRECTION('',(0.,0.,1.));
#298=DIRECTION('',(-1.,0.,0.));
#299=DIRECTION('',(0.,0.,1.));
#300=DIRECTION('',(1.,0.,0.));
#301=DIRECTION('',(3.44875442540113E-17,0.,-1.));
#302=DIRECTION('',(-1.,0.,0.));
#303=DIRECTION('',(0.,0.,1.));
#304=DIRECTION('',(-1.,0.,0.));
#305=DIRECTION('',(0.,0.,1.));
#306=DIRECTION('',(-1.,0.,0.));
#307=DIRECTION('',(0.,0.,1.));
#308=DIRECTION('',(-1.,0.,0.));
#309=DIRECTION('',(-7.62193427956447E-17,0.,1.));
#310=DIRECTION('',(-1.,0.,0.));
#311=DIRECTION('',(0.,0.,1.));
#312=CARTESIAN_POINT('',(0.,0.,0.));
#313=CARTESIAN_POINT('',(2.5,0.105510909260188,3.50373675686876));
#314=CARTESIAN_POINT('',(5.,0.105510909260188,3.50373675686876));
#315=CARTESIAN_POINT('',(2.5,-3.49246386,0.3));
#316=CARTESIAN_POINT('',(5.,-3.49246386,0.3));
#317=CARTESIAN_POINT('',(5.,-3.49246386,0.3));
#318=CARTESIAN_POINT('',(5.,-3.81291640019,-3.43056305152923));
#319=CARTESIAN_POINT('',(5.,-0.465326733557995,-5.10789245740272));
#320=CARTESIAN_POINT('',(5.,2.33106089033712,-2.61791117858243));
#321=CARTESIAN_POINT('',(5.,5.12744851423222,-0.127929899762131));
#322=CARTESIAN_POINT('',(5.,3.84811538891239,3.39103262723481));
#323=CARTESIAN_POINT('',(5.,0.105510909260188,3.50373675686876));
#324=CARTESIAN_POINT('',(4.99999999999999,1.50753614,0.3));
#325=CARTESIAN_POINT('',(5.,1.18708359981,1.91031261830409));
#326=CARTESIAN_POINT('',(5.,-0.427576766506186,2.20808511641508));
#327=CARTESIAN_POINT('',(4.99999999999999,-1.30135489594678,0.818010176098956));
#328=CARTESIAN_POINT('',(5.,-2.17513302538738,-0.57206476421717));
#329=CARTESIAN_POINT('',(5.,-1.20673404158788,-1.89796067542578));
#330=CARTESIAN_POINT('',(4.99999999999999,0.383288687037969,-1.48854123080109));
#331=CARTESIAN_POINT('',(-2.55038338414727E-16,1.50753614,0.3));
#332=CARTESIAN_POINT('',(-2.55038338414727E-16,1.18708359981,1.91031261830409));
#333=CARTESIAN_POINT('',(-2.55038338414727E-16,-0.427576766506186,2.20808511641508));
#334=CARTESIAN_POINT('',(-2.55038338414727E-16,-1.30135489594678,0.818010176098956));
#335=CARTESIAN_POINT('',(-2.55038338414727E-16,-2.17513302538738,-0.57206476421717));
#336=CARTESIAN_POINT('',(-2.55038338414727E-16,-1.20673404158788,-1.89796067542578));
#337=CARTESIAN_POINT('',(-2.55038338414727E-16,0.383288687037969,-1.48854123080109));
#338=CARTESIAN_POINT('',(-8.67361737988404E-16,-3.49246386,0.3));
#339=CARTESIAN_POINT('',(-8.67361737988404E-16,-3.81291640019,-3.43056305152923));
#340=CARTESIAN_POINT('',(-8.67361737988404E-16,-0.465326733557995,-5.10789245740272));
#341=CARTESIAN_POINT('',(-8.67361737988404E-16,2.33106089033712,-2.61791117858243));
#342=CARTESIAN_POINT('',(-8.67361737988404E-16,5.12744851423222,-0.127929899762131));
#343=CARTESIAN_POINT('',(-8.67361737988404E-16,3.84811538891239,3.39103262723481));
#344=CARTESIAN_POINT('',(-8.67361737988404E-16,0.105510909260188,3.50373675686876));
#345=CARTESIAN_POINT('',(-1.47968513756208E-15,-8.49246386,0.3));
#346=CARTESIAN_POINT('',(-1.47968513756208E-15,-8.81291640019,-8.77143872136254));
#347=CARTESIAN_POINT('',(-1.47968513756208E-15,-0.503076700609803,-12.4238700312205));
#348=CARTESIAN_POINT('',(-1.47968513756208E-15,5.96347667662101,-6.05383253326381));
#349=CARTESIAN_POINT('',(-1.47968513756208E-15,12.4300300538518,0.316204964692909));
#350=CARTESIAN_POINT('',(-1.47968513756208E-15,8.90296481941268,8.68002592989541));
#351=CARTESIAN_POINT('',(-1.47968513756208E-15,-0.172266868517593,8.49601474453859));
#352=CARTESIAN_POINT('',(4.99999999999999,-8.49246386,0.3));
#353=CARTESIAN_POINT('',(5.,-8.81291640019,-8.77143872136254));
#354=CARTESIAN_POINT('',(5.,-0.503076700609803,-12.4238700312205));
#355=CARTESIAN_POINT('',(4.99999999999999,5.96347667662101,-6.05383253326381));
#356=CARTESIAN_POINT('',(5.,12.4300300538518,0.316204964692909));
#357=CARTESIAN_POINT('',(5.,8.90296481941268,8.68002592989541));
#358=CARTESIAN_POINT('',(4.99999999999999,-0.172266868517593,8.49601474453859));
#359=CARTESIAN_POINT('',(5.,-3.49246386,0.3));
#360=CARTESIAN_POINT('',(5.,-3.81291640019,-3.43056305152923));
#361=CARTESIAN_POINT('',(5.,-0.465326733557995,-5.10789245740272));
#362=CARTESIAN_POINT('',(5.,2.33106089033712,-2.61791117858243));
#363=CARTESIAN_POINT('',(5.,5.12744851423222,-0.127929899762131));
#364=CARTESIAN_POINT('',(5.,3.84811538891239,3.39103262723481));
#365=CARTESIAN_POINT('',(5.,0.105510909260188,3.50373675686876));
#366=CARTESIAN_POINT('',(5.,0.105510909260188,3.50373675686876));
#367=CARTESIAN_POINT('',(5.,-1.85759210978715,3.56285329412146));
#368=CARTESIAN_POINT('',(5.,-3.32437734363725,2.25678694583405));
#369=CARTESIAN_POINT('',(5.,-3.49246386,0.3));
#370=CARTESIAN_POINT('',(4.99999999999999,0.383288687037969,-1.48854123080109));
#371=CARTESIAN_POINT('',(5.,1.21730105353023,-1.27378903024953));
#372=CARTESIAN_POINT('',(5.,1.67562265636275,-0.544654993545174));
#373=CARTESIAN_POINT('',(4.99999999999999,1.50753614,0.3));
#374=CARTESIAN_POINT('',(-2.55038338414727E-16,0.383288687037969,-1.48854123080109));
#375=CARTESIAN_POINT('',(-2.55038338414727E-16,1.21730105353023,-1.27378903024953));
#376=CARTESIAN_POINT('',(-2.55038338414727E-16,1.67562265636275,-0.544654993545174));
#377=CARTESIAN_POINT('',(-2.55038338414727E-16,1.50753614,0.3));
#378=CARTESIAN_POINT('',(-8.67361737988404E-16,0.105510909260188,3.50373675686876));
#379=CARTESIAN_POINT('',(-8.67361737988404E-16,-1.85759210978715,3.56285329412146));
#380=CARTESIAN_POINT('',(-8.67361737988404E-16,-3.32437734363725,2.25678694583405));
#381=CARTESIAN_POINT('',(-8.67361737988404E-16,-3.49246386,0.3));
#382=CARTESIAN_POINT('',(-1.47968513756208E-15,-0.172266868517593,8.49601474453859));
#383=CARTESIAN_POINT('',(-1.47968513756208E-15,-4.93248527310453,8.39949561849244));
#384=CARTESIAN_POINT('',(-1.47968513756208E-15,-8.32437734363724,5.05822888521326));
#385=CARTESIAN_POINT('',(-1.47968513756208E-15,-8.49246386,0.3));
#386=CARTESIAN_POINT('',(4.99999999999999,-0.172266868517593,8.49601474453859));
#387=CARTESIAN_POINT('',(5.,-4.93248527310453,8.39949561849244));
#388=CARTESIAN_POINT('',(5.,-8.32437734363724,5.05822888521326));
#389=CARTESIAN_POINT('',(4.99999999999999,-8.49246386,0.3));
#390=CARTESIAN_POINT('',(5.,0.105510909260188,3.50373675686876));
#391=CARTESIAN_POINT('',(5.,-1.85759210978715,3.56285329412146));
#392=CARTESIAN_POINT('',(5.,-3.32437734363725,2.25678694583405));
#393=CARTESIAN_POINT('',(5.,-3.49246386,0.3));
#394=CARTESIAN_POINT('',(119.,0.,0.));
#395=CARTESIAN_POINT('',(119.,0.,5.75));
#396=CARTESIAN_POINT('',(120.,0.,0.));
#397=CARTESIAN_POINT('',(120.,0.,4.75));
#398=CARTESIAN_POINT('',(119.,0.,0.));
#399=CARTESIAN_POINT('',(120.,0.,0.));
#400=CARTESIAN_POINT('',(1.00000000001786,0.,0.));
#401=CARTESIAN_POINT('',(1.00000000001786,0.,2.48186075330116));
#402=CARTESIAN_POINT('',(1.00000000000893,2.48186075331893,0.));
#403=CARTESIAN_POINT('',(3.42189782973445,0.,0.));
#404=CARTESIAN_POINT('',(3.42189782973445,0.,5.39999999999994));
#405=CARTESIAN_POINT('',(2.24562088596122,1.91655796792786,0.));
#406=CARTESIAN_POINT('',(2.75437911403878,1.91655796792786,0.));
#407=CARTESIAN_POINT('',(3.00914418488767,1.95387563937246,0.));
#408=CARTESIAN_POINT('',(3.48984950750528,2.11086936404441,0.));
#409=CARTESIAN_POINT('',(3.71820354615352,2.23325179671296,0.));
#410=CARTESIAN_POINT('',(4.00518727310079,2.48055589737483,0.));
#411=CARTESIAN_POINT('',(4.09306144312662,2.57495066934261,0.));
#412=CARTESIAN_POINT('',(4.24283246767929,2.77792317995193,0.));
#413=CARTESIAN_POINT('',(4.30584045378452,2.88707353468068,0.));
#414=CARTESIAN_POINT('',(4.40739622611582,3.12115744689495,0.));
#415=CARTESIAN_POINT('',(4.44417953101537,3.24221537664071,0.));
#416=CARTESIAN_POINT('',(4.49095156753372,3.48939481464377,0.));
#417=CARTESIAN_POINT('',(4.50095350766133,3.61757764370484,0.));
#418=CARTESIAN_POINT('',(4.49373978882029,3.87036854299932,0.));
#419=CARTESIAN_POINT('',(4.476974267384,3.99492369802654,0.));
#420=CARTESIAN_POINT('',(4.4181185071062,4.24049223908203,0.));
#421=CARTESIAN_POINT('',(4.37549327353449,4.36185940028837,0.));
#422=CARTESIAN_POINT('',(4.21576090108054,4.70400426926068,0.));
#423=CARTESIAN_POINT('',(4.06215740612232,4.91267103060361,0.));
#424=CARTESIAN_POINT('',(3.69302892828396,5.2541018219777,0.));
#425=CARTESIAN_POINT('',(3.47303418052992,5.39096397096201,0.));
#426=CARTESIAN_POINT('',(3.00413680430196,5.57297929578418,0.));
#427=CARTESIAN_POINT('',(2.74984603140327,5.62039430097929,0.));
#428=CARTESIAN_POINT('',(2.37202870994988,5.62001889570441,0.));
#429=CARTESIAN_POINT('',(2.24419074399152,5.60801647072755,0.));
#430=CARTESIAN_POINT('',(1.9959181177236,5.56105190493311,0.));
#431=CARTESIAN_POINT('',(1.87500656583719,5.52635237994485,0.));
#432=CARTESIAN_POINT('',(1.63966325381458,5.43441355502605,0.));
#433=CARTESIAN_POINT('',(1.52494662823817,5.37669036890336,0.));
#434=CARTESIAN_POINT('',(1.31145939714288,5.24276802977564,0.));
#435=CARTESIAN_POINT('',(1.21143062541863,5.16619810203341,0.));
#436=CARTESIAN_POINT('',(0.932267582820194,4.90654768701337,0.));
#437=CARTESIAN_POINT('',(0.780996758302406,4.69941334022558,0.));
#438=CARTESIAN_POINT('',(0.621315675237671,4.35379335983778,0.));
#439=CARTESIAN_POINT('',(0.580067326644144,4.2346980537629,0.));
#440=CARTESIAN_POINT('',(0.521955054277232,3.98859151081952,0.));
#441=CARTESIAN_POINT('',(0.505387391367956,3.86108763920139,0.));
#442=CARTESIAN_POINT('',(0.496484936697801,3.48284582286677,0.));
#443=CARTESIAN_POINT('',(0.545039972705319,3.22763559694269,0.));
#444=CARTESIAN_POINT('',(0.697659242666775,2.880665513838,0.));
#445=CARTESIAN_POINT('',(0.762612720155397,2.76936633222647,0.));
#446=CARTESIAN_POINT('',(0.913043994625643,2.56794829529315,0.));
#447=CARTESIAN_POINT('',(0.999086073528318,2.47619468563671,0.));
#448=CARTESIAN_POINT('',(1.19284882052103,2.31061954729407,0.));
#449=CARTESIAN_POINT('',(1.2976344472224,2.23942958587475,0.));
#450=CARTESIAN_POINT('',(1.518791185551,2.11898662296612,0.));
#451=CARTESIAN_POINT('',(1.63683078505367,2.06908485308296,0.));
#452=CARTESIAN_POINT('',(1.99764440260078,1.95251734161215,0.));
#453=CARTESIAN_POINT('',(2.24562088596122,1.91655796792786,0.));
#454=CARTESIAN_POINT('',(2.75437911403878,1.91655796792786,0.));
#455=CARTESIAN_POINT('',(0.,0.,0.));
#456=CARTESIAN_POINT('',(38.9857864376269,0.,0.));
#457=CARTESIAN_POINT('',(38.9857864376269,0.,5.4));
#458=CARTESIAN_POINT('',(0.,0.,0.));
#459=CARTESIAN_POINT('',(39.6928932188135,0.,0.));
#460=CARTESIAN_POINT('',(39.6928932188135,0.,5.69289321881345));
#461=CARTESIAN_POINT('',(38.9857864376269,0.,0.));
#462=CARTESIAN_POINT('',(40.,0.,0.));
#463=CARTESIAN_POINT('',(40.,0.,6.));
#464=CARTESIAN_POINT('',(40.,0.,0.));
#465=CARTESIAN_POINT('',(114.582179545096,0.,0.));
#466=CARTESIAN_POINT('',(114.582179545096,0.,6.));
#467=CARTESIAN_POINT('',(0.,0.,0.));
#468=CARTESIAN_POINT('',(116.,0.,0.));
#469=CARTESIAN_POINT('',(116.,0.,5.75));
#470=CARTESIAN_POINT('',(116.,0.,0.));
#471=CARTESIAN_POINT('',(0.,0.,0.));
#472=(
GEOMETRIC_REPRESENTATION_CONTEXT(3)
GLOBAL_UNCERTAINTY_ASSIGNED_CONTEXT((#473))
GLOBAL_UNIT_ASSIGNED_CONTEXT((#479,#475,#474))
REPRESENTATION_CONTEXT('model1','TOP_LEVEL_ASSEMBLY_PART')
);
#473=UNCERTAINTY_MEASURE_WITH_UNIT(LENGTH_MEASURE(2.E-5),#479,
'DISTANCE_ACCURACY_VALUE','Maximum Tolerance applied to model');
#474=(
NAMED_UNIT(*)
SI_UNIT($,.STERADIAN.)
SOLID_ANGLE_UNIT()
);
#475=(
CONVERSION_BASED_UNIT('DEGREE',#477)
NAMED_UNIT(#476)
PLANE_ANGLE_UNIT()
);
#476=DIMENSIONAL_EXPONENTS(0.,0.,0.,0.,0.,0.,0.);
#477=PLANE_ANGLE_MEASURE_WITH_UNIT(PLANE_ANGLE_MEASURE(0.0174532925),#478);
#478=(
NAMED_UNIT(*)
PLANE_ANGLE_UNIT()
SI_UNIT($,.RADIAN.)
);
#479=(
LENGTH_UNIT()
NAMED_UNIT(*)
SI_UNIT(.MILLI.,.METRE.)
);
ENDSEC;
END-ISO-10303-21;
