ISO-10303-21;
HEADER;
/* Generated by software containing ST-Developer
 * from STEP Tools, Inc. (www.steptools.com) 
 */
/* OPTION: using custom schema-name function */

FILE_DESCRIPTION(
/* description */ (''),
/* implementation_level */ '2;1');

FILE_NAME(
/* name */ 'AEMR-RD0702-D15-M08-L23-Z02-H.stp',
/* time_stamp */ '2023-10-19T19:23:45+03:00',
/* author */ (''),
/* organization */ (''),
/* preprocessor_version */ 'ST-DEVELOPER v19.4',
/* originating_system */ 'SIEMENS PLM Software NX2306.5001',
/* authorisation */ '');

FILE_SCHEMA (('AUTOMOTIVE_DESIGN { 1 0 10303 214 3 1 1 1 }'));
ENDSEC;

DATA;
#10=PROPERTY_DEFINITION_REPRESENTATION(#14,#12);
#11=PROPERTY_DEFINITION_REPRESENTATION(#15,#13);
#12=REPRESENTATION('',(#16),#528);
#13=REPRESENTATION('',(#17),#528);
#14=PROPERTY_DEFINITION('pmi validation property','',#21);
#15=PROPERTY_DEFINITION('pmi validation property','',#21);
#16=VALUE_REPRESENTATION_ITEM('number of annotations',COUNT_MEASURE(0.));
#17=VALUE_REPRESENTATION_ITEM('number of views',COUNT_MEASURE(0.));
#18=SHAPE_REPRESENTATION_RELATIONSHIP('None',
'relationship between AEMR-RD0702-D15-M08-L23-Z02-H-LIGHT_x_t_objects-
None and AEMR-RD0702-D15-M08-L23-Z02-H-LIGHT_x_t_objects-None',#30,#19);
#19=ADVANCED_BREP_SHAPE_REPRESENTATION(
'AEMR-RD0702-D15-M08-L23-Z02-H-LIGHT_x_t_objects-None',(#68,#69),#528);
#20=SHAPE_DEFINITION_REPRESENTATION(#21,#30);
#21=PRODUCT_DEFINITION_SHAPE('','',#22);
#22=PRODUCT_DEFINITION(' ','',#24,#23);
#23=PRODUCT_DEFINITION_CONTEXT('part definition',#29,'design');
#24=PRODUCT_DEFINITION_FORMATION_WITH_SPECIFIED_SOURCE(' ',' ',#26,
 .NOT_KNOWN.);
#25=PRODUCT_RELATED_PRODUCT_CATEGORY('part','',(#26));
#26=PRODUCT('AEMR-RD0702-D15-M08-L23-Z02-H-LIGHT_x_t_objects',
'AEMR-RD0702-D15-M08-L23-Z02-H-LIGHT_x_t_objects',' ',(#27));
#27=PRODUCT_CONTEXT(' ',#29,'mechanical');
#28=APPLICATION_PROTOCOL_DEFINITION('international standard',
'automotive_design',2010,#29);
#29=APPLICATION_CONTEXT(
'core data for automotive mechanical design processes');
#30=SHAPE_REPRESENTATION(
'AEMR-RD0702-D15-M08-L23-Z02-H-LIGHT_x_t_objects-None',(#243),#528);
#31=COLOUR_RGB('silver gray',0.6,0.6,0.6);
#32=FACE_OUTER_BOUND('',#154,.T.);
#33=FACE_OUTER_BOUND('',#155,.T.);
#34=SURFACE_OF_REVOLUTION('',#36,#35);
#35=AXIS1_PLACEMENT('',#521,#334);
#36=B_SPLINE_CURVE_WITH_KNOTS('',3,(#465,#466,#467,#468,#469,#470,#471,
#472,#473,#474,#475,#476,#477,#478,#479,#480,#481,#482,#483,#484,#485,#486,
#487,#488,#489,#490,#491,#492,#493,#494,#495,#496,#497,#498,#499,#500,#501,
#502,#503,#504,#505,#506,#507,#508,#509,#510,#511,#512,#513,#514,#515,#516,
#517,#518,#519,#520),.UNSPECIFIED.,.T.,.F.,(2,2,2,2,2,2,2,2,2,2,2,2,2,2,
2,2,2,2,2,2,2,2,2,2,2,2,2,2,2,2),(-0.0625,0.,0.0625,0.09375,0.125,0.15625,
0.1875,0.25,0.28125,0.3125,0.34375,0.375,0.40625,0.4375,0.5,0.53125,0.5625,
0.59375,0.625,0.65625,0.6875,0.71875,0.75,0.8125,0.84375,0.875,0.90625,
0.9375,1.,1.0625),.UNSPECIFIED.);
#37=PLANE('',#262);
#38=PLANE('',#272);
#39=PLANE('',#274);
#40=TOROIDAL_SURFACE('',#258,4.45,0.4);
#41=CONICAL_SURFACE('',#250,3.875,30.0000000000005);
#42=CONICAL_SURFACE('',#254,4.25,15.);
#43=CONICAL_SURFACE('',#260,4.55352761804101,75.0000000000003);
#44=CONICAL_SURFACE('',#264,6.2,45.0000000000001);
#45=CONICAL_SURFACE('',#268,6.5,44.9999999999996);
#46=CONICAL_SURFACE('',#275,2.875,44.9999999999999);
#47=CYLINDRICAL_SURFACE('',#248,3.875);
#48=CYLINDRICAL_SURFACE('',#252,4.25);
#49=CYLINDRICAL_SURFACE('',#256,4.05);
#50=CYLINDRICAL_SURFACE('',#266,6.5);
#51=CYLINDRICAL_SURFACE('',#270,6.3);
#52=PRESENTATION_LAYER_ASSIGNMENT('1','Layer 1',(#68,#69));
#53=STYLED_ITEM('',(#55),#68);
#54=STYLED_ITEM('',(#56),#69);
#55=PRESENTATION_STYLE_ASSIGNMENT((#57));
#56=PRESENTATION_STYLE_ASSIGNMENT((#58));
#57=SURFACE_STYLE_USAGE(.BOTH.,#59);
#58=SURFACE_STYLE_USAGE(.BOTH.,#60);
#59=SURFACE_SIDE_STYLE('',(#61));
#60=SURFACE_SIDE_STYLE('',(#62));
#61=SURFACE_STYLE_FILL_AREA(#63);
#62=SURFACE_STYLE_FILL_AREA(#64);
#63=FILL_AREA_STYLE('',(#65));
#64=FILL_AREA_STYLE('',(#66));
#65=FILL_AREA_STYLE_COLOUR('',#67);
#66=FILL_AREA_STYLE_COLOUR('',#31);
#67=DRAUGHTING_PRE_DEFINED_COLOUR('yellow');
#68=MANIFOLD_SOLID_BREP('',#70);
#69=MANIFOLD_SOLID_BREP('',#71);
#70=CLOSED_SHELL('',(#72,#73));
#71=CLOSED_SHELL('',(#74,#75,#76,#77,#78,#79,#80,#81,#82,#83,#84,#85,#86,
#87,#88,#89));
#72=ADVANCED_FACE('',(#92,#93),#90,.F.);
#73=ADVANCED_FACE('',(#94,#95),#91,.F.);
#74=ADVANCED_FACE('',(#96,#97),#47,.T.);
#75=ADVANCED_FACE('',(#98,#99),#41,.T.);
#76=ADVANCED_FACE('',(#100,#101),#48,.T.);
#77=ADVANCED_FACE('',(#102,#103),#42,.T.);
#78=ADVANCED_FACE('',(#104,#105),#49,.T.);
#79=ADVANCED_FACE('',(#106,#107),#40,.F.);
#80=ADVANCED_FACE('',(#108,#109),#43,.F.);
#81=ADVANCED_FACE('',(#110,#111),#37,.F.);
#82=ADVANCED_FACE('',(#112,#113),#44,.T.);
#83=ADVANCED_FACE('',(#114,#115),#50,.T.);
#84=ADVANCED_FACE('',(#116,#117),#45,.T.);
#85=ADVANCED_FACE('',(#118,#119),#51,.T.);
#86=ADVANCED_FACE('',(#120,#121),#34,.T.);
#87=ADVANCED_FACE('',(#32),#38,.F.);
#88=ADVANCED_FACE('',(#33),#39,.F.);
#89=ADVANCED_FACE('',(#122,#123),#46,.T.);
#90=(
BOUNDED_SURFACE()
B_SPLINE_SURFACE(3,3,((#348,#349,#350,#351,#352,#353,#354),(#355,#356,#357,
#358,#359,#360,#361),(#362,#363,#364,#365,#366,#367,#368),(#369,#370,#371,
#372,#373,#374,#375),(#376,#377,#378,#379,#380,#381,#382),(#383,#384,#385,
#386,#387,#388,#389),(#390,#391,#392,#393,#394,#395,#396)),
 .UNSPECIFIED.,.T.,.F.,.F.)
B_SPLINE_SURFACE_WITH_KNOTS((1,3,3,3,1),(4,3,4),(-0.5,0.,0.5,1.,1.5),(0.,
0.5,1.),.UNSPECIFIED.)
GEOMETRIC_REPRESENTATION_ITEM()
RATIONAL_B_SPLINE_SURFACE(((1.,0.563714490632859,0.563714490632859,1.,0.563714490632859,
0.563714490632859,1.),(0.333333333333334,0.187904830210953,0.187904830210953,
0.333333333333334,0.187904830210953,0.187904830210953,0.333333333333334),
(0.333333333333334,0.187904830210953,0.187904830210953,0.333333333333334,
0.187904830210953,0.187904830210953,0.333333333333334),(1.,0.563714490632859,
0.563714490632859,1.,0.563714490632859,0.563714490632859,1.),(0.333333333333334,
0.187904830210953,0.187904830210953,0.333333333333334,0.187904830210953,
0.187904830210953,0.333333333333334),(0.333333333333334,0.187904830210953,
0.187904830210953,0.333333333333334,0.187904830210953,0.187904830210953,
0.333333333333334),(1.,0.563714490632859,0.563714490632859,1.,0.563714490632859,
0.563714490632859,1.)))
REPRESENTATION_ITEM('')
SURFACE()
);
#91=(
BOUNDED_SURFACE()
B_SPLINE_SURFACE(3,3,((#397,#398,#399,#400),(#401,#402,#403,#404),(#405,
#406,#407,#408),(#409,#410,#411,#412),(#413,#414,#415,#416),(#417,#418,
#419,#420),(#421,#422,#423,#424)),.UNSPECIFIED.,.T.,.F.,.F.)
B_SPLINE_SURFACE_WITH_KNOTS((1,3,3,3,1),(4,4),(-0.5,0.,0.5,1.,1.5),(0.,
1.),.UNSPECIFIED.)
GEOMETRIC_REPRESENTATION_ITEM()
RATIONAL_B_SPLINE_SURFACE(((1.,0.840773567083993,0.840773567083993,1.),
(0.333333333333334,0.280257855694664,0.280257855694664,0.333333333333334),
(0.333333333333334,0.280257855694664,0.280257855694664,0.333333333333334),
(1.,0.840773567083993,0.840773567083993,1.),(0.333333333333334,0.280257855694664,
0.280257855694664,0.333333333333334),(0.333333333333334,0.280257855694664,
0.280257855694664,0.333333333333334),(1.,0.840773567083993,0.840773567083993,
1.)))
REPRESENTATION_ITEM('')
SURFACE()
);
#92=FACE_BOUND('',#124,.T.);
#93=FACE_BOUND('',#125,.T.);
#94=FACE_BOUND('',#126,.T.);
#95=FACE_BOUND('',#127,.T.);
#96=FACE_BOUND('',#128,.T.);
#97=FACE_BOUND('',#129,.T.);
#98=FACE_BOUND('',#130,.T.);
#99=FACE_BOUND('',#131,.T.);
#100=FACE_BOUND('',#132,.T.);
#101=FACE_BOUND('',#133,.T.);
#102=FACE_BOUND('',#134,.T.);
#103=FACE_BOUND('',#135,.T.);
#104=FACE_BOUND('',#136,.T.);
#105=FACE_BOUND('',#137,.T.);
#106=FACE_BOUND('',#138,.T.);
#107=FACE_BOUND('',#139,.T.);
#108=FACE_BOUND('',#140,.T.);
#109=FACE_BOUND('',#141,.T.);
#110=FACE_BOUND('',#142,.T.);
#111=FACE_BOUND('',#143,.T.);
#112=FACE_BOUND('',#144,.T.);
#113=FACE_BOUND('',#145,.T.);
#114=FACE_BOUND('',#146,.T.);
#115=FACE_BOUND('',#147,.T.);
#116=FACE_BOUND('',#148,.T.);
#117=FACE_BOUND('',#149,.T.);
#118=FACE_BOUND('',#150,.T.);
#119=FACE_BOUND('',#151,.T.);
#120=FACE_BOUND('',#152,.T.);
#121=FACE_BOUND('',#153,.T.);
#122=FACE_BOUND('',#156,.T.);
#123=FACE_BOUND('',#157,.T.);
#124=EDGE_LOOP('',(#158));
#125=EDGE_LOOP('',(#159));
#126=EDGE_LOOP('',(#160));
#127=EDGE_LOOP('',(#161));
#128=EDGE_LOOP('',(#162));
#129=EDGE_LOOP('',(#163));
#130=EDGE_LOOP('',(#164));
#131=EDGE_LOOP('',(#165));
#132=EDGE_LOOP('',(#166));
#133=EDGE_LOOP('',(#167));
#134=EDGE_LOOP('',(#168));
#135=EDGE_LOOP('',(#169));
#136=EDGE_LOOP('',(#170));
#137=EDGE_LOOP('',(#171));
#138=EDGE_LOOP('',(#172));
#139=EDGE_LOOP('',(#173));
#140=EDGE_LOOP('',(#174));
#141=EDGE_LOOP('',(#175));
#142=EDGE_LOOP('',(#176));
#143=EDGE_LOOP('',(#177));
#144=EDGE_LOOP('',(#178));
#145=EDGE_LOOP('',(#179));
#146=EDGE_LOOP('',(#180));
#147=EDGE_LOOP('',(#181));
#148=EDGE_LOOP('',(#182));
#149=EDGE_LOOP('',(#183));
#150=EDGE_LOOP('',(#184));
#151=EDGE_LOOP('',(#185));
#152=EDGE_LOOP('',(#186));
#153=EDGE_LOOP('',(#187));
#154=EDGE_LOOP('',(#188));
#155=EDGE_LOOP('',(#189));
#156=EDGE_LOOP('',(#190));
#157=EDGE_LOOP('',(#191));
#158=ORIENTED_EDGE('',*,*,#209,.T.);
#159=ORIENTED_EDGE('',*,*,#210,.T.);
#160=ORIENTED_EDGE('',*,*,#210,.F.);
#161=ORIENTED_EDGE('',*,*,#209,.F.);
#162=ORIENTED_EDGE('',*,*,#211,.F.);
#163=ORIENTED_EDGE('',*,*,#212,.T.);
#164=ORIENTED_EDGE('',*,*,#213,.F.);
#165=ORIENTED_EDGE('',*,*,#211,.T.);
#166=ORIENTED_EDGE('',*,*,#214,.F.);
#167=ORIENTED_EDGE('',*,*,#213,.T.);
#168=ORIENTED_EDGE('',*,*,#215,.F.);
#169=ORIENTED_EDGE('',*,*,#214,.T.);
#170=ORIENTED_EDGE('',*,*,#216,.F.);
#171=ORIENTED_EDGE('',*,*,#215,.T.);
#172=ORIENTED_EDGE('',*,*,#217,.F.);
#173=ORIENTED_EDGE('',*,*,#216,.T.);
#174=ORIENTED_EDGE('',*,*,#218,.F.);
#175=ORIENTED_EDGE('',*,*,#217,.T.);
#176=ORIENTED_EDGE('',*,*,#219,.F.);
#177=ORIENTED_EDGE('',*,*,#218,.T.);
#178=ORIENTED_EDGE('',*,*,#220,.F.);
#179=ORIENTED_EDGE('',*,*,#219,.T.);
#180=ORIENTED_EDGE('',*,*,#221,.F.);
#181=ORIENTED_EDGE('',*,*,#220,.T.);
#182=ORIENTED_EDGE('',*,*,#222,.F.);
#183=ORIENTED_EDGE('',*,*,#221,.T.);
#184=ORIENTED_EDGE('',*,*,#223,.F.);
#185=ORIENTED_EDGE('',*,*,#222,.T.);
#186=ORIENTED_EDGE('',*,*,#224,.F.);
#187=ORIENTED_EDGE('',*,*,#223,.T.);
#188=ORIENTED_EDGE('',*,*,#224,.T.);
#189=ORIENTED_EDGE('',*,*,#225,.F.);
#190=ORIENTED_EDGE('',*,*,#212,.F.);
#191=ORIENTED_EDGE('',*,*,#225,.T.);
#192=VERTEX_POINT('',#345);
#193=VERTEX_POINT('',#347);
#194=VERTEX_POINT('',#426);
#195=VERTEX_POINT('',#428);
#196=VERTEX_POINT('',#431);
#197=VERTEX_POINT('',#434);
#198=VERTEX_POINT('',#437);
#199=VERTEX_POINT('',#440);
#200=VERTEX_POINT('',#443);
#201=VERTEX_POINT('',#446);
#202=VERTEX_POINT('',#449);
#203=VERTEX_POINT('',#452);
#204=VERTEX_POINT('',#455);
#205=VERTEX_POINT('',#458);
#206=VERTEX_POINT('',#461);
#207=VERTEX_POINT('',#464);
#208=VERTEX_POINT('',#524);
#209=EDGE_CURVE('',#192,#192,#226,.T.);
#210=EDGE_CURVE('',#193,#193,#227,.T.);
#211=EDGE_CURVE('',#194,#194,#228,.T.);
#212=EDGE_CURVE('',#195,#195,#229,.T.);
#213=EDGE_CURVE('',#196,#196,#230,.T.);
#214=EDGE_CURVE('',#197,#197,#231,.T.);
#215=EDGE_CURVE('',#198,#198,#232,.T.);
#216=EDGE_CURVE('',#199,#199,#233,.T.);
#217=EDGE_CURVE('',#200,#200,#234,.T.);
#218=EDGE_CURVE('',#201,#201,#235,.T.);
#219=EDGE_CURVE('',#202,#202,#236,.T.);
#220=EDGE_CURVE('',#203,#203,#237,.T.);
#221=EDGE_CURVE('',#204,#204,#238,.T.);
#222=EDGE_CURVE('',#205,#205,#239,.T.);
#223=EDGE_CURVE('',#206,#206,#240,.T.);
#224=EDGE_CURVE('',#207,#207,#241,.T.);
#225=EDGE_CURVE('',#208,#208,#242,.T.);
#226=CIRCLE('',#244,3.5);
#227=CIRCLE('',#245,3.5);
#228=CIRCLE('',#246,3.875);
#229=CIRCLE('',#247,3.875);
#230=CIRCLE('',#249,4.25);
#231=CIRCLE('',#251,4.25);
#232=CIRCLE('',#253,4.05);
#233=CIRCLE('',#255,4.05);
#234=CIRCLE('',#257,4.55352761804101);
#235=CIRCLE('',#259,5.);
#236=CIRCLE('',#261,6.2);
#237=CIRCLE('',#263,6.5);
#238=CIRCLE('',#265,6.5);
#239=CIRCLE('',#267,6.3);
#240=CIRCLE('',#269,6.3);
#241=CIRCLE('',#271,2.23303803655342);
#242=CIRCLE('',#273,2.875);
#243=AXIS2_PLACEMENT_3D('',#343,#276,#277);
#244=AXIS2_PLACEMENT_3D('',#344,#278,#279);
#245=AXIS2_PLACEMENT_3D('',#346,#280,#281);
#246=AXIS2_PLACEMENT_3D('',#425,#282,#283);
#247=AXIS2_PLACEMENT_3D('',#427,#284,#285);
#248=AXIS2_PLACEMENT_3D('',#429,#286,#287);
#249=AXIS2_PLACEMENT_3D('',#430,#288,#289);
#250=AXIS2_PLACEMENT_3D('',#432,#290,#291);
#251=AXIS2_PLACEMENT_3D('',#433,#292,#293);
#252=AXIS2_PLACEMENT_3D('',#435,#294,#295);
#253=AXIS2_PLACEMENT_3D('',#436,#296,#297);
#254=AXIS2_PLACEMENT_3D('',#438,#298,#299);
#255=AXIS2_PLACEMENT_3D('',#439,#300,#301);
#256=AXIS2_PLACEMENT_3D('',#441,#302,#303);
#257=AXIS2_PLACEMENT_3D('',#442,#304,#305);
#258=AXIS2_PLACEMENT_3D('',#444,#306,#307);
#259=AXIS2_PLACEMENT_3D('',#445,#308,#309);
#260=AXIS2_PLACEMENT_3D('',#447,#310,#311);
#261=AXIS2_PLACEMENT_3D('',#448,#312,#313);
#262=AXIS2_PLACEMENT_3D('',#450,#314,#315);
#263=AXIS2_PLACEMENT_3D('',#451,#316,#317);
#264=AXIS2_PLACEMENT_3D('',#453,#318,#319);
#265=AXIS2_PLACEMENT_3D('',#454,#320,#321);
#266=AXIS2_PLACEMENT_3D('',#456,#322,#323);
#267=AXIS2_PLACEMENT_3D('',#457,#324,#325);
#268=AXIS2_PLACEMENT_3D('',#459,#326,#327);
#269=AXIS2_PLACEMENT_3D('',#460,#328,#329);
#270=AXIS2_PLACEMENT_3D('',#462,#330,#331);
#271=AXIS2_PLACEMENT_3D('',#463,#332,#333);
#272=AXIS2_PLACEMENT_3D('',#522,#335,#336);
#273=AXIS2_PLACEMENT_3D('',#523,#337,#338);
#274=AXIS2_PLACEMENT_3D('',#525,#339,#340);
#275=AXIS2_PLACEMENT_3D('',#526,#341,#342);
#276=DIRECTION('',(0.,0.,1.));
#277=DIRECTION('',(1.,0.,0.));
#278=DIRECTION('',(0.,0.987322002545015,0.158730158730159));
#279=DIRECTION('',(1.,0.,0.));
#280=DIRECTION('',(0.,0.,-1.));
#281=DIRECTION('',(1.,0.,0.));
#282=DIRECTION('',(-1.,0.,0.));
#283=DIRECTION('',(0.,0.,1.));
#284=DIRECTION('',(-1.,0.,0.));
#285=DIRECTION('',(0.,0.,1.));
#286=DIRECTION('',(-1.,0.,0.));
#287=DIRECTION('',(0.,0.,1.));
#288=DIRECTION('',(-1.,0.,0.));
#289=DIRECTION('',(0.,0.,1.));
#290=DIRECTION('',(-1.,0.,0.));
#291=DIRECTION('',(5.96919496771163E-18,0.,1.));
#292=DIRECTION('',(-1.,0.,0.));
#293=DIRECTION('',(0.,0.,1.));
#294=DIRECTION('',(-1.,0.,0.));
#295=DIRECTION('',(0.,0.,1.));
#296=DIRECTION('',(-1.,0.,0.));
#297=DIRECTION('',(0.,0.,1.));
#298=DIRECTION('',(1.,0.,0.));
#299=DIRECTION('',(0.,0.,-1.));
#300=DIRECTION('',(-1.,0.,0.));
#301=DIRECTION('',(0.,0.,1.));
#302=DIRECTION('',(-1.,0.,0.));
#303=DIRECTION('',(0.,0.,1.));
#304=DIRECTION('',(-1.,0.,0.));
#305=DIRECTION('',(0.,0.,1.));
#306=DIRECTION('',(-1.,0.,0.));
#307=DIRECTION('',(0.,0.,1.));
#308=DIRECTION('',(-1.,0.,0.));
#309=DIRECTION('',(0.,0.,1.));
#310=DIRECTION('',(1.,0.,0.));
#311=DIRECTION('',(2.59980736359767E-17,0.,-1.));
#312=DIRECTION('',(-1.,0.,0.));
#313=DIRECTION('',(0.,0.,1.));
#314=DIRECTION('',(-1.,0.,0.));
#315=DIRECTION('',(0.,0.,1.));
#316=DIRECTION('',(-1.,0.,0.));
#317=DIRECTION('',(0.,0.,1.));
#318=DIRECTION('',(-1.,0.,0.));
#319=DIRECTION('',(2.06884135477257E-17,0.,1.));
#320=DIRECTION('',(-1.,0.,0.));
#321=DIRECTION('',(0.,0.,1.));
#322=DIRECTION('',(-1.,0.,0.));
#323=DIRECTION('',(0.,0.,1.));
#324=DIRECTION('',(-1.,0.,0.));
#325=DIRECTION('',(0.,0.,1.));
#326=DIRECTION('',(1.,0.,0.));
#327=DIRECTION('',(-3.44704118425599E-18,0.,-1.));
#328=DIRECTION('',(-1.,0.,0.));
#329=DIRECTION('',(0.,0.,1.));
#330=DIRECTION('',(-1.,0.,0.));
#331=DIRECTION('',(0.,0.,1.));
#332=DIRECTION('',(-1.,0.,0.));
#333=DIRECTION('',(0.,0.,1.));
#334=DIRECTION('',(-1.,0.,0.));
#335=DIRECTION('',(1.,0.,0.));
#336=DIRECTION('',(0.,0.,-1.));
#337=DIRECTION('',(-1.,0.,0.));
#338=DIRECTION('',(0.,0.,1.));
#339=DIRECTION('',(-1.,0.,0.));
#340=DIRECTION('',(0.,0.,1.));
#341=DIRECTION('',(-1.,0.,0.));
#342=DIRECTION('',(3.45950088690378E-17,0.,1.));
#343=CARTESIAN_POINT('',(0.,0.,0.));
#344=CARTESIAN_POINT('',(3.5,0.363066704132317,4.04167840409758));
#345=CARTESIAN_POINT('',(7.,0.363066704132317,4.04167840409758));
#346=CARTESIAN_POINT('',(3.5,-3.93280838,1.));
#347=CARTESIAN_POINT('',(7.,-3.93280838,1.));
#348=CARTESIAN_POINT('',(7.,-3.93280838,1.));
#349=CARTESIAN_POINT('',(7.00000000000001,-5.04258097006894,-3.3645229421174));
#350=CARTESIAN_POINT('',(7.00000000000001,-1.33045213355937,-5.9141808044769));
#351=CARTESIAN_POINT('',(7.,2.34493406870962,-3.31183724950415));
#352=CARTESIAN_POINT('',(7.00000000000001,6.02032027097861,-0.70949369453139));
#353=CARTESIAN_POINT('',(7.00000000000001,4.84841061487336,3.63875692748487));
#354=CARTESIAN_POINT('',(7.,0.363066704132317,4.04167840409758));
#355=CARTESIAN_POINT('',(7.,3.06719162,1.));
#356=CARTESIAN_POINT('',(7.00000000000001,1.95741902993107,4.40388518836513));
#357=CARTESIAN_POINT('',(7.00000000000001,-1.62026678218977,4.53876960921905));
#358=CARTESIAN_POINT('',(7.,-2.98318838567231,1.22810890778793));
#359=CARTESIAN_POINT('',(7.00000000000001,-4.34610998915486,-2.08255179364318));
#360=CARTESIAN_POINT('',(7.00000000000001,-1.71039854599052,-4.50557774596239));
#361=CARTESIAN_POINT('',(7.,1.47417781524343,-2.86957561371753));
#362=CARTESIAN_POINT('',(1.29093362839735E-15,3.06719162,1.));
#363=CARTESIAN_POINT('',(1.29093362839735E-15,1.95741902993107,4.40388518836513));
#364=CARTESIAN_POINT('',(1.29093362839735E-15,-1.62026678218977,4.53876960921905));
#365=CARTESIAN_POINT('',(1.29093362839735E-15,-2.98318838567231,1.22810890778793));
#366=CARTESIAN_POINT('',(1.29093362839735E-15,-4.34610998915486,-2.08255179364318));
#367=CARTESIAN_POINT('',(1.29093362839735E-15,-1.71039854599052,-4.50557774596239));
#368=CARTESIAN_POINT('',(1.29093362839735E-15,1.47417781524343,-2.86957561371753));
#369=CARTESIAN_POINT('',(4.33680868994202E-16,-3.93280838,1.));
#370=CARTESIAN_POINT('',(4.33680868994203E-16,-5.04258097006894,-3.3645229421174));
#371=CARTESIAN_POINT('',(4.33680868994203E-16,-1.33045213355937,-5.9141808044769));
#372=CARTESIAN_POINT('',(4.33680868994202E-16,2.34493406870962,-3.31183724950415));
#373=CARTESIAN_POINT('',(4.33680868994203E-16,6.02032027097861,-0.70949369453139));
#374=CARTESIAN_POINT('',(4.33680868994203E-16,4.84841061487336,3.63875692748487));
#375=CARTESIAN_POINT('',(4.33680868994202E-16,0.363066704132317,4.04167840409758));
#376=CARTESIAN_POINT('',(-4.23571890408945E-16,-10.93280838,1.));
#377=CARTESIAN_POINT('',(-4.23571890408946E-16,-12.0425809700689,-11.1329310725999));
#378=CARTESIAN_POINT('',(-4.23571890408946E-16,-1.04063748492897,-16.3671312181729));
#379=CARTESIAN_POINT('',(-4.23571890408945E-16,7.67305652309154,-7.85178340679621));
#380=CARTESIAN_POINT('',(-4.23571890408946E-16,16.3867505311121,0.663564404580402));
#381=CARTESIAN_POINT('',(-4.23571890408946E-16,11.4072197757372,11.7830916009321));
#382=CARTESIAN_POINT('',(-4.23571890408945E-16,-0.748044406978795,10.9529324219127));
#383=CARTESIAN_POINT('',(7.,-10.93280838,1.));
#384=CARTESIAN_POINT('',(7.00000000000001,-12.0425809700689,-11.1329310725999));
#385=CARTESIAN_POINT('',(7.00000000000001,-1.04063748492897,-16.3671312181729));
#386=CARTESIAN_POINT('',(7.,7.67305652309154,-7.85178340679621));
#387=CARTESIAN_POINT('',(7.00000000000001,16.3867505311121,0.663564404580402));
#388=CARTESIAN_POINT('',(7.00000000000001,11.4072197757372,11.7830916009321));
#389=CARTESIAN_POINT('',(7.,-0.748044406978795,10.9529324219127));
#390=CARTESIAN_POINT('',(7.,-3.93280838,1.));
#391=CARTESIAN_POINT('',(7.00000000000001,-5.04258097006894,-3.3645229421174));
#392=CARTESIAN_POINT('',(7.00000000000001,-1.33045213355937,-5.9141808044769));
#393=CARTESIAN_POINT('',(7.,2.34493406870962,-3.31183724950415));
#394=CARTESIAN_POINT('',(7.00000000000001,6.02032027097861,-0.70949369453139));
#395=CARTESIAN_POINT('',(7.00000000000001,4.84841061487336,3.63875692748487));
#396=CARTESIAN_POINT('',(7.,0.363066704132317,4.04167840409758));
#397=CARTESIAN_POINT('',(7.,0.363066704132317,4.04167840409758));
#398=CARTESIAN_POINT('',(7.,-1.715404956689,4.22838891890789));
#399=CARTESIAN_POINT('',(7.,-3.41854884398295,3.02248421274273));
#400=CARTESIAN_POINT('',(7.,-3.93280838,1.));
#401=CARTESIAN_POINT('',(7.,1.47417781524343,-2.86957561371753));
#402=CARTESIAN_POINT('',(6.99999999999999,2.94988443891962,-2.11146561444383));
#403=CARTESIAN_POINT('',(6.99999999999999,3.58145115601704,-0.577332539376558));
#404=CARTESIAN_POINT('',(7.,3.06719162,1.));
#405=CARTESIAN_POINT('',(1.29093362839735E-15,1.47417781524343,-2.86957561371753));
#406=CARTESIAN_POINT('',(1.29093362839735E-15,2.94988443891962,-2.11146561444383));
#407=CARTESIAN_POINT('',(1.29093362839735E-15,3.58145115601704,-0.577332539376558));
#408=CARTESIAN_POINT('',(1.29093362839735E-15,3.06719162,1.));
#409=CARTESIAN_POINT('',(4.33680868994202E-16,0.363066704132317,4.04167840409758));
#410=CARTESIAN_POINT('',(4.33680868994202E-16,-1.715404956689,4.22838891890789));
#411=CARTESIAN_POINT('',(4.33680868994202E-16,-3.41854884398295,3.02248421274273));
#412=CARTESIAN_POINT('',(4.33680868994202E-16,-3.93280838,1.));
#413=CARTESIAN_POINT('',(-4.23571890408945E-16,-0.748044406978795,10.9529324219127));
#414=CARTESIAN_POINT('',(-4.23571890408945E-16,-6.38069435229761,10.5682434522596));
#415=CARTESIAN_POINT('',(-4.23571890408945E-16,-10.418548843983,6.62230096486203));
#416=CARTESIAN_POINT('',(-4.23571890408945E-16,-10.93280838,0.999999999999999));
#417=CARTESIAN_POINT('',(7.,-0.748044406978795,10.9529324219127));
#418=CARTESIAN_POINT('',(6.99999999999999,-6.38069435229761,10.5682434522596));
#419=CARTESIAN_POINT('',(6.99999999999999,-10.418548843983,6.62230096486203));
#420=CARTESIAN_POINT('',(7.,-10.93280838,0.999999999999999));
#421=CARTESIAN_POINT('',(7.,0.363066704132317,4.04167840409758));
#422=CARTESIAN_POINT('',(7.,-1.715404956689,4.22838891890789));
#423=CARTESIAN_POINT('',(7.,-3.41854884398295,3.02248421274273));
#424=CARTESIAN_POINT('',(7.,-3.93280838,1.));
#425=CARTESIAN_POINT('',(29.6495190528383,0.,0.));
#426=CARTESIAN_POINT('',(29.6495190528383,0.,3.875));
#427=CARTESIAN_POINT('',(39.,0.,0.));
#428=CARTESIAN_POINT('',(39.,0.,3.875));
#429=CARTESIAN_POINT('',(0.,0.,0.));
#430=CARTESIAN_POINT('',(29.,0.,0.));
#431=CARTESIAN_POINT('',(29.,0.,4.25));
#432=CARTESIAN_POINT('',(29.6495190528383,0.,0.));
#433=CARTESIAN_POINT('',(24.2,0.,0.));
#434=CARTESIAN_POINT('',(24.2,0.,4.25));
#435=CARTESIAN_POINT('',(0.,0.,0.));
#436=CARTESIAN_POINT('',(23.4535898384862,0.,0.));
#437=CARTESIAN_POINT('',(23.4535898384862,0.,4.05));
#438=CARTESIAN_POINT('',(24.2,0.,0.));
#439=CARTESIAN_POINT('',(23.2667384163269,0.,0.));
#440=CARTESIAN_POINT('',(23.2667384163269,0.,4.05));
#441=CARTESIAN_POINT('',(0.,0.,0.));
#442=CARTESIAN_POINT('',(22.8803680858113,0.,0.));
#443=CARTESIAN_POINT('',(22.8803680858113,0.,4.55352761804101));
#444=CARTESIAN_POINT('',(23.2667384163269,0.,0.));
#445=CARTESIAN_POINT('',(23.,0.,0.));
#446=CARTESIAN_POINT('',(23.,0.,5.));
#447=CARTESIAN_POINT('',(22.8803680858113,0.,0.));
#448=CARTESIAN_POINT('',(23.,0.,0.));
#449=CARTESIAN_POINT('',(23.,0.,6.2));
#450=CARTESIAN_POINT('',(23.,6.2,0.));
#451=CARTESIAN_POINT('',(22.7,0.,0.));
#452=CARTESIAN_POINT('',(22.7,0.,6.5));
#453=CARTESIAN_POINT('',(23.,0.,0.));
#454=CARTESIAN_POINT('',(20.2,0.,0.));
#455=CARTESIAN_POINT('',(20.2,0.,6.5));
#456=CARTESIAN_POINT('',(0.,0.,0.));
#457=CARTESIAN_POINT('',(20.,0.,0.));
#458=CARTESIAN_POINT('',(20.,0.,6.3));
#459=CARTESIAN_POINT('',(20.2,0.,0.));
#460=CARTESIAN_POINT('',(5.15157405139976,0.,0.));
#461=CARTESIAN_POINT('',(5.15157405139976,0.,6.3));
#462=CARTESIAN_POINT('',(0.,0.,0.));
#463=CARTESIAN_POINT('',(1.8,0.,0.));
#464=CARTESIAN_POINT('',(1.8,0.,2.23303803655342));
#465=CARTESIAN_POINT('',(3.15114444570475,1.80956749802248,0.));
#466=CARTESIAN_POINT('',(3.84885555429525,1.80956749802248,0.));
#467=CARTESIAN_POINT('',(4.20069479395504,1.85064605314129,0.));
#468=CARTESIAN_POINT('',(4.70097057802567,1.99303526384965,0.));
#469=CARTESIAN_POINT('',(4.86294124295758,2.05410609246553,0.));
#470=CARTESIAN_POINT('',(5.17479157966267,2.21061151896316,0.));
#471=CARTESIAN_POINT('',(5.32296838697756,2.30579821480053,0.));
#472=CARTESIAN_POINT('',(5.59065653094944,2.52633271162514,0.));
#473=CARTESIAN_POINT('',(5.71325630824483,2.65456369767077,0.));
#474=CARTESIAN_POINT('',(5.92102583082356,2.93294569766217,0.));
#475=CARTESIAN_POINT('',(6.00717056001825,3.08293479064261,0.));
#476=CARTESIAN_POINT('',(6.21332830361231,3.56472196145916,0.));
#477=CARTESIAN_POINT('',(6.27380628932558,3.91349298718603,0.));
#478=CARTESIAN_POINT('',(6.25381131174797,4.4365959327355,0.));
#479=CARTESIAN_POINT('',(6.22905776815279,4.6076871080514,0.));
#480=CARTESIAN_POINT('',(6.14557402737516,4.94371509095646,0.));
#481=CARTESIAN_POINT('',(6.0858103427787,5.11024641275638,0.));
#482=CARTESIAN_POINT('',(5.93708594287574,5.42365571466037,0.));
#483=CARTESIAN_POINT('',(5.84815837472152,5.57181800565698,0.));
#484=CARTESIAN_POINT('',(5.6416356533536,5.85132949873812,0.));
#485=CARTESIAN_POINT('',(5.52354497278196,5.98250617039522,0.));
#486=CARTESIAN_POINT('',(5.26882762394501,6.21672716864379,0.));
#487=CARTESIAN_POINT('',(5.13111339665554,6.32143117262132,0.));
#488=CARTESIAN_POINT('',(4.83465672852407,6.50564627850405,0.));
#489=CARTESIAN_POINT('',(4.67776195170974,6.58367160676558,0.));
#490=CARTESIAN_POINT('',(4.19414881480673,6.77090922569261,0.));
#491=CARTESIAN_POINT('',(3.84414870562964,6.83603858967802,0.));
#492=CARTESIAN_POINT('',(3.32541166769512,6.83573033132298,0.));
#493=CARTESIAN_POINT('',(3.15074705811307,6.81955920924522,0.));
#494=CARTESIAN_POINT('',(2.80789962893363,6.75512901214242,0.));
#495=CARTESIAN_POINT('',(2.64151622247496,6.70752043053162,0.));
#496=CARTESIAN_POINT('',(2.31865709512285,6.58204444464659,0.));
#497=CARTESIAN_POINT('',(2.16073618724544,6.50310587744431,0.));
#498=CARTESIAN_POINT('',(1.86594055194378,6.31926977024877,0.));
#499=CARTESIAN_POINT('',(1.72828377809197,6.21445227154668,0.));
#500=CARTESIAN_POINT('',(1.47271264550097,5.97867364875426,0.));
#501=CARTESIAN_POINT('',(1.3549789130556,5.84725335888716,0.));
#502=CARTESIAN_POINT('',(1.14956036209079,5.56821060842799,0.));
#503=CARTESIAN_POINT('',(1.06042525947298,5.41943081130622,0.));
#504=CARTESIAN_POINT('',(0.910903998915339,5.10226266621853,0.));
#505=CARTESIAN_POINT('',(0.852716118816132,4.93843187959733,0.));
#506=CARTESIAN_POINT('',(0.769853412834217,4.60165078564695,0.));
#507=CARTESIAN_POINT('',(0.745164545863133,4.42658593626051,0.));
#508=CARTESIAN_POINT('',(0.72721893062267,3.90534993587957,0.));
#509=CARTESIAN_POINT('',(0.789862259674604,3.55360521429608,0.));
#510=CARTESIAN_POINT('',(0.996817172035006,3.07552118945234,0.));
#511=CARTESIAN_POINT('',(1.08591236385908,2.92206955356116,0.));
#512=CARTESIAN_POINT('',(1.29451771878095,2.64584347532813,0.));
#513=CARTESIAN_POINT('',(1.41492908725336,2.52073766802157,0.));
#514=CARTESIAN_POINT('',(1.68686855916344,2.29874550357041,0.));
#515=CARTESIAN_POINT('',(1.83331418806496,2.20590439232453,0.));
#516=CARTESIAN_POINT('',(2.14410431997696,2.05124134325097,0.));
#517=CARTESIAN_POINT('',(2.30969680470388,1.98939644560126,0.));
#518=CARTESIAN_POINT('',(2.80904236839766,1.84913808793089,0.));
#519=CARTESIAN_POINT('',(3.15114444570475,1.80956749802248,0.));
#520=CARTESIAN_POINT('',(3.84885555429525,1.80956749802248,0.));
#521=CARTESIAN_POINT('',(0.,0.,0.));
#522=CARTESIAN_POINT('',(1.8,2.23303803655342,0.));
#523=CARTESIAN_POINT('',(40.,0.,0.));
#524=CARTESIAN_POINT('',(40.,0.,2.875));
#525=CARTESIAN_POINT('',(40.,0.,0.));
#526=CARTESIAN_POINT('',(40.,0.,0.));
#527=MECHANICAL_DESIGN_GEOMETRIC_PRESENTATION_REPRESENTATION('',(#53,#54),
#528);
#528=(
GEOMETRIC_REPRESENTATION_CONTEXT(3)
GLOBAL_UNCERTAINTY_ASSIGNED_CONTEXT((#529))
GLOBAL_UNIT_ASSIGNED_CONTEXT((#535,#531,#530))
REPRESENTATION_CONTEXT('AEMR-RD0702-D15-M08-L23-Z02-H',
'TOP_LEVEL_ASSEMBLY_PART')
);
#529=UNCERTAINTY_MEASURE_WITH_UNIT(LENGTH_MEASURE(2.E-5),#535,
'DISTANCE_ACCURACY_VALUE','Maximum Tolerance applied to model');
#530=(
NAMED_UNIT(*)
SI_UNIT($,.STERADIAN.)
SOLID_ANGLE_UNIT()
);
#531=(
CONVERSION_BASED_UNIT('DEGREE',#533)
NAMED_UNIT(#532)
PLANE_ANGLE_UNIT()
);
#532=DIMENSIONAL_EXPONENTS(0.,0.,0.,0.,0.,0.,0.);
#533=PLANE_ANGLE_MEASURE_WITH_UNIT(PLANE_ANGLE_MEASURE(0.0174532925),#534);
#534=(
NAMED_UNIT(*)
PLANE_ANGLE_UNIT()
SI_UNIT($,.RADIAN.)
);
#535=(
LENGTH_UNIT()
NAMED_UNIT(*)
SI_UNIT(.MILLI.,.METRE.)
);
ENDSEC;
END-ISO-10303-21;
