ISO-10303-21;
HEADER;
/* Generated by software containing ST-Developer
 * from STEP Tools, Inc. (www.steptools.com) 
 */
/* OPTION: using custom schema-name function */

FILE_DESCRIPTION(
/* description */ (''),
/* implementation_level */ '2;1');

FILE_NAME(
/* name */ 'AEMR-RD0702-D20-M10-L30-Z04-H.stp',
/* time_stamp */ '2023-10-19T19:30:48+03:00',
/* author */ (''),
/* organization */ (''),
/* preprocessor_version */ 'ST-DEVELOPER v19.4',
/* originating_system */ 'SIEMENS PLM Software NX2306.5001',
/* authorisation */ '');

FILE_SCHEMA (('AUTOMOTIVE_DESIGN { 1 0 10303 214 3 1 1 1 }'));
ENDSEC;

DATA;
#10=PROPERTY_DEFINITION_REPRESENTATION(#14,#12);
#11=PROPERTY_DEFINITION_REPRESENTATION(#15,#13);
#12=REPRESENTATION('',(#16),#530);
#13=REPRESENTATION('',(#17),#530);
#14=PROPERTY_DEFINITION('pmi validation property','',#21);
#15=PROPERTY_DEFINITION('pmi validation property','',#21);
#16=VALUE_REPRESENTATION_ITEM('number of annotations',COUNT_MEASURE(0.));
#17=VALUE_REPRESENTATION_ITEM('number of views',COUNT_MEASURE(0.));
#18=SHAPE_REPRESENTATION_RELATIONSHIP('None',
'relationship between AEMR-RD0702-D20-M10-L30-Z04-H-LIGHT_x_t_objects-
None and AEMR-RD0702-D20-M10-L30-Z04-H-LIGHT_x_t_objects-None',#30,#19);
#19=ADVANCED_BREP_SHAPE_REPRESENTATION(
'AEMR-RD0702-D20-M10-L30-Z04-H-LIGHT_x_t_objects-None',(#68,#69),#530);
#20=SHAPE_DEFINITION_REPRESENTATION(#21,#30);
#21=PRODUCT_DEFINITION_SHAPE('','',#22);
#22=PRODUCT_DEFINITION(' ','',#24,#23);
#23=PRODUCT_DEFINITION_CONTEXT('part definition',#29,'design');
#24=PRODUCT_DEFINITION_FORMATION_WITH_SPECIFIED_SOURCE(' ',' ',#26,
 .NOT_KNOWN.);
#25=PRODUCT_RELATED_PRODUCT_CATEGORY('part','',(#26));
#26=PRODUCT('AEMR-RD0702-D20-M10-L30-Z04-H-LIGHT_x_t_objects',
'AEMR-RD0702-D20-M10-L30-Z04-H-LIGHT_x_t_objects',' ',(#27));
#27=PRODUCT_CONTEXT(' ',#29,'mechanical');
#28=APPLICATION_PROTOCOL_DEFINITION('international standard',
'automotive_design',2010,#29);
#29=APPLICATION_CONTEXT(
'core data for automotive mechanical design processes');
#30=SHAPE_REPRESENTATION(
'AEMR-RD0702-D20-M10-L30-Z04-H-LIGHT_x_t_objects-None',(#243),#530);
#31=COLOUR_RGB('silver gray',0.6,0.6,0.6);
#32=CYLINDRICAL_SURFACE('',#256,4.875);
#33=CYLINDRICAL_SURFACE('',#260,5.25);
#34=CYLINDRICAL_SURFACE('',#272,9.);
#35=CYLINDRICAL_SURFACE('',#275,8.8);
#36=CONICAL_SURFACE('',#254,3.625,45.0000000000008);
#37=CONICAL_SURFACE('',#258,4.875,30.);
#38=CONICAL_SURFACE('',#262,5.25,15.);
#39=CONICAL_SURFACE('',#266,5.78529142706151,75.0000000000002);
#40=CONICAL_SURFACE('',#270,8.5,44.9999999999998);
#41=CONICAL_SURFACE('',#274,9.,44.9999999999998);
#42=PLANE('',#250);
#43=PLANE('',#252);
#44=PLANE('',#268);
#45=FACE_OUTER_BOUND('',#132,.T.);
#46=FACE_OUTER_BOUND('',#133,.T.);
#47=TOROIDAL_SURFACE('',#249,3.29456917785933,1.00000000488465);
#48=TOROIDAL_SURFACE('',#264,5.63,0.6);
#49=SURFACE_OF_REVOLUTION('',#51,#50);
#50=AXIS1_PLACEMENT('',#487,#286);
#51=B_SPLINE_CURVE_WITH_KNOTS('',3,(#429,#430,#431,#432,#433,#434,#435,
#436,#437,#438,#439,#440,#441,#442,#443,#444,#445,#446,#447,#448,#449,#450,
#451,#452,#453,#454,#455,#456,#457,#458,#459,#460,#461,#462,#463,#464,#465,
#466,#467,#468,#469,#470,#471,#472,#473,#474,#475,#476,#477,#478,#479,#480,
#481,#482,#483,#484,#485,#486),.UNSPECIFIED.,.T.,.F.,(2,2,2,2,2,2,2,2,2,
2,2,2,2,2,2,2,2,2,2,2,2,2,2,2,2,2,2,2,2,2,2),(-0.03125,0.,0.0624999999999993,
0.09375,0.125,0.15625,0.1875,0.25,0.28125,0.3125,0.34375,0.375,0.4375,0.46875,
0.5,0.53125,0.5625,0.59375,0.625,0.65625,0.6875,0.71875,0.75,0.8125,0.84375,
0.875,0.90625,0.9375,0.96875,1.,1.0625),.UNSPECIFIED.);
#52=PRESENTATION_LAYER_ASSIGNMENT('1','Layer 1',(#68,#69));
#53=STYLED_ITEM('',(#55),#68);
#54=STYLED_ITEM('',(#56),#69);
#55=PRESENTATION_STYLE_ASSIGNMENT((#57));
#56=PRESENTATION_STYLE_ASSIGNMENT((#58));
#57=SURFACE_STYLE_USAGE(.BOTH.,#59);
#58=SURFACE_STYLE_USAGE(.BOTH.,#60);
#59=SURFACE_SIDE_STYLE('',(#61));
#60=SURFACE_SIDE_STYLE('',(#62));
#61=SURFACE_STYLE_FILL_AREA(#63);
#62=SURFACE_STYLE_FILL_AREA(#64);
#63=FILL_AREA_STYLE('',(#65));
#64=FILL_AREA_STYLE('',(#66));
#65=FILL_AREA_STYLE_COLOUR('',#67);
#66=FILL_AREA_STYLE_COLOUR('',#31);
#67=DRAUGHTING_PRE_DEFINED_COLOUR('yellow');
#68=MANIFOLD_SOLID_BREP('',#70);
#69=MANIFOLD_SOLID_BREP('',#71);
#70=CLOSED_SHELL('',(#72,#73));
#71=CLOSED_SHELL('',(#74,#75,#76,#77,#78,#79,#80,#81,#82,#83,#84,#85,#86,
#87,#88,#89));
#72=ADVANCED_FACE('',(#92,#93),#90,.F.);
#73=ADVANCED_FACE('',(#94,#95),#91,.F.);
#74=ADVANCED_FACE('',(#96,#97),#49,.T.);
#75=ADVANCED_FACE('',(#98,#99),#47,.F.);
#76=ADVANCED_FACE('',(#45),#42,.F.);
#77=ADVANCED_FACE('',(#46),#43,.F.);
#78=ADVANCED_FACE('',(#100,#101),#36,.T.);
#79=ADVANCED_FACE('',(#102,#103),#32,.T.);
#80=ADVANCED_FACE('',(#104,#105),#37,.T.);
#81=ADVANCED_FACE('',(#106,#107),#33,.T.);
#82=ADVANCED_FACE('',(#108,#109),#38,.T.);
#83=ADVANCED_FACE('',(#110,#111),#48,.F.);
#84=ADVANCED_FACE('',(#112,#113),#39,.F.);
#85=ADVANCED_FACE('',(#114,#115),#44,.F.);
#86=ADVANCED_FACE('',(#116,#117),#40,.T.);
#87=ADVANCED_FACE('',(#118,#119),#34,.T.);
#88=ADVANCED_FACE('',(#120,#121),#41,.T.);
#89=ADVANCED_FACE('',(#122,#123),#35,.T.);
#90=(
BOUNDED_SURFACE()
B_SPLINE_SURFACE(3,3,((#348,#349,#350,#351,#352,#353,#354),(#355,#356,#357,
#358,#359,#360,#361),(#362,#363,#364,#365,#366,#367,#368),(#369,#370,#371,
#372,#373,#374,#375),(#376,#377,#378,#379,#380,#381,#382),(#383,#384,#385,
#386,#387,#388,#389),(#390,#391,#392,#393,#394,#395,#396)),
 .UNSPECIFIED.,.T.,.F.,.F.)
B_SPLINE_SURFACE_WITH_KNOTS((1,3,3,3,1),(4,3,4),(-0.5,0.,0.5,1.,1.5),(0.,
0.5,1.),.UNSPECIFIED.)
GEOMETRIC_REPRESENTATION_ITEM()
RATIONAL_B_SPLINE_SURFACE(((1.,0.561854431099324,0.561854431099324,1.,0.561854431099324,
0.561854431099324,1.),(0.333333333333334,0.187284810366441,0.187284810366441,
0.333333333333334,0.187284810366441,0.187284810366441,0.333333333333334),
(0.333333333333334,0.187284810366441,0.187284810366441,0.333333333333334,
0.187284810366441,0.187284810366441,0.333333333333334),(1.,0.561854431099324,
0.561854431099324,1.,0.561854431099324,0.561854431099324,1.),(0.333333333333334,
0.187284810366441,0.187284810366441,0.333333333333334,0.187284810366441,
0.187284810366441,0.333333333333334),(0.333333333333334,0.187284810366441,
0.187284810366441,0.333333333333334,0.187284810366441,0.187284810366441,
0.333333333333334),(1.,0.561854431099324,0.561854431099324,1.,0.561854431099324,
0.561854431099324,1.)))
REPRESENTATION_ITEM('')
SURFACE()
);
#91=(
BOUNDED_SURFACE()
B_SPLINE_SURFACE(3,3,((#397,#398,#399,#400),(#401,#402,#403,#404),(#405,
#406,#407,#408),(#409,#410,#411,#412),(#413,#414,#415,#416),(#417,#418,
#419,#420),(#421,#422,#423,#424)),.UNSPECIFIED.,.T.,.F.,.F.)
B_SPLINE_SURFACE_WITH_KNOTS((1,3,3,3,1),(4,4),(-0.5,0.,0.5,1.,1.5),(0.,
1.),.UNSPECIFIED.)
GEOMETRIC_REPRESENTATION_ITEM()
RATIONAL_B_SPLINE_SURFACE(((1.,0.84333432362748,0.84333432362748,1.),(0.333333333333334,
0.28111144120916,0.28111144120916,0.333333333333334),(0.333333333333334,
0.28111144120916,0.28111144120916,0.333333333333334),(1.,0.84333432362748,
0.84333432362748,1.),(0.333333333333334,0.28111144120916,0.28111144120916,
0.333333333333334),(0.333333333333334,0.28111144120916,0.28111144120916,
0.333333333333334),(1.,0.84333432362748,0.84333432362748,1.)))
REPRESENTATION_ITEM('')
SURFACE()
);
#92=FACE_BOUND('',#124,.T.);
#93=FACE_BOUND('',#125,.T.);
#94=FACE_BOUND('',#126,.T.);
#95=FACE_BOUND('',#127,.T.);
#96=FACE_BOUND('',#128,.T.);
#97=FACE_BOUND('',#129,.T.);
#98=FACE_BOUND('',#130,.T.);
#99=FACE_BOUND('',#131,.T.);
#100=FACE_BOUND('',#134,.T.);
#101=FACE_BOUND('',#135,.T.);
#102=FACE_BOUND('',#136,.T.);
#103=FACE_BOUND('',#137,.T.);
#104=FACE_BOUND('',#138,.T.);
#105=FACE_BOUND('',#139,.T.);
#106=FACE_BOUND('',#140,.T.);
#107=FACE_BOUND('',#141,.T.);
#108=FACE_BOUND('',#142,.T.);
#109=FACE_BOUND('',#143,.T.);
#110=FACE_BOUND('',#144,.T.);
#111=FACE_BOUND('',#145,.T.);
#112=FACE_BOUND('',#146,.T.);
#113=FACE_BOUND('',#147,.T.);
#114=FACE_BOUND('',#148,.T.);
#115=FACE_BOUND('',#149,.T.);
#116=FACE_BOUND('',#150,.T.);
#117=FACE_BOUND('',#151,.T.);
#118=FACE_BOUND('',#152,.T.);
#119=FACE_BOUND('',#153,.T.);
#120=FACE_BOUND('',#154,.T.);
#121=FACE_BOUND('',#155,.T.);
#122=FACE_BOUND('',#156,.T.);
#123=FACE_BOUND('',#157,.T.);
#124=EDGE_LOOP('',(#158));
#125=EDGE_LOOP('',(#159));
#126=EDGE_LOOP('',(#160));
#127=EDGE_LOOP('',(#161));
#128=EDGE_LOOP('',(#162));
#129=EDGE_LOOP('',(#163));
#130=EDGE_LOOP('',(#164));
#131=EDGE_LOOP('',(#165));
#132=EDGE_LOOP('',(#166));
#133=EDGE_LOOP('',(#167));
#134=EDGE_LOOP('',(#168));
#135=EDGE_LOOP('',(#169));
#136=EDGE_LOOP('',(#170));
#137=EDGE_LOOP('',(#171));
#138=EDGE_LOOP('',(#172));
#139=EDGE_LOOP('',(#173));
#140=EDGE_LOOP('',(#174));
#141=EDGE_LOOP('',(#175));
#142=EDGE_LOOP('',(#176));
#143=EDGE_LOOP('',(#177));
#144=EDGE_LOOP('',(#178));
#145=EDGE_LOOP('',(#179));
#146=EDGE_LOOP('',(#180));
#147=EDGE_LOOP('',(#181));
#148=EDGE_LOOP('',(#182));
#149=EDGE_LOOP('',(#183));
#150=EDGE_LOOP('',(#184));
#151=EDGE_LOOP('',(#185));
#152=EDGE_LOOP('',(#186));
#153=EDGE_LOOP('',(#187));
#154=EDGE_LOOP('',(#188));
#155=EDGE_LOOP('',(#189));
#156=EDGE_LOOP('',(#190));
#157=EDGE_LOOP('',(#191));
#158=ORIENTED_EDGE('',*,*,#209,.F.);
#159=ORIENTED_EDGE('',*,*,#210,.F.);
#160=ORIENTED_EDGE('',*,*,#210,.T.);
#161=ORIENTED_EDGE('',*,*,#209,.T.);
#162=ORIENTED_EDGE('',*,*,#211,.F.);
#163=ORIENTED_EDGE('',*,*,#212,.T.);
#164=ORIENTED_EDGE('',*,*,#213,.F.);
#165=ORIENTED_EDGE('',*,*,#211,.T.);
#166=ORIENTED_EDGE('',*,*,#213,.T.);
#167=ORIENTED_EDGE('',*,*,#214,.F.);
#168=ORIENTED_EDGE('',*,*,#215,.F.);
#169=ORIENTED_EDGE('',*,*,#214,.T.);
#170=ORIENTED_EDGE('',*,*,#216,.F.);
#171=ORIENTED_EDGE('',*,*,#215,.T.);
#172=ORIENTED_EDGE('',*,*,#217,.F.);
#173=ORIENTED_EDGE('',*,*,#216,.T.);
#174=ORIENTED_EDGE('',*,*,#218,.F.);
#175=ORIENTED_EDGE('',*,*,#217,.T.);
#176=ORIENTED_EDGE('',*,*,#219,.F.);
#177=ORIENTED_EDGE('',*,*,#218,.T.);
#178=ORIENTED_EDGE('',*,*,#220,.F.);
#179=ORIENTED_EDGE('',*,*,#219,.T.);
#180=ORIENTED_EDGE('',*,*,#221,.F.);
#181=ORIENTED_EDGE('',*,*,#220,.T.);
#182=ORIENTED_EDGE('',*,*,#222,.F.);
#183=ORIENTED_EDGE('',*,*,#221,.T.);
#184=ORIENTED_EDGE('',*,*,#223,.F.);
#185=ORIENTED_EDGE('',*,*,#222,.T.);
#186=ORIENTED_EDGE('',*,*,#224,.F.);
#187=ORIENTED_EDGE('',*,*,#223,.T.);
#188=ORIENTED_EDGE('',*,*,#225,.F.);
#189=ORIENTED_EDGE('',*,*,#224,.T.);
#190=ORIENTED_EDGE('',*,*,#212,.F.);
#191=ORIENTED_EDGE('',*,*,#225,.T.);
#192=VERTEX_POINT('',#345);
#193=VERTEX_POINT('',#347);
#194=VERTEX_POINT('',#426);
#195=VERTEX_POINT('',#428);
#196=VERTEX_POINT('',#489);
#197=VERTEX_POINT('',#493);
#198=VERTEX_POINT('',#496);
#199=VERTEX_POINT('',#499);
#200=VERTEX_POINT('',#502);
#201=VERTEX_POINT('',#505);
#202=VERTEX_POINT('',#508);
#203=VERTEX_POINT('',#511);
#204=VERTEX_POINT('',#514);
#205=VERTEX_POINT('',#517);
#206=VERTEX_POINT('',#520);
#207=VERTEX_POINT('',#523);
#208=VERTEX_POINT('',#526);
#209=EDGE_CURVE('',#192,#192,#226,.T.);
#210=EDGE_CURVE('',#193,#193,#227,.T.);
#211=EDGE_CURVE('',#194,#194,#228,.T.);
#212=EDGE_CURVE('',#195,#195,#229,.T.);
#213=EDGE_CURVE('',#196,#196,#230,.T.);
#214=EDGE_CURVE('',#197,#197,#231,.T.);
#215=EDGE_CURVE('',#198,#198,#232,.T.);
#216=EDGE_CURVE('',#199,#199,#233,.T.);
#217=EDGE_CURVE('',#200,#200,#234,.T.);
#218=EDGE_CURVE('',#201,#201,#235,.T.);
#219=EDGE_CURVE('',#202,#202,#236,.T.);
#220=EDGE_CURVE('',#203,#203,#237,.T.);
#221=EDGE_CURVE('',#204,#204,#238,.T.);
#222=EDGE_CURVE('',#205,#205,#239,.T.);
#223=EDGE_CURVE('',#206,#206,#240,.T.);
#224=EDGE_CURVE('',#207,#207,#241,.T.);
#225=EDGE_CURVE('',#208,#208,#242,.T.);
#226=CIRCLE('',#244,3.5);
#227=CIRCLE('',#245,3.5);
#228=CIRCLE('',#246,4.13878314781812);
#229=CIRCLE('',#247,8.8);
#230=CIRCLE('',#248,3.29456917785933);
#231=CIRCLE('',#251,3.625);
#232=CIRCLE('',#253,4.875);
#233=CIRCLE('',#255,4.875);
#234=CIRCLE('',#257,5.25);
#235=CIRCLE('',#259,5.25);
#236=CIRCLE('',#261,5.05044450422656);
#237=CIRCLE('',#263,5.78529142706151);
#238=CIRCLE('',#265,6.5300426762176);
#239=CIRCLE('',#267,8.5);
#240=CIRCLE('',#269,9.);
#241=CIRCLE('',#271,9.);
#242=CIRCLE('',#273,8.8);
#243=AXIS2_PLACEMENT_3D('',#343,#276,#277);
#244=AXIS2_PLACEMENT_3D('',#344,#278,#279);
#245=AXIS2_PLACEMENT_3D('',#346,#280,#281);
#246=AXIS2_PLACEMENT_3D('',#425,#282,#283);
#247=AXIS2_PLACEMENT_3D('',#427,#284,#285);
#248=AXIS2_PLACEMENT_3D('',#488,#287,#288);
#249=AXIS2_PLACEMENT_3D('',#490,#289,#290);
#250=AXIS2_PLACEMENT_3D('',#491,#291,#292);
#251=AXIS2_PLACEMENT_3D('',#492,#293,#294);
#252=AXIS2_PLACEMENT_3D('',#494,#295,#296);
#253=AXIS2_PLACEMENT_3D('',#495,#297,#298);
#254=AXIS2_PLACEMENT_3D('',#497,#299,#300);
#255=AXIS2_PLACEMENT_3D('',#498,#301,#302);
#256=AXIS2_PLACEMENT_3D('',#500,#303,#304);
#257=AXIS2_PLACEMENT_3D('',#501,#305,#306);
#258=AXIS2_PLACEMENT_3D('',#503,#307,#308);
#259=AXIS2_PLACEMENT_3D('',#504,#309,#310);
#260=AXIS2_PLACEMENT_3D('',#506,#311,#312);
#261=AXIS2_PLACEMENT_3D('',#507,#313,#314);
#262=AXIS2_PLACEMENT_3D('',#509,#315,#316);
#263=AXIS2_PLACEMENT_3D('',#510,#317,#318);
#264=AXIS2_PLACEMENT_3D('',#512,#319,#320);
#265=AXIS2_PLACEMENT_3D('',#513,#321,#322);
#266=AXIS2_PLACEMENT_3D('',#515,#323,#324);
#267=AXIS2_PLACEMENT_3D('',#516,#325,#326);
#268=AXIS2_PLACEMENT_3D('',#518,#327,#328);
#269=AXIS2_PLACEMENT_3D('',#519,#329,#330);
#270=AXIS2_PLACEMENT_3D('',#521,#331,#332);
#271=AXIS2_PLACEMENT_3D('',#522,#333,#334);
#272=AXIS2_PLACEMENT_3D('',#524,#335,#336);
#273=AXIS2_PLACEMENT_3D('',#525,#337,#338);
#274=AXIS2_PLACEMENT_3D('',#527,#339,#340);
#275=AXIS2_PLACEMENT_3D('',#528,#341,#342);
#276=DIRECTION('',(0.,0.,1.));
#277=DIRECTION('',(1.,0.,0.));
#278=DIRECTION('',(0.,-0.985365540261016,-0.170454545454545));
#279=DIRECTION('',(1.,0.,0.));
#280=DIRECTION('',(0.,0.,1.));
#281=DIRECTION('',(1.,0.,0.));
#282=DIRECTION('',(-1.,0.,0.));
#283=DIRECTION('',(0.,0.,1.));
#284=DIRECTION('',(-1.,0.,0.));
#285=DIRECTION('',(0.,0.,1.));
#286=DIRECTION('',(-1.,0.,0.));
#287=DIRECTION('',(-1.,0.,0.));
#288=DIRECTION('',(0.,0.,1.));
#289=DIRECTION('',(-1.,0.,0.));
#290=DIRECTION('',(0.,0.,1.));
#291=DIRECTION('',(1.,0.,0.));
#292=DIRECTION('',(0.,0.,-1.));
#293=DIRECTION('',(-1.,0.,0.));
#294=DIRECTION('',(0.,0.,1.));
#295=DIRECTION('',(-1.,0.,0.));
#296=DIRECTION('',(0.,0.,1.));
#297=DIRECTION('',(-1.,0.,0.));
#298=DIRECTION('',(0.,0.,1.));
#299=DIRECTION('',(-1.,0.,0.));
#300=DIRECTION('',(4.14829875934161E-17,0.,1.));
#301=DIRECTION('',(-1.,0.,0.));
#302=DIRECTION('',(0.,0.,1.));
#303=DIRECTION('',(-1.,0.,0.));
#304=DIRECTION('',(0.,0.,1.));
#305=DIRECTION('',(-1.,0.,0.));
#306=DIRECTION('',(0.,0.,1.));
#307=DIRECTION('',(-1.,0.,0.));
#308=DIRECTION('',(1.19178851745222E-17,0.,1.));
#309=DIRECTION('',(-1.,0.,0.));
#310=DIRECTION('',(0.,0.,1.));
#311=DIRECTION('',(-1.,0.,0.));
#312=DIRECTION('',(0.,0.,1.));
#313=DIRECTION('',(-1.,0.,0.));
#314=DIRECTION('',(0.,0.,1.));
#315=DIRECTION('',(1.,0.,0.));
#316=DIRECTION('',(1.52391971048522E-16,0.,-1.));
#317=DIRECTION('',(-1.,0.,0.));
#318=DIRECTION('',(0.,0.,1.));
#319=DIRECTION('',(-1.,0.,0.));
#320=DIRECTION('',(0.,0.,1.));
#321=DIRECTION('',(-1.,0.,0.));
#322=DIRECTION('',(0.,0.,1.));
#323=DIRECTION('',(1.,0.,0.));
#324=DIRECTION('',(1.02101631694715E-17,0.,-1.));
#325=DIRECTION('',(-1.,0.,0.));
#326=DIRECTION('',(0.,0.,1.));
#327=DIRECTION('',(-1.,0.,0.));
#328=DIRECTION('',(0.,0.,1.));
#329=DIRECTION('',(-1.,0.,0.));
#330=DIRECTION('',(0.,0.,1.));
#331=DIRECTION('',(-1.,0.,0.));
#332=DIRECTION('',(2.75216416615063E-17,0.,1.));
#333=DIRECTION('',(-1.,0.,0.));
#334=DIRECTION('',(0.,0.,1.));
#335=DIRECTION('',(-1.,0.,0.));
#336=DIRECTION('',(0.,0.,1.));
#337=DIRECTION('',(-1.,0.,0.));
#338=DIRECTION('',(0.,0.,1.));
#339=DIRECTION('',(1.,0.,0.));
#340=DIRECTION('',(-1.10032014333515E-16,0.,-1.));
#341=DIRECTION('',(-1.,0.,0.));
#342=DIRECTION('',(0.,0.,1.));
#343=CARTESIAN_POINT('',(0.,0.,0.));
#344=CARTESIAN_POINT('',(3.5,0.389427871755161,6.54879100923097));
#345=CARTESIAN_POINT('',(7.,0.389427871755161,6.54879100923097));
#346=CARTESIAN_POINT('',(3.5,-6.38657324,1.5));
#347=CARTESIAN_POINT('',(7.,-6.38657324,1.5));
#348=CARTESIAN_POINT('',(7.,-6.38657324,1.5));
#349=CARTESIAN_POINT('',(7.,-8.05856344727655,-5.61885861022298));
#350=CARTESIAN_POINT('',(7.,-1.94412768271036,-9.62976554588833));
#351=CARTESIAN_POINT('',(7.,3.91969524398109,-5.26063750359176));
#352=CARTESIAN_POINT('',(7.,9.78351817067254,-0.891509461295185));
#353=CARTESIAN_POINT('',(7.,7.68910416304509,6.11471128388752));
#354=CARTESIAN_POINT('',(7.,0.38942787175516,6.54879100923097));
#355=CARTESIAN_POINT('',(7.,0.613426759999998,1.5));
#356=CARTESIAN_POINT('',(7.,-1.05856344727655,2.18376235706758));
#357=CARTESIAN_POINT('',(7.,-2.27402769133877,0.847450684747999));
#358=CARTESIAN_POINT('',(7.,-1.43531515410744,-0.752437903267518));
#359=CARTESIAN_POINT('',(7.,-0.596602616876115,-2.35232649128304));
#360=CARTESIAN_POINT('',(7.,1.19385215634071,-2.11283970827321));
#361=CARTESIAN_POINT('',(7.,1.58260968993698,-0.348767772596144));
#362=CARTESIAN_POINT('',(1.72461449739155E-15,0.613426759999998,1.5));
#363=CARTESIAN_POINT('',(1.72461449739155E-15,-1.05856344727655,2.18376235706758));
#364=CARTESIAN_POINT('',(1.72461449739155E-15,-2.27402769133877,0.847450684747999));
#365=CARTESIAN_POINT('',(1.72461449739155E-15,-1.43531515410744,-0.752437903267518));
#366=CARTESIAN_POINT('',(1.72461449739155E-15,-0.596602616876115,-2.35232649128304));
#367=CARTESIAN_POINT('',(1.72461449739155E-15,1.19385215634071,-2.11283970827321));
#368=CARTESIAN_POINT('',(1.72461449739155E-15,1.58260968993698,-0.348767772596144));
#369=CARTESIAN_POINT('',(8.67361737988404E-16,-6.38657324,1.5));
#370=CARTESIAN_POINT('',(8.67361737988403E-16,-8.05856344727655,-5.61885861022298));
#371=CARTESIAN_POINT('',(8.67361737988403E-16,-1.94412768271036,-9.62976554588833));
#372=CARTESIAN_POINT('',(8.67361737988404E-16,3.91969524398109,-5.26063750359176));
#373=CARTESIAN_POINT('',(8.67361737988403E-16,9.78351817067254,-0.891509461295185));
#374=CARTESIAN_POINT('',(8.67361737988403E-16,7.68910416304509,6.11471128388752));
#375=CARTESIAN_POINT('',(8.67361737988404E-16,0.38942787175516,6.54879100923097));
#376=CARTESIAN_POINT('',(1.01089785852566E-17,-13.38657324,1.5));
#377=CARTESIAN_POINT('',(1.01089785852565E-17,-15.0585634472765,-13.4214795775135));
#378=CARTESIAN_POINT('',(1.01089785852565E-17,-1.61422767408194,-20.1069817765246));
#379=CARTESIAN_POINT('',(1.01089785852566E-17,9.27470564206963,-9.76883710391599));
#380=CARTESIAN_POINT('',(1.01089785852565E-17,20.1636389582212,0.569307568692667));
#381=CARTESIAN_POINT('',(1.01089785852565E-17,14.1843561697494,14.3422622760482));
#382=CARTESIAN_POINT('',(1.01089785852566E-17,-0.80375394642666,13.4463497910581));
#383=CARTESIAN_POINT('',(7.,-13.38657324,1.5));
#384=CARTESIAN_POINT('',(7.,-15.0585634472765,-13.4214795775135));
#385=CARTESIAN_POINT('',(7.,-1.61422767408194,-20.1069817765246));
#386=CARTESIAN_POINT('',(7.,9.27470564206963,-9.76883710391599));
#387=CARTESIAN_POINT('',(7.,20.1636389582212,0.569307568692667));
#388=CARTESIAN_POINT('',(7.,14.1843561697494,14.3422622760482));
#389=CARTESIAN_POINT('',(7.,-0.80375394642666,13.4463497910581));
#390=CARTESIAN_POINT('',(7.,-6.38657324,1.5));
#391=CARTESIAN_POINT('',(7.,-8.05856344727655,-5.61885861022298));
#392=CARTESIAN_POINT('',(7.,-1.94412768271036,-9.62976554588833));
#393=CARTESIAN_POINT('',(7.,3.91969524398109,-5.26063750359176));
#394=CARTESIAN_POINT('',(7.,9.78351817067254,-0.891509461295185));
#395=CARTESIAN_POINT('',(7.,7.68910416304509,6.11471128388752));
#396=CARTESIAN_POINT('',(7.,0.38942787175516,6.54879100923097));
#397=CARTESIAN_POINT('',(7.,0.389427871755161,6.54879100923097));
#398=CARTESIAN_POINT('',(7.,-2.94464579763262,6.74705374375929));
#399=CARTESIAN_POINT('',(7.,-5.62290396165042,4.75148651821172));
#400=CARTESIAN_POINT('',(7.,-6.38657324,1.5));
#401=CARTESIAN_POINT('',(7.,1.58260968993698,-0.348767772596144));
#402=CARTESIAN_POINT('',(7.,1.76017184541037,0.456959160619346));
#403=CARTESIAN_POINT('',(7.,1.37709603834958,1.18769655258032));
#404=CARTESIAN_POINT('',(7.,0.613426759999998,1.5));
#405=CARTESIAN_POINT('',(1.72461449739155E-15,1.58260968993698,-0.348767772596144));
#406=CARTESIAN_POINT('',(1.72461449739155E-15,1.76017184541037,0.456959160619346));
#407=CARTESIAN_POINT('',(1.72461449739155E-15,1.37709603834958,1.18769655258032));
#408=CARTESIAN_POINT('',(1.72461449739155E-15,0.613426759999998,1.5));
#409=CARTESIAN_POINT('',(8.67361737988404E-16,0.389427871755161,6.54879100923097));
#410=CARTESIAN_POINT('',(8.67361737988404E-16,-2.94464579763262,6.74705374375929));
#411=CARTESIAN_POINT('',(8.67361737988404E-16,-5.62290396165042,4.75148651821172));
#412=CARTESIAN_POINT('',(8.67361737988404E-16,-6.38657324,1.5));
#413=CARTESIAN_POINT('',(1.01089785852566E-17,-0.803753946426655,13.4463497910581));
#414=CARTESIAN_POINT('',(1.01089785852566E-17,-7.64946344067561,13.0371483268992));
#415=CARTESIAN_POINT('',(1.01089785852566E-17,-12.6229039616504,8.31527648384313));
#416=CARTESIAN_POINT('',(1.01089785852566E-17,-13.38657324,1.5));
#417=CARTESIAN_POINT('',(7.,-0.803753946426655,13.4463497910581));
#418=CARTESIAN_POINT('',(7.,-7.64946344067561,13.0371483268992));
#419=CARTESIAN_POINT('',(7.,-12.6229039616504,8.31527648384313));
#420=CARTESIAN_POINT('',(7.,-13.38657324,1.5));
#421=CARTESIAN_POINT('',(7.,0.389427871755161,6.54879100923097));
#422=CARTESIAN_POINT('',(7.,-2.94464579763262,6.74705374375929));
#423=CARTESIAN_POINT('',(7.,-5.62290396165042,4.75148651821172));
#424=CARTESIAN_POINT('',(7.,-6.38657324,1.5));
#425=CARTESIAN_POINT('',(2.03600632221952,0.,0.));
#426=CARTESIAN_POINT('',(2.03600632221952,0.,4.13878314781812));
#427=CARTESIAN_POINT('',(4.9194202936152,0.,0.));
#428=CARTESIAN_POINT('',(4.9194202936152,0.,8.8));
#429=CARTESIAN_POINT('',(3.31856139893151,3.72959713725395,0.));
#430=CARTESIAN_POINT('',(3.86287720213697,3.72959713725395,0.));
#431=CARTESIAN_POINT('',(4.22376302101973,3.7998559592474,0.));
#432=CARTESIAN_POINT('',(4.72190481226859,4.00069160784835,0.));
#433=CARTESIAN_POINT('',(4.88313572808888,4.08449635242728,0.));
#434=CARTESIAN_POINT('',(5.18528564674962,4.28178857696139,0.));
#435=CARTESIAN_POINT('',(5.32486189570913,4.39396191932873,0.));
#436=CARTESIAN_POINT('',(5.58111437802704,4.6452484756095,0.));
#437=CARTESIAN_POINT('',(5.698373276408,4.78576873272503,0.));
#438=CARTESIAN_POINT('',(5.8994387314705,5.08276243106337,0.));
#439=CARTESIAN_POINT('',(5.98465260360842,5.24023668015764,0.));
#440=CARTESIAN_POINT('',(6.19330868650714,5.74019463906218,0.));
#441=CARTESIAN_POINT('',(6.26388939685731,6.09759899369703,0.));
#442=CARTESIAN_POINT('',(6.26143504972724,6.63997473892878,0.));
#443=CARTESIAN_POINT('',(6.24272324920309,6.81807333771158,0.));
#444=CARTESIAN_POINT('',(6.17064857787287,7.1690549358531,0.));
#445=CARTESIAN_POINT('',(6.11633386044054,7.34369263128813,0.));
#446=CARTESIAN_POINT('',(5.97627351177998,7.67446491107405,0.));
#447=CARTESIAN_POINT('',(5.89073089022345,7.83159230840854,0.));
#448=CARTESIAN_POINT('',(5.68858004800944,8.12930794702718,0.));
#449=CARTESIAN_POINT('',(5.57167390676991,8.2694337761888,0.));
#450=CARTESIAN_POINT('',(5.18913796562591,8.64635521500016,0.));
#451=CARTESIAN_POINT('',(4.88122178044942,8.84924055469369,0.));
#452=CARTESIAN_POINT('',(4.38439004625311,9.05244153935039,0.));
#453=CARTESIAN_POINT('',(4.21028165145358,9.10468785214172,0.));
#454=CARTESIAN_POINT('',(3.85629401871715,9.17401568387172,0.));
#455=CARTESIAN_POINT('',(3.67812793491415,9.19115559361664,0.));
#456=CARTESIAN_POINT('',(3.31949233392865,9.19100181933612,0.));
#457=CARTESIAN_POINT('',(3.13743080152627,9.17313690157797,0.));
#458=CARTESIAN_POINT('',(2.785407740118,9.10348273750326,0.));
#459=CARTESIAN_POINT('',(2.61400635454235,9.05199039876656,0.));
#460=CARTESIAN_POINT('',(2.28055576195376,8.91519844362558,0.));
#461=CARTESIAN_POINT('',(2.11970796794642,8.82992879477582,0.));
#462=CARTESIAN_POINT('',(1.82116546722911,8.63241259884249,0.));
#463=CARTESIAN_POINT('',(1.68144032160288,8.51925964248194,0.));
#464=CARTESIAN_POINT('',(1.42356898115257,8.26430871008286,0.));
#465=CARTESIAN_POINT('',(1.30912631959242,8.12626835693882,0.));
#466=CARTESIAN_POINT('',(1.10826026422507,7.82976260275906,0.));
#467=CARTESIAN_POINT('',(1.02114547014146,7.66936907962665,0.));
#468=CARTESIAN_POINT('',(0.881556385544847,7.33767646841976,0.));
#469=CARTESIAN_POINT('',(0.828660629129131,7.16669030406819,0.));
#470=CARTESIAN_POINT('',(0.756734777691833,6.81441754803321,0.));
#471=CARTESIAN_POINT('',(0.738160226346623,6.6326075640818,0.));
#472=CARTESIAN_POINT('',(0.736860563775695,6.09519888252463,0.));
#473=CARTESIAN_POINT('',(0.80897834879485,5.73335798567311,0.));
#474=CARTESIAN_POINT('',(1.01649183327589,5.23818417162869,0.));
#475=CARTESIAN_POINT('',(1.10326845181398,5.0780271560775,0.));
#476=CARTESIAN_POINT('',(1.30598262314604,4.78009729329066,0.));
#477=CARTESIAN_POINT('',(1.42089563288194,4.64300956167098,0.));
#478=CARTESIAN_POINT('',(1.67729628501248,4.392117809625,0.));
#479=CARTESIAN_POINT('',(1.8202024651621,4.27777471633702,0.));
#480=CARTESIAN_POINT('',(2.12077656688243,4.08238579256926,0.));
#481=CARTESIAN_POINT('',(2.27951949367599,3.99992507394111,0.));
#482=CARTESIAN_POINT('',(2.6139273376927,3.86548956855165,0.));
#483=CARTESIAN_POINT('',(2.78856680046934,3.81436580638493,0.));
#484=CARTESIAN_POINT('',(3.14002820541983,3.74679454042551,0.));
#485=CARTESIAN_POINT('',(3.31856139893151,3.72959713725395,0.));
#486=CARTESIAN_POINT('',(3.86287720213697,3.72959713725395,0.));
#487=CARTESIAN_POINT('',(0.,0.,0.));
#488=CARTESIAN_POINT('',(2.5,0.,0.));
#489=CARTESIAN_POINT('',(2.5,0.,3.29456917785933));
#490=CARTESIAN_POINT('',(1.49999999511535,0.,0.));
#491=CARTESIAN_POINT('',(2.5,3.29456917785933,0.));
#492=CARTESIAN_POINT('',(50.,0.,0.));
#493=CARTESIAN_POINT('',(50.,0.,3.625));
#494=CARTESIAN_POINT('',(50.,0.,0.));
#495=CARTESIAN_POINT('',(48.75,0.,0.));
#496=CARTESIAN_POINT('',(48.75,0.,4.875));
#497=CARTESIAN_POINT('',(50.,0.,0.));
#498=CARTESIAN_POINT('',(36.6495190528383,0.,0.));
#499=CARTESIAN_POINT('',(36.6495190528383,0.,4.875));
#500=CARTESIAN_POINT('',(0.,0.,0.));
#501=CARTESIAN_POINT('',(36.,0.,0.));
#502=CARTESIAN_POINT('',(36.,0.,5.25));
#503=CARTESIAN_POINT('',(36.6495190528383,0.,0.));
#504=CARTESIAN_POINT('',(31.2800426762176,0.,0.));
#505=CARTESIAN_POINT('',(31.2800426762176,0.,5.25));
#506=CARTESIAN_POINT('',(0.,0.,0.));
#507=CARTESIAN_POINT('',(30.5352914270615,0.,0.));
#508=CARTESIAN_POINT('',(30.5352914270615,0.,5.05044450422656));
#509=CARTESIAN_POINT('',(31.2800426762176,0.,0.));
#510=CARTESIAN_POINT('',(29.8004445042265,0.,0.));
#511=CARTESIAN_POINT('',(29.8004445042265,0.,5.78529142706151));
#512=CARTESIAN_POINT('',(30.38,0.,0.));
#513=CARTESIAN_POINT('',(30.,0.,0.));
#514=CARTESIAN_POINT('',(30.,0.,6.5300426762176));
#515=CARTESIAN_POINT('',(29.8004445042265,0.,0.));
#516=CARTESIAN_POINT('',(30.,0.,0.));
#517=CARTESIAN_POINT('',(30.,0.,8.5));
#518=CARTESIAN_POINT('',(30.,8.5,0.));
#519=CARTESIAN_POINT('',(29.5,0.,0.));
#520=CARTESIAN_POINT('',(29.5,0.,9.));
#521=CARTESIAN_POINT('',(30.,0.,0.));
#522=CARTESIAN_POINT('',(25.2,0.,0.));
#523=CARTESIAN_POINT('',(25.2,0.,9.));
#524=CARTESIAN_POINT('',(0.,0.,0.));
#525=CARTESIAN_POINT('',(25.,0.,0.));
#526=CARTESIAN_POINT('',(25.,0.,8.8));
#527=CARTESIAN_POINT('',(25.2,0.,0.));
#528=CARTESIAN_POINT('',(0.,0.,0.));
#529=MECHANICAL_DESIGN_GEOMETRIC_PRESENTATION_REPRESENTATION('',(#53,#54),
#530);
#530=(
GEOMETRIC_REPRESENTATION_CONTEXT(3)
GLOBAL_UNCERTAINTY_ASSIGNED_CONTEXT((#531))
GLOBAL_UNIT_ASSIGNED_CONTEXT((#537,#533,#532))
REPRESENTATION_CONTEXT('AEMR-RD0702-D20-M10-L30-Z04-H',
'TOP_LEVEL_ASSEMBLY_PART')
);
#531=UNCERTAINTY_MEASURE_WITH_UNIT(LENGTH_MEASURE(2.E-5),#537,
'DISTANCE_ACCURACY_VALUE','Maximum Tolerance applied to model');
#532=(
NAMED_UNIT(*)
SI_UNIT($,.STERADIAN.)
SOLID_ANGLE_UNIT()
);
#533=(
CONVERSION_BASED_UNIT('DEGREE',#535)
NAMED_UNIT(#534)
PLANE_ANGLE_UNIT()
);
#534=DIMENSIONAL_EXPONENTS(0.,0.,0.,0.,0.,0.,0.);
#535=PLANE_ANGLE_MEASURE_WITH_UNIT(PLANE_ANGLE_MEASURE(0.0174532925),#536);
#536=(
NAMED_UNIT(*)
PLANE_ANGLE_UNIT()
SI_UNIT($,.RADIAN.)
);
#537=(
LENGTH_UNIT()
NAMED_UNIT(*)
SI_UNIT(.MILLI.,.METRE.)
);
ENDSEC;
END-ISO-10303-21;
