ISO-10303-21;
HEADER;
/* Generated by software containing ST-Developer
 * from STEP Tools, Inc. (www.steptools.com) 
 */
/* OPTION: using custom schema-name function */

FILE_DESCRIPTION(
/* description */ (''),
/* implementation_level */ '2;1');

FILE_NAME(
/* name */ 'AEMR-RD0702-D32-M16-L43-Z05-H.stp',
/* time_stamp */ '2023-10-19T19:41:31+03:00',
/* author */ (''),
/* organization */ (''),
/* preprocessor_version */ 'ST-DEVELOPER v19.4',
/* originating_system */ 'SIEMENS PLM Software NX2306.5001',
/* authorisation */ '');

FILE_SCHEMA (('AUTOMOTIVE_DESIGN { 1 0 10303 214 3 1 1 1 }'));
ENDSEC;

DATA;
#10=PROPERTY_DEFINITION_REPRESENTATION(#14,#12);
#11=PROPERTY_DEFINITION_REPRESENTATION(#15,#13);
#12=REPRESENTATION('',(#16),#512);
#13=REPRESENTATION('',(#17),#512);
#14=PROPERTY_DEFINITION('pmi validation property','',#21);
#15=PROPERTY_DEFINITION('pmi validation property','',#21);
#16=VALUE_REPRESENTATION_ITEM('number of annotations',COUNT_MEASURE(0.));
#17=VALUE_REPRESENTATION_ITEM('number of views',COUNT_MEASURE(0.));
#18=SHAPE_REPRESENTATION_RELATIONSHIP('None',
'relationship between AEMR-RD0702-D32-M16-L43-Z05-H-LIGHT_x_t_objects-
None and AEMR-RD0702-D32-M16-L43-Z05-H-LIGHT_x_t_objects-None',#30,#19);
#19=ADVANCED_BREP_SHAPE_REPRESENTATION(
'AEMR-RD0702-D32-M16-L43-Z05-H-LIGHT_x_t_objects-None',(#68,#69),#512);
#20=SHAPE_DEFINITION_REPRESENTATION(#21,#30);
#21=PRODUCT_DEFINITION_SHAPE('','',#22);
#22=PRODUCT_DEFINITION(' ','',#24,#23);
#23=PRODUCT_DEFINITION_CONTEXT('part definition',#29,'design');
#24=PRODUCT_DEFINITION_FORMATION_WITH_SPECIFIED_SOURCE(' ',' ',#26,
 .NOT_KNOWN.);
#25=PRODUCT_RELATED_PRODUCT_CATEGORY('part','',(#26));
#26=PRODUCT('AEMR-RD0702-D32-M16-L43-Z05-H-LIGHT_x_t_objects',
'AEMR-RD0702-D32-M16-L43-Z05-H-LIGHT_x_t_objects',' ',(#27));
#27=PRODUCT_CONTEXT(' ',#29,'mechanical');
#28=APPLICATION_PROTOCOL_DEFINITION('international standard',
'automotive_design',2010,#29);
#29=APPLICATION_CONTEXT(
'core data for automotive mechanical design processes');
#30=SHAPE_REPRESENTATION(
'AEMR-RD0702-D32-M16-L43-Z05-H-LIGHT_x_t_objects-None',(#263),#512);
#31=COLOUR_RGB('silver gray',0.6,0.6,0.6);
#32=CYLINDRICAL_SURFACE('',#277,7.875);
#33=CYLINDRICAL_SURFACE('',#281,8.5);
#34=CYLINDRICAL_SURFACE('',#293,14.5);
#35=CYLINDRICAL_SURFACE('',#297,14.);
#36=CONICAL_SURFACE('',#275,5.875,45.0000000000002);
#37=CONICAL_SURFACE('',#279,7.875,30.);
#38=CONICAL_SURFACE('',#283,8.5,15.0000000000002);
#39=CONICAL_SURFACE('',#287,9.03529142706151,75.);
#40=CONICAL_SURFACE('',#291,14.,45.0000000000001);
#41=CONICAL_SURFACE('',#295,14.5,44.9999999999996);
#42=CONICAL_SURFACE('',#300,14.3618442752845,20.0000000000001);
#43=PLANE('',#271);
#44=PLANE('',#273);
#45=PLANE('',#289);
#46=FACE_OUTER_BOUND('',#138,.T.);
#47=FACE_OUTER_BOUND('',#139,.T.);
#48=TOROIDAL_SURFACE('',#268,12.5548486246798,2.74671295353789);
#49=TOROIDAL_SURFACE('',#270,9.37557712506122,1.00000000024739);
#50=TOROIDAL_SURFACE('',#285,8.88,0.6);
#51=TOROIDAL_SURFACE('',#299,20.,6.);
#52=PRESENTATION_LAYER_ASSIGNMENT('1','Layer 1',(#68,#69));
#53=STYLED_ITEM('',(#55),#68);
#54=STYLED_ITEM('',(#56),#69);
#55=PRESENTATION_STYLE_ASSIGNMENT((#57));
#56=PRESENTATION_STYLE_ASSIGNMENT((#58));
#57=SURFACE_STYLE_USAGE(.BOTH.,#59);
#58=SURFACE_STYLE_USAGE(.BOTH.,#60);
#59=SURFACE_SIDE_STYLE('',(#61));
#60=SURFACE_SIDE_STYLE('',(#62));
#61=SURFACE_STYLE_FILL_AREA(#63);
#62=SURFACE_STYLE_FILL_AREA(#64);
#63=FILL_AREA_STYLE('',(#65));
#64=FILL_AREA_STYLE('',(#66));
#65=FILL_AREA_STYLE_COLOUR('',#67);
#66=FILL_AREA_STYLE_COLOUR('',#31);
#67=DRAUGHTING_PRE_DEFINED_COLOUR('yellow');
#68=MANIFOLD_SOLID_BREP('',#70);
#69=MANIFOLD_SOLID_BREP('',#71);
#70=CLOSED_SHELL('',(#72,#73));
#71=CLOSED_SHELL('',(#74,#75,#76,#77,#78,#79,#80,#81,#82,#83,#84,#85,#86,
#87,#88,#89,#90,#91));
#72=ADVANCED_FACE('',(#94,#95),#92,.F.);
#73=ADVANCED_FACE('',(#96,#97),#93,.F.);
#74=ADVANCED_FACE('',(#98,#99),#48,.T.);
#75=ADVANCED_FACE('',(#100,#101),#49,.F.);
#76=ADVANCED_FACE('',(#46),#43,.F.);
#77=ADVANCED_FACE('',(#47),#44,.F.);
#78=ADVANCED_FACE('',(#102,#103),#36,.T.);
#79=ADVANCED_FACE('',(#104,#105),#32,.T.);
#80=ADVANCED_FACE('',(#106,#107),#37,.T.);
#81=ADVANCED_FACE('',(#108,#109),#33,.T.);
#82=ADVANCED_FACE('',(#110,#111),#38,.T.);
#83=ADVANCED_FACE('',(#112,#113),#50,.F.);
#84=ADVANCED_FACE('',(#114,#115),#39,.F.);
#85=ADVANCED_FACE('',(#116,#117),#45,.F.);
#86=ADVANCED_FACE('',(#118,#119),#40,.T.);
#87=ADVANCED_FACE('',(#120,#121),#34,.T.);
#88=ADVANCED_FACE('',(#122,#123),#41,.T.);
#89=ADVANCED_FACE('',(#124,#125),#35,.T.);
#90=ADVANCED_FACE('',(#126,#127),#51,.F.);
#91=ADVANCED_FACE('',(#128,#129),#42,.T.);
#92=(
BOUNDED_SURFACE()
B_SPLINE_SURFACE(3,3,((#382,#383,#384,#385,#386,#387,#388),(#389,#390,#391,
#392,#393,#394,#395),(#396,#397,#398,#399,#400,#401,#402),(#403,#404,#405,
#406,#407,#408,#409),(#410,#411,#412,#413,#414,#415,#416),(#417,#418,#419,
#420,#421,#422,#423),(#424,#425,#426,#427,#428,#429,#430)),
 .UNSPECIFIED.,.T.,.F.,.F.)
B_SPLINE_SURFACE_WITH_KNOTS((1,3,3,3,1),(4,3,4),(-0.5,0.,0.5,1.,1.5),(0.,
0.5,1.),.UNSPECIFIED.)
GEOMETRIC_REPRESENTATION_ITEM()
RATIONAL_B_SPLINE_SURFACE(((1.,0.571911724787223,0.571911724787223,1.,0.571911724787223,
0.571911724787223,1.),(0.333333333333334,0.190637241595741,0.190637241595741,
0.333333333333334,0.190637241595741,0.190637241595741,0.333333333333334),
(0.333333333333334,0.190637241595741,0.190637241595741,0.333333333333334,
0.190637241595741,0.190637241595741,0.333333333333334),(1.,0.571911724787223,
0.571911724787223,1.,0.571911724787223,0.571911724787223,1.),(0.333333333333334,
0.190637241595741,0.190637241595741,0.333333333333334,0.190637241595741,
0.190637241595741,0.333333333333334),(0.333333333333334,0.190637241595741,
0.190637241595741,0.333333333333334,0.190637241595741,0.190637241595741,
0.333333333333334),(1.,0.571911724787223,0.571911724787223,1.,0.571911724787223,
0.571911724787223,1.)))
REPRESENTATION_ITEM('')
SURFACE()
);
#93=(
BOUNDED_SURFACE()
B_SPLINE_SURFACE(3,3,((#431,#432,#433,#434),(#435,#436,#437,#438),(#439,
#440,#441,#442),(#443,#444,#445,#446),(#447,#448,#449,#450),(#451,#452,
#453,#454),(#455,#456,#457,#458)),.UNSPECIFIED.,.T.,.F.,.F.)
B_SPLINE_SURFACE_WITH_KNOTS((1,3,3,3,1),(4,4),(-0.5,0.,0.5,1.,1.5),(0.,
1.),.UNSPECIFIED.)
GEOMETRIC_REPRESENTATION_ITEM()
RATIONAL_B_SPLINE_SURFACE(((1.,0.829241053393824,0.829241053393824,1.),
(0.333333333333334,0.276413684464608,0.276413684464608,0.333333333333334),
(0.333333333333334,0.276413684464608,0.276413684464608,0.333333333333334),
(1.,0.829241053393824,0.829241053393824,1.),(0.333333333333334,0.276413684464608,
0.276413684464608,0.333333333333334),(0.333333333333334,0.276413684464608,
0.276413684464608,0.333333333333334),(1.,0.829241053393824,0.829241053393824,
1.)))
REPRESENTATION_ITEM('')
SURFACE()
);
#94=FACE_BOUND('',#130,.T.);
#95=FACE_BOUND('',#131,.T.);
#96=FACE_BOUND('',#132,.T.);
#97=FACE_BOUND('',#133,.T.);
#98=FACE_BOUND('',#134,.T.);
#99=FACE_BOUND('',#135,.T.);
#100=FACE_BOUND('',#136,.T.);
#101=FACE_BOUND('',#137,.T.);
#102=FACE_BOUND('',#140,.T.);
#103=FACE_BOUND('',#141,.T.);
#104=FACE_BOUND('',#142,.T.);
#105=FACE_BOUND('',#143,.T.);
#106=FACE_BOUND('',#144,.T.);
#107=FACE_BOUND('',#145,.T.);
#108=FACE_BOUND('',#146,.T.);
#109=FACE_BOUND('',#147,.T.);
#110=FACE_BOUND('',#148,.T.);
#111=FACE_BOUND('',#149,.T.);
#112=FACE_BOUND('',#150,.T.);
#113=FACE_BOUND('',#151,.T.);
#114=FACE_BOUND('',#152,.T.);
#115=FACE_BOUND('',#153,.T.);
#116=FACE_BOUND('',#154,.T.);
#117=FACE_BOUND('',#155,.T.);
#118=FACE_BOUND('',#156,.T.);
#119=FACE_BOUND('',#157,.T.);
#120=FACE_BOUND('',#158,.T.);
#121=FACE_BOUND('',#159,.T.);
#122=FACE_BOUND('',#160,.T.);
#123=FACE_BOUND('',#161,.T.);
#124=FACE_BOUND('',#162,.T.);
#125=FACE_BOUND('',#163,.T.);
#126=FACE_BOUND('',#164,.T.);
#127=FACE_BOUND('',#165,.T.);
#128=FACE_BOUND('',#166,.T.);
#129=FACE_BOUND('',#167,.T.);
#130=EDGE_LOOP('',(#168));
#131=EDGE_LOOP('',(#169));
#132=EDGE_LOOP('',(#170));
#133=EDGE_LOOP('',(#171));
#134=EDGE_LOOP('',(#172));
#135=EDGE_LOOP('',(#173));
#136=EDGE_LOOP('',(#174));
#137=EDGE_LOOP('',(#175));
#138=EDGE_LOOP('',(#176));
#139=EDGE_LOOP('',(#177));
#140=EDGE_LOOP('',(#178));
#141=EDGE_LOOP('',(#179));
#142=EDGE_LOOP('',(#180));
#143=EDGE_LOOP('',(#181));
#144=EDGE_LOOP('',(#182));
#145=EDGE_LOOP('',(#183));
#146=EDGE_LOOP('',(#184));
#147=EDGE_LOOP('',(#185));
#148=EDGE_LOOP('',(#186));
#149=EDGE_LOOP('',(#187));
#150=EDGE_LOOP('',(#188));
#151=EDGE_LOOP('',(#189));
#152=EDGE_LOOP('',(#190));
#153=EDGE_LOOP('',(#191));
#154=EDGE_LOOP('',(#192));
#155=EDGE_LOOP('',(#193));
#156=EDGE_LOOP('',(#194));
#157=EDGE_LOOP('',(#195));
#158=EDGE_LOOP('',(#196));
#159=EDGE_LOOP('',(#197));
#160=EDGE_LOOP('',(#198));
#161=EDGE_LOOP('',(#199));
#162=EDGE_LOOP('',(#200));
#163=EDGE_LOOP('',(#201));
#164=EDGE_LOOP('',(#202));
#165=EDGE_LOOP('',(#203));
#166=EDGE_LOOP('',(#204));
#167=EDGE_LOOP('',(#205));
#168=ORIENTED_EDGE('',*,*,#225,.T.);
#169=ORIENTED_EDGE('',*,*,#226,.T.);
#170=ORIENTED_EDGE('',*,*,#226,.F.);
#171=ORIENTED_EDGE('',*,*,#225,.F.);
#172=ORIENTED_EDGE('',*,*,#227,.F.);
#173=ORIENTED_EDGE('',*,*,#228,.T.);
#174=ORIENTED_EDGE('',*,*,#229,.F.);
#175=ORIENTED_EDGE('',*,*,#227,.T.);
#176=ORIENTED_EDGE('',*,*,#229,.T.);
#177=ORIENTED_EDGE('',*,*,#230,.F.);
#178=ORIENTED_EDGE('',*,*,#231,.F.);
#179=ORIENTED_EDGE('',*,*,#230,.T.);
#180=ORIENTED_EDGE('',*,*,#232,.F.);
#181=ORIENTED_EDGE('',*,*,#231,.T.);
#182=ORIENTED_EDGE('',*,*,#233,.F.);
#183=ORIENTED_EDGE('',*,*,#232,.T.);
#184=ORIENTED_EDGE('',*,*,#234,.F.);
#185=ORIENTED_EDGE('',*,*,#233,.T.);
#186=ORIENTED_EDGE('',*,*,#235,.F.);
#187=ORIENTED_EDGE('',*,*,#234,.T.);
#188=ORIENTED_EDGE('',*,*,#236,.F.);
#189=ORIENTED_EDGE('',*,*,#235,.T.);
#190=ORIENTED_EDGE('',*,*,#237,.F.);
#191=ORIENTED_EDGE('',*,*,#236,.T.);
#192=ORIENTED_EDGE('',*,*,#238,.F.);
#193=ORIENTED_EDGE('',*,*,#237,.T.);
#194=ORIENTED_EDGE('',*,*,#239,.F.);
#195=ORIENTED_EDGE('',*,*,#238,.T.);
#196=ORIENTED_EDGE('',*,*,#240,.F.);
#197=ORIENTED_EDGE('',*,*,#239,.T.);
#198=ORIENTED_EDGE('',*,*,#241,.F.);
#199=ORIENTED_EDGE('',*,*,#240,.T.);
#200=ORIENTED_EDGE('',*,*,#242,.F.);
#201=ORIENTED_EDGE('',*,*,#241,.T.);
#202=ORIENTED_EDGE('',*,*,#243,.F.);
#203=ORIENTED_EDGE('',*,*,#242,.T.);
#204=ORIENTED_EDGE('',*,*,#228,.F.);
#205=ORIENTED_EDGE('',*,*,#243,.T.);
#206=VERTEX_POINT('',#379);
#207=VERTEX_POINT('',#381);
#208=VERTEX_POINT('',#460);
#209=VERTEX_POINT('',#462);
#210=VERTEX_POINT('',#465);
#211=VERTEX_POINT('',#469);
#212=VERTEX_POINT('',#472);
#213=VERTEX_POINT('',#475);
#214=VERTEX_POINT('',#478);
#215=VERTEX_POINT('',#481);
#216=VERTEX_POINT('',#484);
#217=VERTEX_POINT('',#487);
#218=VERTEX_POINT('',#490);
#219=VERTEX_POINT('',#493);
#220=VERTEX_POINT('',#496);
#221=VERTEX_POINT('',#499);
#222=VERTEX_POINT('',#502);
#223=VERTEX_POINT('',#505);
#224=VERTEX_POINT('',#508);
#225=EDGE_CURVE('',#206,#206,#244,.T.);
#226=EDGE_CURVE('',#207,#207,#245,.T.);
#227=EDGE_CURVE('',#208,#208,#246,.T.);
#228=EDGE_CURVE('',#209,#209,#247,.T.);
#229=EDGE_CURVE('',#210,#210,#248,.T.);
#230=EDGE_CURVE('',#211,#211,#249,.T.);
#231=EDGE_CURVE('',#212,#212,#250,.T.);
#232=EDGE_CURVE('',#213,#213,#251,.T.);
#233=EDGE_CURVE('',#214,#214,#252,.T.);
#234=EDGE_CURVE('',#215,#215,#253,.T.);
#235=EDGE_CURVE('',#216,#216,#254,.T.);
#236=EDGE_CURVE('',#217,#217,#255,.T.);
#237=EDGE_CURVE('',#218,#218,#256,.T.);
#238=EDGE_CURVE('',#219,#219,#257,.T.);
#239=EDGE_CURVE('',#220,#220,#258,.T.);
#240=EDGE_CURVE('',#221,#221,#259,.T.);
#241=EDGE_CURVE('',#222,#222,#260,.T.);
#242=EDGE_CURVE('',#223,#223,#261,.T.);
#243=EDGE_CURVE('',#224,#224,#262,.T.);
#244=CIRCLE('',#264,3.5);
#245=CIRCLE('',#265,3.5);
#246=CIRCLE('',#266,10.2241266509044);
#247=CIRCLE('',#267,15.1259582023135);
#248=CIRCLE('',#269,9.37557712506122);
#249=CIRCLE('',#272,5.875);
#250=CIRCLE('',#274,7.875);
#251=CIRCLE('',#276,7.875);
#252=CIRCLE('',#278,8.5);
#253=CIRCLE('',#280,8.5);
#254=CIRCLE('',#282,8.30044450422656);
#255=CIRCLE('',#284,9.03529142706151);
#256=CIRCLE('',#286,9.78004267621761);
#257=CIRCLE('',#288,14.);
#258=CIRCLE('',#290,14.5);
#259=CIRCLE('',#292,14.5);
#260=CIRCLE('',#294,14.);
#261=CIRCLE('',#296,14.);
#262=CIRCLE('',#298,14.3618442752845);
#263=AXIS2_PLACEMENT_3D('',#377,#301,#302);
#264=AXIS2_PLACEMENT_3D('',#378,#303,#304);
#265=AXIS2_PLACEMENT_3D('',#380,#305,#306);
#266=AXIS2_PLACEMENT_3D('',#459,#307,#308);
#267=AXIS2_PLACEMENT_3D('',#461,#309,#310);
#268=AXIS2_PLACEMENT_3D('',#463,#311,#312);
#269=AXIS2_PLACEMENT_3D('',#464,#313,#314);
#270=AXIS2_PLACEMENT_3D('',#466,#315,#316);
#271=AXIS2_PLACEMENT_3D('',#467,#317,#318);
#272=AXIS2_PLACEMENT_3D('',#468,#319,#320);
#273=AXIS2_PLACEMENT_3D('',#470,#321,#322);
#274=AXIS2_PLACEMENT_3D('',#471,#323,#324);
#275=AXIS2_PLACEMENT_3D('',#473,#325,#326);
#276=AXIS2_PLACEMENT_3D('',#474,#327,#328);
#277=AXIS2_PLACEMENT_3D('',#476,#329,#330);
#278=AXIS2_PLACEMENT_3D('',#477,#331,#332);
#279=AXIS2_PLACEMENT_3D('',#479,#333,#334);
#280=AXIS2_PLACEMENT_3D('',#480,#335,#336);
#281=AXIS2_PLACEMENT_3D('',#482,#337,#338);
#282=AXIS2_PLACEMENT_3D('',#483,#339,#340);
#283=AXIS2_PLACEMENT_3D('',#485,#341,#342);
#284=AXIS2_PLACEMENT_3D('',#486,#343,#344);
#285=AXIS2_PLACEMENT_3D('',#488,#345,#346);
#286=AXIS2_PLACEMENT_3D('',#489,#347,#348);
#287=AXIS2_PLACEMENT_3D('',#491,#349,#350);
#288=AXIS2_PLACEMENT_3D('',#492,#351,#352);
#289=AXIS2_PLACEMENT_3D('',#494,#353,#354);
#290=AXIS2_PLACEMENT_3D('',#495,#355,#356);
#291=AXIS2_PLACEMENT_3D('',#497,#357,#358);
#292=AXIS2_PLACEMENT_3D('',#498,#359,#360);
#293=AXIS2_PLACEMENT_3D('',#500,#361,#362);
#294=AXIS2_PLACEMENT_3D('',#501,#363,#364);
#295=AXIS2_PLACEMENT_3D('',#503,#365,#366);
#296=AXIS2_PLACEMENT_3D('',#504,#367,#368);
#297=AXIS2_PLACEMENT_3D('',#506,#369,#370);
#298=AXIS2_PLACEMENT_3D('',#507,#371,#372);
#299=AXIS2_PLACEMENT_3D('',#509,#373,#374);
#300=AXIS2_PLACEMENT_3D('',#510,#375,#376);
#301=DIRECTION('',(0.,0.,1.));
#302=DIRECTION('',(1.,0.,0.));
#303=DIRECTION('',(0.,0.994295541036481,0.106660100670173));
#304=DIRECTION('',(1.,0.,0.));
#305=DIRECTION('',(0.,0.,-1.));
#306=DIRECTION('',(1.,0.,0.));
#307=DIRECTION('',(-1.,0.,0.));
#308=DIRECTION('',(0.,0.,1.));
#309=DIRECTION('',(-1.,0.,0.));
#310=DIRECTION('',(0.,0.,1.));
#311=DIRECTION('',(-1.,0.,0.));
#312=DIRECTION('',(0.,0.,1.));
#313=DIRECTION('',(-1.,0.,0.));
#314=DIRECTION('',(0.,0.,1.));
#315=DIRECTION('',(-1.,0.,0.));
#316=DIRECTION('',(0.,0.,1.));
#317=DIRECTION('',(1.,0.,0.));
#318=DIRECTION('',(0.,0.,-1.));
#319=DIRECTION('',(-1.,0.,0.));
#320=DIRECTION('',(0.,0.,1.));
#321=DIRECTION('',(-1.,0.,0.));
#322=DIRECTION('',(0.,0.,1.));
#323=DIRECTION('',(-1.,0.,0.));
#324=DIRECTION('',(0.,0.,1.));
#325=DIRECTION('',(-1.,0.,0.));
#326=DIRECTION('',(5.51869280290865E-17,0.,1.));
#327=DIRECTION('',(-1.,0.,0.));
#328=DIRECTION('',(0.,0.,1.));
#329=DIRECTION('',(-1.,0.,0.));
#330=DIRECTION('',(0.,0.,1.));
#331=DIRECTION('',(-1.,0.,0.));
#332=DIRECTION('',(0.,0.,1.));
#333=DIRECTION('',(-1.,0.,0.));
#334=DIRECTION('',(7.11407480423632E-17,0.,1.));
#335=DIRECTION('',(-1.,0.,0.));
#336=DIRECTION('',(0.,0.,1.));
#337=DIRECTION('',(-1.,0.,0.));
#338=DIRECTION('',(0.,0.,1.));
#339=DIRECTION('',(-1.,0.,0.));
#340=DIRECTION('',(0.,0.,1.));
#341=DIRECTION('',(1.,0.,0.));
#342=DIRECTION('',(-2.00800554861768E-16,0.,-1.));
#343=DIRECTION('',(-1.,0.,0.));
#344=DIRECTION('',(0.,0.,1.));
#345=DIRECTION('',(-1.,0.,0.));
#346=DIRECTION('',(0.,0.,1.));
#347=DIRECTION('',(-1.,0.,0.));
#348=DIRECTION('',(0.,0.,1.));
#349=DIRECTION('',(1.,0.,0.));
#350=DIRECTION('',(-1.66930253628555E-17,0.,-1.));
#351=DIRECTION('',(-1.,0.,0.));
#352=DIRECTION('',(0.,0.,1.));
#353=DIRECTION('',(-1.,0.,0.));
#354=DIRECTION('',(0.,0.,1.));
#355=DIRECTION('',(-1.,0.,0.));
#356=DIRECTION('',(0.,0.,1.));
#357=DIRECTION('',(-1.,0.,0.));
#358=DIRECTION('',(4.10585438101018E-17,0.,1.));
#359=DIRECTION('',(-1.,0.,0.));
#360=DIRECTION('',(0.,0.,1.));
#361=DIRECTION('',(-1.,0.,0.));
#362=DIRECTION('',(0.,0.,1.));
#363=DIRECTION('',(-1.,0.,0.));
#364=DIRECTION('',(0.,0.,1.));
#365=DIRECTION('',(1.,0.,0.));
#366=DIRECTION('',(-2.05191539790261E-17,0.,-1.));
#367=DIRECTION('',(-1.,0.,0.));
#368=DIRECTION('',(0.,0.,1.));
#369=DIRECTION('',(-1.,0.,0.));
#370=DIRECTION('',(0.,0.,1.));
#371=DIRECTION('',(-1.,0.,0.));
#372=DIRECTION('',(0.,0.,1.));
#373=DIRECTION('',(-1.,0.,0.));
#374=DIRECTION('',(0.,0.,1.));
#375=DIRECTION('',(-1.,0.,0.));
#376=DIRECTION('',(1.60481558669972E-17,0.,1.));
#377=CARTESIAN_POINT('',(0.,0.,0.));
#378=CARTESIAN_POINT('',(3.5,-0.335614096917522,12.5042034621578));
#379=CARTESIAN_POINT('',(7.,-0.335614096917522,12.5042034621578));
#380=CARTESIAN_POINT('',(3.5,-12.46867038,1.));
#381=CARTESIAN_POINT('',(7.,-12.46867038,1.));
#382=CARTESIAN_POINT('',(7.,-12.46867038,1.));
#383=CARTESIAN_POINT('',(7.,-13.5571511172993,-12.5719075283648));
#384=CARTESIAN_POINT('',(7.,-1.27361118985414,-18.4452465382311));
#385=CARTESIAN_POINT('',(7.,8.60663113919371,-9.07709433017806));
#386=CARTESIAN_POINT('',(7.,18.4868734682416,0.291057877874942));
#387=CARTESIAN_POINT('',(7.,13.2749705069129,12.8695129418186));
#388=CARTESIAN_POINT('',(7.,-0.335614096917522,12.5042034621578));
#389=CARTESIAN_POINT('',(7.,-5.46867038000001,1.));
#390=CARTESIAN_POINT('',(6.99999999999999,-6.55715111729933,-4.95254236726945));
#391=CARTESIAN_POINT('',(6.99999999999999,-1.38836365459668,-8.09915755108478));
#392=CARTESIAN_POINT('',(7.,3.39960007855856,-4.39875835105249));
#393=CARTESIAN_POINT('',(6.99999999999999,8.1875638117138,-0.698359151020193));
#394=CARTESIAN_POINT('',(6.99999999999999,6.44569040639834,5.09676189943805));
#395=CARTESIAN_POINT('',(7.,0.411006607773688,5.54413467490245));
#396=CARTESIAN_POINT('',(1.72461449739155E-15,-5.46867038000001,1.));
#397=CARTESIAN_POINT('',(1.72461449739155E-15,-6.55715111729933,-4.95254236726945));
#398=CARTESIAN_POINT('',(1.72461449739155E-15,-1.38836365459668,-8.09915755108478));
#399=CARTESIAN_POINT('',(1.72461449739155E-15,3.39960007855856,-4.39875835105249));
#400=CARTESIAN_POINT('',(1.72461449739155E-15,8.1875638117138,-0.698359151020193));
#401=CARTESIAN_POINT('',(1.72461449739155E-15,6.44569040639834,5.09676189943805));
#402=CARTESIAN_POINT('',(1.72461449739155E-15,0.411006607773688,5.54413467490245));
#403=CARTESIAN_POINT('',(8.67361737988404E-16,-12.46867038,1.));
#404=CARTESIAN_POINT('',(8.67361737988403E-16,-13.5571511172993,-12.5719075283648));
#405=CARTESIAN_POINT('',(8.67361737988403E-16,-1.27361118985414,-18.4452465382311));
#406=CARTESIAN_POINT('',(8.67361737988404E-16,8.60663113919371,-9.07709433017806));
#407=CARTESIAN_POINT('',(8.67361737988403E-16,18.4868734682416,0.291057877874942));
#408=CARTESIAN_POINT('',(8.67361737988403E-16,13.2749705069129,12.8695129418186));
#409=CARTESIAN_POINT('',(8.67361737988404E-16,-0.335614096917522,12.5042034621578));
#410=CARTESIAN_POINT('',(1.01089785852566E-17,-19.46867038,1.));
#411=CARTESIAN_POINT('',(1.01089785852566E-17,-20.5571511172993,-20.1912726894602));
#412=CARTESIAN_POINT('',(1.01089785852566E-17,-1.1588587251116,-28.7913355253773));
#413=CARTESIAN_POINT('',(1.01089785852566E-17,13.8136621998289,-13.7554303093036));
#414=CARTESIAN_POINT('',(1.01089785852566E-17,28.7861831247693,1.28047490677007));
#415=CARTESIAN_POINT('',(1.01089785852566E-17,20.1042506074276,20.6422639841992));
#416=CARTESIAN_POINT('',(1.01089785852566E-17,-1.08223480160873,19.4642722494132));
#417=CARTESIAN_POINT('',(7.,-19.46867038,1.));
#418=CARTESIAN_POINT('',(6.99999999999999,-20.5571511172993,-20.1912726894602));
#419=CARTESIAN_POINT('',(6.99999999999999,-1.1588587251116,-28.7913355253773));
#420=CARTESIAN_POINT('',(7.,13.8136621998289,-13.7554303093036));
#421=CARTESIAN_POINT('',(6.99999999999999,28.7861831247693,1.28047490677007));
#422=CARTESIAN_POINT('',(6.99999999999999,20.1042506074276,20.6422639841992));
#423=CARTESIAN_POINT('',(7.,-1.08223480160873,19.4642722494132));
#424=CARTESIAN_POINT('',(7.,-12.46867038,1.));
#425=CARTESIAN_POINT('',(7.,-13.5571511172993,-12.5719075283648));
#426=CARTESIAN_POINT('',(7.,-1.27361118985414,-18.4452465382311));
#427=CARTESIAN_POINT('',(7.,8.60663113919371,-9.07709433017806));
#428=CARTESIAN_POINT('',(7.,18.4868734682416,0.291057877874942));
#429=CARTESIAN_POINT('',(7.,13.2749705069129,12.8695129418186));
#430=CARTESIAN_POINT('',(7.,-0.335614096917522,12.5042034621578));
#431=CARTESIAN_POINT('',(7.,-0.335614096917522,12.5042034621578));
#432=CARTESIAN_POINT('',(7.,-7.05419182334774,12.3238761503822));
#433=CARTESIAN_POINT('',(7.,-11.9313648453642,7.69948560472415));
#434=CARTESIAN_POINT('',(7.,-12.46867038,1.));
#435=CARTESIAN_POINT('',(7.,0.411006607773687,5.54413467490245));
#436=CARTESIAN_POINT('',(7.,-2.56788763781796,5.76497080003117));
#437=CARTESIAN_POINT('',(7.,-4.93136484536415,3.93834686227317));
#438=CARTESIAN_POINT('',(7.,-5.46867038000001,0.999999999999999));
#439=CARTESIAN_POINT('',(1.72461449739155E-15,0.411006607773687,5.54413467490245));
#440=CARTESIAN_POINT('',(1.72461449739155E-15,-2.56788763781796,5.76497080003117));
#441=CARTESIAN_POINT('',(1.72461449739155E-15,-4.93136484536415,3.93834686227317));
#442=CARTESIAN_POINT('',(1.72461449739155E-15,-5.46867038000001,0.999999999999999));
#443=CARTESIAN_POINT('',(8.67361737988404E-16,-0.335614096917522,12.5042034621578));
#444=CARTESIAN_POINT('',(8.67361737988404E-16,-7.05419182334774,12.3238761503822));
#445=CARTESIAN_POINT('',(8.67361737988404E-16,-11.9313648453642,7.69948560472415));
#446=CARTESIAN_POINT('',(8.67361737988404E-16,-12.46867038,1.));
#447=CARTESIAN_POINT('',(1.01089785852566E-17,-1.08223480160873,19.4642722494132));
#448=CARTESIAN_POINT('',(1.01089785852566E-17,-11.5404960088775,18.8827815007333));
#449=CARTESIAN_POINT('',(1.01089785852566E-17,-18.9313648453642,11.4606243471751));
#450=CARTESIAN_POINT('',(1.01089785852566E-17,-19.46867038,0.999999999999999));
#451=CARTESIAN_POINT('',(7.,-1.08223480160873,19.4642722494132));
#452=CARTESIAN_POINT('',(7.,-11.5404960088775,18.8827815007333));
#453=CARTESIAN_POINT('',(7.,-18.9313648453642,11.4606243471751));
#454=CARTESIAN_POINT('',(7.,-19.46867038,0.999999999999999));
#455=CARTESIAN_POINT('',(7.,-0.335614096917522,12.5042034621578));
#456=CARTESIAN_POINT('',(7.,-7.05419182334774,12.3238761503822));
#457=CARTESIAN_POINT('',(7.,-11.9313648453642,7.69948560472415));
#458=CARTESIAN_POINT('',(7.,-12.46867038,1.));
#459=CARTESIAN_POINT('',(2.02911596311608,0.,0.));
#460=CARTESIAN_POINT('',(2.02911596311608,0.,10.2241266509044));
#461=CARTESIAN_POINT('',(4.44879318404859,0.,0.));
#462=CARTESIAN_POINT('',(4.44879318404859,0.,15.1259582023135));
#463=CARTESIAN_POINT('',(3.48244563325068,0.,0.));
#464=CARTESIAN_POINT('',(2.5,0.,0.));
#465=CARTESIAN_POINT('',(2.5,0.,9.37557712506122));
#466=CARTESIAN_POINT('',(1.49999999975261,0.,0.));
#467=CARTESIAN_POINT('',(2.5,9.37557712506122,0.));
#468=CARTESIAN_POINT('',(68.,0.,0.));
#469=CARTESIAN_POINT('',(68.,0.,5.875));
#470=CARTESIAN_POINT('',(68.,0.,0.));
#471=CARTESIAN_POINT('',(66.,0.,0.));
#472=CARTESIAN_POINT('',(66.,0.,7.875));
#473=CARTESIAN_POINT('',(68.,0.,0.));
#474=CARTESIAN_POINT('',(50.0825317547305,0.,0.));
#475=CARTESIAN_POINT('',(50.0825317547305,0.,7.875));
#476=CARTESIAN_POINT('',(0.,0.,0.));
#477=CARTESIAN_POINT('',(49.,0.,0.));
#478=CARTESIAN_POINT('',(49.,0.,8.5));
#479=CARTESIAN_POINT('',(50.0825317547305,0.,0.));
#480=CARTESIAN_POINT('',(44.2800426762176,0.,0.));
#481=CARTESIAN_POINT('',(44.2800426762176,0.,8.5));
#482=CARTESIAN_POINT('',(0.,0.,0.));
#483=CARTESIAN_POINT('',(43.5352914270615,0.,0.));
#484=CARTESIAN_POINT('',(43.5352914270615,0.,8.30044450422656));
#485=CARTESIAN_POINT('',(44.2800426762176,0.,0.));
#486=CARTESIAN_POINT('',(42.8004445042265,0.,0.));
#487=CARTESIAN_POINT('',(42.8004445042265,0.,9.03529142706151));
#488=CARTESIAN_POINT('',(43.38,0.,0.));
#489=CARTESIAN_POINT('',(43.,0.,0.));
#490=CARTESIAN_POINT('',(43.,0.,9.78004267621761));
#491=CARTESIAN_POINT('',(42.8004445042265,0.,0.));
#492=CARTESIAN_POINT('',(43.,0.,0.));
#493=CARTESIAN_POINT('',(43.,0.,14.));
#494=CARTESIAN_POINT('',(43.,14.,0.));
#495=CARTESIAN_POINT('',(42.5,0.,0.));
#496=CARTESIAN_POINT('',(42.5,0.,14.5));
#497=CARTESIAN_POINT('',(43.,0.,0.));
#498=CARTESIAN_POINT('',(38.5,0.,0.));
#499=CARTESIAN_POINT('',(38.5,0.,14.5));
#500=CARTESIAN_POINT('',(0.,0.,0.));
#501=CARTESIAN_POINT('',(38.,0.,0.));
#502=CARTESIAN_POINT('',(38.,0.,14.));
#503=CARTESIAN_POINT('',(38.5,0.,0.));
#504=CARTESIAN_POINT('',(8.60029980440538,0.,0.));
#505=CARTESIAN_POINT('',(8.60029980440538,0.,14.));
#506=CARTESIAN_POINT('',(0.,0.,0.));
#507=CARTESIAN_POINT('',(6.54817894445136,0.,0.));
#508=CARTESIAN_POINT('',(6.54817894445136,0.,14.3618442752845));
#509=CARTESIAN_POINT('',(8.60029980440538,0.,0.));
#510=CARTESIAN_POINT('',(6.54817894445136,0.,0.));
#511=MECHANICAL_DESIGN_GEOMETRIC_PRESENTATION_REPRESENTATION('',(#53,#54),
#512);
#512=(
GEOMETRIC_REPRESENTATION_CONTEXT(3)
GLOBAL_UNCERTAINTY_ASSIGNED_CONTEXT((#513))
GLOBAL_UNIT_ASSIGNED_CONTEXT((#519,#515,#514))
REPRESENTATION_CONTEXT('AEMR-RD0702-D32-M16-L43-Z05-H',
'TOP_LEVEL_ASSEMBLY_PART')
);
#513=UNCERTAINTY_MEASURE_WITH_UNIT(LENGTH_MEASURE(2.E-5),#519,
'DISTANCE_ACCURACY_VALUE','Maximum Tolerance applied to model');
#514=(
NAMED_UNIT(*)
SI_UNIT($,.STERADIAN.)
SOLID_ANGLE_UNIT()
);
#515=(
CONVERSION_BASED_UNIT('DEGREE',#517)
NAMED_UNIT(#516)
PLANE_ANGLE_UNIT()
);
#516=DIMENSIONAL_EXPONENTS(0.,0.,0.,0.,0.,0.,0.);
#517=PLANE_ANGLE_MEASURE_WITH_UNIT(PLANE_ANGLE_MEASURE(0.0174532925),#518);
#518=(
NAMED_UNIT(*)
PLANE_ANGLE_UNIT()
SI_UNIT($,.RADIAN.)
);
#519=(
LENGTH_UNIT()
NAMED_UNIT(*)
SI_UNIT(.MILLI.,.METRE.)
);
ENDSEC;
END-ISO-10303-21;
