ISO-10303-21;
HEADER;
/* Generated by software containing ST-Developer
 * from STEP Tools, Inc. (www.steptools.com) 
 */
/* OPTION: using custom schema-name function */

FILE_DESCRIPTION(
/* description */ (''),
/* implementation_level */ '2;1');

FILE_NAME(
/* name */ 'AEMR-RD0702-D42-M16-L43-Z05-H.stp',
/* time_stamp */ '2023-10-19T19:20:46+03:00',
/* author */ (''),
/* organization */ (''),
/* preprocessor_version */ 'ST-DEVELOPER v19.4',
/* originating_system */ 'SIEMENS PLM Software NX2306.5001',
/* authorisation */ '');

FILE_SCHEMA (('AUTOMOTIVE_DESIGN { 1 0 10303 214 3 1 1 1 }'));
ENDSEC;

DATA;
#10=PROPERTY_DEFINITION_REPRESENTATION(#14,#12);
#11=PROPERTY_DEFINITION_REPRESENTATION(#15,#13);
#12=REPRESENTATION('',(#16),#512);
#13=REPRESENTATION('',(#17),#512);
#14=PROPERTY_DEFINITION('pmi validation property','',#21);
#15=PROPERTY_DEFINITION('pmi validation property','',#21);
#16=VALUE_REPRESENTATION_ITEM('number of annotations',COUNT_MEASURE(0.));
#17=VALUE_REPRESENTATION_ITEM('number of views',COUNT_MEASURE(0.));
#18=SHAPE_REPRESENTATION_RELATIONSHIP('None',
'relationship between AEMR-RD0702-D42-M16-L43-Z05-H-LIGHT_x_t_objects-
None and AEMR-RD0702-D42-M16-L43-Z05-H-LIGHT_x_t_objects-None',#30,#19);
#19=ADVANCED_BREP_SHAPE_REPRESENTATION(
'AEMR-RD0702-D42-M16-L43-Z05-H-LIGHT_x_t_objects-None',(#68,#69),#512);
#20=SHAPE_DEFINITION_REPRESENTATION(#21,#30);
#21=PRODUCT_DEFINITION_SHAPE('','',#22);
#22=PRODUCT_DEFINITION(' ','',#24,#23);
#23=PRODUCT_DEFINITION_CONTEXT('part definition',#29,'design');
#24=PRODUCT_DEFINITION_FORMATION_WITH_SPECIFIED_SOURCE(' ',' ',#26,
 .NOT_KNOWN.);
#25=PRODUCT_RELATED_PRODUCT_CATEGORY('part','',(#26));
#26=PRODUCT('AEMR-RD0702-D42-M16-L43-Z05-H-LIGHT_x_t_objects',
'AEMR-RD0702-D42-M16-L43-Z05-H-LIGHT_x_t_objects',' ',(#27));
#27=PRODUCT_CONTEXT(' ',#29,'mechanical');
#28=APPLICATION_PROTOCOL_DEFINITION('international standard',
'automotive_design',2010,#29);
#29=APPLICATION_CONTEXT(
'core data for automotive mechanical design processes');
#30=SHAPE_REPRESENTATION(
'AEMR-RD0702-D42-M16-L43-Z05-H-LIGHT_x_t_objects-None',(#263),#512);
#31=COLOUR_RGB('silver gray',0.6,0.6,0.6);
#32=PLANE('',#279);
#33=PLANE('',#281);
#34=PLANE('',#299);
#35=FACE_OUTER_BOUND('',#146,.T.);
#36=FACE_OUTER_BOUND('',#147,.T.);
#37=CYLINDRICAL_SURFACE('',#272,8.5);
#38=CYLINDRICAL_SURFACE('',#276,7.875);
#39=CYLINDRICAL_SURFACE('',#291,14.25);
#40=CYLINDRICAL_SURFACE('',#295,14.5);
#41=CONICAL_SURFACE('',#270,8.5,14.9999999999999);
#42=CONICAL_SURFACE('',#274,7.875,30.0000000000004);
#43=CONICAL_SURFACE('',#278,5.875,45.0000000000002);
#44=CONICAL_SURFACE('',#287,15.1546106882114,20.);
#45=CONICAL_SURFACE('',#293,14.5,45.);
#46=CONICAL_SURFACE('',#297,14.,45.0000000000001);
#47=CONICAL_SURFACE('',#300,9.03529142706151,75.);
#48=TOROIDAL_SURFACE('',#268,8.88,0.6);
#49=TOROIDAL_SURFACE('',#283,14.3070271527674,1.00000000476986);
#50=TOROIDAL_SURFACE('',#285,17.5914520981209,2.84991040934743);
#51=TOROIDAL_SURFACE('',#289,29.25,15.);
#52=PRESENTATION_LAYER_ASSIGNMENT('1','Layer 1',(#68,#69));
#53=STYLED_ITEM('',(#55),#68);
#54=STYLED_ITEM('',(#56),#69);
#55=PRESENTATION_STYLE_ASSIGNMENT((#57));
#56=PRESENTATION_STYLE_ASSIGNMENT((#58));
#57=SURFACE_STYLE_USAGE(.BOTH.,#59);
#58=SURFACE_STYLE_USAGE(.BOTH.,#60);
#59=SURFACE_SIDE_STYLE('',(#61));
#60=SURFACE_SIDE_STYLE('',(#62));
#61=SURFACE_STYLE_FILL_AREA(#63);
#62=SURFACE_STYLE_FILL_AREA(#64);
#63=FILL_AREA_STYLE('',(#65));
#64=FILL_AREA_STYLE('',(#66));
#65=FILL_AREA_STYLE_COLOUR('',#67);
#66=FILL_AREA_STYLE_COLOUR('',#31);
#67=DRAUGHTING_PRE_DEFINED_COLOUR('yellow');
#68=MANIFOLD_SOLID_BREP('',#70);
#69=MANIFOLD_SOLID_BREP('',#71);
#70=CLOSED_SHELL('',(#72,#73));
#71=CLOSED_SHELL('',(#74,#75,#76,#77,#78,#79,#80,#81,#82,#83,#84,#85,#86,
#87,#88,#89,#90,#91));
#72=ADVANCED_FACE('',(#94,#95),#92,.F.);
#73=ADVANCED_FACE('',(#96,#97),#93,.F.);
#74=ADVANCED_FACE('',(#98,#99),#48,.F.);
#75=ADVANCED_FACE('',(#100,#101),#41,.T.);
#76=ADVANCED_FACE('',(#102,#103),#37,.T.);
#77=ADVANCED_FACE('',(#104,#105),#42,.T.);
#78=ADVANCED_FACE('',(#106,#107),#38,.T.);
#79=ADVANCED_FACE('',(#108,#109),#43,.T.);
#80=ADVANCED_FACE('',(#35),#32,.F.);
#81=ADVANCED_FACE('',(#36),#33,.F.);
#82=ADVANCED_FACE('',(#110,#111),#49,.F.);
#83=ADVANCED_FACE('',(#112,#113),#50,.T.);
#84=ADVANCED_FACE('',(#114,#115),#44,.T.);
#85=ADVANCED_FACE('',(#116,#117),#51,.F.);
#86=ADVANCED_FACE('',(#118,#119),#39,.T.);
#87=ADVANCED_FACE('',(#120,#121),#45,.T.);
#88=ADVANCED_FACE('',(#122,#123),#40,.T.);
#89=ADVANCED_FACE('',(#124,#125),#46,.T.);
#90=ADVANCED_FACE('',(#126,#127),#34,.F.);
#91=ADVANCED_FACE('',(#128,#129),#47,.F.);
#92=(
BOUNDED_SURFACE()
B_SPLINE_SURFACE(3,3,((#382,#383,#384,#385,#386,#387,#388),(#389,#390,#391,
#392,#393,#394,#395),(#396,#397,#398,#399,#400,#401,#402),(#403,#404,#405,
#406,#407,#408,#409),(#410,#411,#412,#413,#414,#415,#416),(#417,#418,#419,
#420,#421,#422,#423),(#424,#425,#426,#427,#428,#429,#430)),
 .UNSPECIFIED.,.T.,.F.,.F.)
B_SPLINE_SURFACE_WITH_KNOTS((1,3,3,3,1),(4,3,4),(-0.5,0.,0.5,1.,1.5),(0.,
0.5,1.),.UNSPECIFIED.)
GEOMETRIC_REPRESENTATION_ITEM()
RATIONAL_B_SPLINE_SURFACE(((1.,0.583365775882966,0.583365775882966,1.,0.583365775882966,
0.583365775882966,1.),(0.333333333333334,0.194455258627656,0.194455258627656,
0.333333333333334,0.194455258627656,0.194455258627656,0.333333333333334),
(0.333333333333334,0.194455258627656,0.194455258627656,0.333333333333334,
0.194455258627656,0.194455258627656,0.333333333333334),(1.,0.583365775882966,
0.583365775882966,1.,0.583365775882966,0.583365775882966,1.),(0.333333333333334,
0.194455258627656,0.194455258627656,0.333333333333334,0.194455258627656,
0.194455258627656,0.333333333333334),(0.333333333333334,0.194455258627656,
0.194455258627656,0.333333333333334,0.194455258627656,0.194455258627656,
0.333333333333334),(1.,0.583365775882966,0.583365775882966,1.,0.583365775882966,
0.583365775882966,1.)))
REPRESENTATION_ITEM('')
SURFACE()
);
#93=(
BOUNDED_SURFACE()
B_SPLINE_SURFACE(3,3,((#431,#432,#433,#434),(#435,#436,#437,#438),(#439,
#440,#441,#442),(#443,#444,#445,#446),(#447,#448,#449,#450),(#451,#452,
#453,#454),(#455,#456,#457,#458)),.UNSPECIFIED.,.T.,.F.,.F.)
B_SPLINE_SURFACE_WITH_KNOTS((1,3,3,3,1),(4,4),(-0.5,0.,0.5,1.,1.5),(0.,
1.),.UNSPECIFIED.)
GEOMETRIC_REPRESENTATION_ITEM()
RATIONAL_B_SPLINE_SURFACE(((1.,0.812451333017994,0.812451333017994,1.),
(0.333333333333334,0.270817111005998,0.270817111005998,0.333333333333334),
(0.333333333333334,0.270817111005998,0.270817111005998,0.333333333333334),
(1.,0.812451333017994,0.812451333017994,1.),(0.333333333333334,0.270817111005998,
0.270817111005998,0.333333333333334),(0.333333333333334,0.270817111005998,
0.270817111005998,0.333333333333334),(1.,0.812451333017994,0.812451333017994,
1.)))
REPRESENTATION_ITEM('')
SURFACE()
);
#94=FACE_BOUND('',#130,.T.);
#95=FACE_BOUND('',#131,.T.);
#96=FACE_BOUND('',#132,.T.);
#97=FACE_BOUND('',#133,.T.);
#98=FACE_BOUND('',#134,.T.);
#99=FACE_BOUND('',#135,.T.);
#100=FACE_BOUND('',#136,.T.);
#101=FACE_BOUND('',#137,.T.);
#102=FACE_BOUND('',#138,.T.);
#103=FACE_BOUND('',#139,.T.);
#104=FACE_BOUND('',#140,.T.);
#105=FACE_BOUND('',#141,.T.);
#106=FACE_BOUND('',#142,.T.);
#107=FACE_BOUND('',#143,.T.);
#108=FACE_BOUND('',#144,.T.);
#109=FACE_BOUND('',#145,.T.);
#110=FACE_BOUND('',#148,.T.);
#111=FACE_BOUND('',#149,.T.);
#112=FACE_BOUND('',#150,.T.);
#113=FACE_BOUND('',#151,.T.);
#114=FACE_BOUND('',#152,.T.);
#115=FACE_BOUND('',#153,.T.);
#116=FACE_BOUND('',#154,.T.);
#117=FACE_BOUND('',#155,.T.);
#118=FACE_BOUND('',#156,.T.);
#119=FACE_BOUND('',#157,.T.);
#120=FACE_BOUND('',#158,.T.);
#121=FACE_BOUND('',#159,.T.);
#122=FACE_BOUND('',#160,.T.);
#123=FACE_BOUND('',#161,.T.);
#124=FACE_BOUND('',#162,.T.);
#125=FACE_BOUND('',#163,.T.);
#126=FACE_BOUND('',#164,.T.);
#127=FACE_BOUND('',#165,.T.);
#128=FACE_BOUND('',#166,.T.);
#129=FACE_BOUND('',#167,.T.);
#130=EDGE_LOOP('',(#168));
#131=EDGE_LOOP('',(#169));
#132=EDGE_LOOP('',(#170));
#133=EDGE_LOOP('',(#171));
#134=EDGE_LOOP('',(#172));
#135=EDGE_LOOP('',(#173));
#136=EDGE_LOOP('',(#174));
#137=EDGE_LOOP('',(#175));
#138=EDGE_LOOP('',(#176));
#139=EDGE_LOOP('',(#177));
#140=EDGE_LOOP('',(#178));
#141=EDGE_LOOP('',(#179));
#142=EDGE_LOOP('',(#180));
#143=EDGE_LOOP('',(#181));
#144=EDGE_LOOP('',(#182));
#145=EDGE_LOOP('',(#183));
#146=EDGE_LOOP('',(#184));
#147=EDGE_LOOP('',(#185));
#148=EDGE_LOOP('',(#186));
#149=EDGE_LOOP('',(#187));
#150=EDGE_LOOP('',(#188));
#151=EDGE_LOOP('',(#189));
#152=EDGE_LOOP('',(#190));
#153=EDGE_LOOP('',(#191));
#154=EDGE_LOOP('',(#192));
#155=EDGE_LOOP('',(#193));
#156=EDGE_LOOP('',(#194));
#157=EDGE_LOOP('',(#195));
#158=EDGE_LOOP('',(#196));
#159=EDGE_LOOP('',(#197));
#160=EDGE_LOOP('',(#198));
#161=EDGE_LOOP('',(#199));
#162=EDGE_LOOP('',(#200));
#163=EDGE_LOOP('',(#201));
#164=EDGE_LOOP('',(#202));
#165=EDGE_LOOP('',(#203));
#166=EDGE_LOOP('',(#204));
#167=EDGE_LOOP('',(#205));
#168=ORIENTED_EDGE('',*,*,#225,.F.);
#169=ORIENTED_EDGE('',*,*,#226,.F.);
#170=ORIENTED_EDGE('',*,*,#226,.T.);
#171=ORIENTED_EDGE('',*,*,#225,.T.);
#172=ORIENTED_EDGE('',*,*,#227,.F.);
#173=ORIENTED_EDGE('',*,*,#228,.T.);
#174=ORIENTED_EDGE('',*,*,#228,.F.);
#175=ORIENTED_EDGE('',*,*,#229,.T.);
#176=ORIENTED_EDGE('',*,*,#229,.F.);
#177=ORIENTED_EDGE('',*,*,#230,.T.);
#178=ORIENTED_EDGE('',*,*,#230,.F.);
#179=ORIENTED_EDGE('',*,*,#231,.T.);
#180=ORIENTED_EDGE('',*,*,#231,.F.);
#181=ORIENTED_EDGE('',*,*,#232,.T.);
#182=ORIENTED_EDGE('',*,*,#232,.F.);
#183=ORIENTED_EDGE('',*,*,#233,.T.);
#184=ORIENTED_EDGE('',*,*,#233,.F.);
#185=ORIENTED_EDGE('',*,*,#234,.T.);
#186=ORIENTED_EDGE('',*,*,#234,.F.);
#187=ORIENTED_EDGE('',*,*,#235,.T.);
#188=ORIENTED_EDGE('',*,*,#235,.F.);
#189=ORIENTED_EDGE('',*,*,#236,.T.);
#190=ORIENTED_EDGE('',*,*,#236,.F.);
#191=ORIENTED_EDGE('',*,*,#237,.T.);
#192=ORIENTED_EDGE('',*,*,#237,.F.);
#193=ORIENTED_EDGE('',*,*,#238,.T.);
#194=ORIENTED_EDGE('',*,*,#238,.F.);
#195=ORIENTED_EDGE('',*,*,#239,.T.);
#196=ORIENTED_EDGE('',*,*,#239,.F.);
#197=ORIENTED_EDGE('',*,*,#240,.T.);
#198=ORIENTED_EDGE('',*,*,#240,.F.);
#199=ORIENTED_EDGE('',*,*,#241,.T.);
#200=ORIENTED_EDGE('',*,*,#241,.F.);
#201=ORIENTED_EDGE('',*,*,#242,.T.);
#202=ORIENTED_EDGE('',*,*,#242,.F.);
#203=ORIENTED_EDGE('',*,*,#243,.T.);
#204=ORIENTED_EDGE('',*,*,#243,.F.);
#205=ORIENTED_EDGE('',*,*,#227,.T.);
#206=VERTEX_POINT('',#379);
#207=VERTEX_POINT('',#381);
#208=VERTEX_POINT('',#460);
#209=VERTEX_POINT('',#462);
#210=VERTEX_POINT('',#465);
#211=VERTEX_POINT('',#468);
#212=VERTEX_POINT('',#471);
#213=VERTEX_POINT('',#474);
#214=VERTEX_POINT('',#477);
#215=VERTEX_POINT('',#481);
#216=VERTEX_POINT('',#484);
#217=VERTEX_POINT('',#487);
#218=VERTEX_POINT('',#490);
#219=VERTEX_POINT('',#493);
#220=VERTEX_POINT('',#496);
#221=VERTEX_POINT('',#499);
#222=VERTEX_POINT('',#502);
#223=VERTEX_POINT('',#505);
#224=VERTEX_POINT('',#508);
#225=EDGE_CURVE('',#206,#206,#244,.T.);
#226=EDGE_CURVE('',#207,#207,#245,.T.);
#227=EDGE_CURVE('',#208,#208,#246,.T.);
#228=EDGE_CURVE('',#209,#209,#247,.T.);
#229=EDGE_CURVE('',#210,#210,#248,.T.);
#230=EDGE_CURVE('',#211,#211,#249,.T.);
#231=EDGE_CURVE('',#212,#212,#250,.T.);
#232=EDGE_CURVE('',#213,#213,#251,.T.);
#233=EDGE_CURVE('',#214,#214,#252,.T.);
#234=EDGE_CURVE('',#215,#215,#253,.T.);
#235=EDGE_CURVE('',#216,#216,#254,.T.);
#236=EDGE_CURVE('',#217,#217,#255,.T.);
#237=EDGE_CURVE('',#218,#218,#256,.T.);
#238=EDGE_CURVE('',#219,#219,#257,.T.);
#239=EDGE_CURVE('',#220,#220,#258,.T.);
#240=EDGE_CURVE('',#221,#221,#259,.T.);
#241=EDGE_CURVE('',#222,#222,#260,.T.);
#242=EDGE_CURVE('',#223,#223,#261,.T.);
#243=EDGE_CURVE('',#224,#224,#262,.T.);
#244=CIRCLE('',#264,3.5);
#245=CIRCLE('',#265,3.5);
#246=CIRCLE('',#266,9.03529142706151);
#247=CIRCLE('',#267,8.30044450422656);
#248=CIRCLE('',#269,8.5);
#249=CIRCLE('',#271,8.5);
#250=CIRCLE('',#273,7.875);
#251=CIRCLE('',#275,7.875);
#252=CIRCLE('',#277,5.875);
#253=CIRCLE('',#280,14.3070271527674);
#254=CIRCLE('',#282,15.1571067733011);
#255=CIRCLE('',#284,20.2694918796857);
#256=CIRCLE('',#286,15.1546106882114);
#257=CIRCLE('',#288,14.25);
#258=CIRCLE('',#290,14.25);
#259=CIRCLE('',#292,14.5);
#260=CIRCLE('',#294,14.5);
#261=CIRCLE('',#296,14.);
#262=CIRCLE('',#298,9.78004267621758);
#263=AXIS2_PLACEMENT_3D('',#377,#301,#302);
#264=AXIS2_PLACEMENT_3D('',#378,#303,#304);
#265=AXIS2_PLACEMENT_3D('',#380,#305,#306);
#266=AXIS2_PLACEMENT_3D('',#459,#307,#308);
#267=AXIS2_PLACEMENT_3D('',#461,#309,#310);
#268=AXIS2_PLACEMENT_3D('',#463,#311,#312);
#269=AXIS2_PLACEMENT_3D('',#464,#313,#314);
#270=AXIS2_PLACEMENT_3D('',#466,#315,#316);
#271=AXIS2_PLACEMENT_3D('',#467,#317,#318);
#272=AXIS2_PLACEMENT_3D('',#469,#319,#320);
#273=AXIS2_PLACEMENT_3D('',#470,#321,#322);
#274=AXIS2_PLACEMENT_3D('',#472,#323,#324);
#275=AXIS2_PLACEMENT_3D('',#473,#325,#326);
#276=AXIS2_PLACEMENT_3D('',#475,#327,#328);
#277=AXIS2_PLACEMENT_3D('',#476,#329,#330);
#278=AXIS2_PLACEMENT_3D('',#478,#331,#332);
#279=AXIS2_PLACEMENT_3D('',#479,#333,#334);
#280=AXIS2_PLACEMENT_3D('',#480,#335,#336);
#281=AXIS2_PLACEMENT_3D('',#482,#337,#338);
#282=AXIS2_PLACEMENT_3D('',#483,#339,#340);
#283=AXIS2_PLACEMENT_3D('',#485,#341,#342);
#284=AXIS2_PLACEMENT_3D('',#486,#343,#344);
#285=AXIS2_PLACEMENT_3D('',#488,#345,#346);
#286=AXIS2_PLACEMENT_3D('',#489,#347,#348);
#287=AXIS2_PLACEMENT_3D('',#491,#349,#350);
#288=AXIS2_PLACEMENT_3D('',#492,#351,#352);
#289=AXIS2_PLACEMENT_3D('',#494,#353,#354);
#290=AXIS2_PLACEMENT_3D('',#495,#355,#356);
#291=AXIS2_PLACEMENT_3D('',#497,#357,#358);
#292=AXIS2_PLACEMENT_3D('',#498,#359,#360);
#293=AXIS2_PLACEMENT_3D('',#500,#361,#362);
#294=AXIS2_PLACEMENT_3D('',#501,#363,#364);
#295=AXIS2_PLACEMENT_3D('',#503,#365,#366);
#296=AXIS2_PLACEMENT_3D('',#504,#367,#368);
#297=AXIS2_PLACEMENT_3D('',#506,#369,#370);
#298=AXIS2_PLACEMENT_3D('',#507,#371,#372);
#299=AXIS2_PLACEMENT_3D('',#509,#373,#374);
#300=AXIS2_PLACEMENT_3D('',#510,#375,#376);
#301=DIRECTION('',(0.,0.,1.));
#302=DIRECTION('',(1.,0.,0.));
#303=DIRECTION('',(0.,-0.999455574220725,-0.0329932592982376));
#304=DIRECTION('',(1.,0.,0.));
#305=DIRECTION('',(0.,0.,1.));
#306=DIRECTION('',(1.,0.,0.));
#307=DIRECTION('',(-1.,0.,0.));
#308=DIRECTION('',(0.,0.,1.));
#309=DIRECTION('',(-1.,0.,0.));
#310=DIRECTION('',(0.,0.,1.));
#311=DIRECTION('',(-1.,0.,0.));
#312=DIRECTION('',(0.,0.,1.));
#313=DIRECTION('',(-1.,0.,0.));
#314=DIRECTION('',(0.,0.,1.));
#315=DIRECTION('',(1.,0.,0.));
#316=DIRECTION('',(-2.00800554861772E-16,0.,-1.));
#317=DIRECTION('',(-1.,0.,0.));
#318=DIRECTION('',(0.,0.,1.));
#319=DIRECTION('',(-1.,0.,0.));
#320=DIRECTION('',(0.,0.,1.));
#321=DIRECTION('',(-1.,0.,0.));
#322=DIRECTION('',(0.,0.,1.));
#323=DIRECTION('',(-1.,0.,0.));
#324=DIRECTION('',(7.11407480423621E-17,0.,1.));
#325=DIRECTION('',(-1.,0.,0.));
#326=DIRECTION('',(0.,0.,1.));
#327=DIRECTION('',(-1.,0.,0.));
#328=DIRECTION('',(0.,0.,1.));
#329=DIRECTION('',(-1.,0.,0.));
#330=DIRECTION('',(0.,0.,1.));
#331=DIRECTION('',(-1.,0.,0.));
#332=DIRECTION('',(5.51869280290865E-17,0.,1.));
#333=DIRECTION('',(-1.,0.,0.));
#334=DIRECTION('',(0.,0.,1.));
#335=DIRECTION('',(-1.,0.,0.));
#336=DIRECTION('',(0.,0.,1.));
#337=DIRECTION('',(1.,0.,0.));
#338=DIRECTION('',(0.,0.,-1.));
#339=DIRECTION('',(-1.,0.,0.));
#340=DIRECTION('',(0.,0.,1.));
#341=DIRECTION('',(-1.,0.,0.));
#342=DIRECTION('',(0.,0.,1.));
#343=DIRECTION('',(-1.,0.,0.));
#344=DIRECTION('',(0.,0.,1.));
#345=DIRECTION('',(-1.,0.,0.));
#346=DIRECTION('',(0.,0.,1.));
#347=DIRECTION('',(-1.,0.,0.));
#348=DIRECTION('',(0.,0.,1.));
#349=DIRECTION('',(-1.,0.,0.));
#350=DIRECTION('',(1.09814389580428E-16,0.,1.));
#351=DIRECTION('',(-1.,0.,0.));
#352=DIRECTION('',(0.,0.,1.));
#353=DIRECTION('',(-1.,0.,0.));
#354=DIRECTION('',(0.,0.,1.));
#355=DIRECTION('',(-1.,0.,0.));
#356=DIRECTION('',(0.,0.,1.));
#357=DIRECTION('',(-1.,0.,0.));
#358=DIRECTION('',(0.,0.,1.));
#359=DIRECTION('',(-1.,0.,0.));
#360=DIRECTION('',(0.,0.,1.));
#361=DIRECTION('',(1.,0.,0.));
#362=DIRECTION('',(-1.02595769895129E-16,0.,-1.));
#363=DIRECTION('',(-1.,0.,0.));
#364=DIRECTION('',(0.,0.,1.));
#365=DIRECTION('',(-1.,0.,0.));
#366=DIRECTION('',(0.,0.,1.));
#367=DIRECTION('',(-1.,0.,0.));
#368=DIRECTION('',(0.,0.,1.));
#369=DIRECTION('',(-1.,0.,0.));
#370=DIRECTION('',(4.10585438101018E-17,0.,1.));
#371=DIRECTION('',(-1.,0.,0.));
#372=DIRECTION('',(0.,0.,1.));
#373=DIRECTION('',(-1.,0.,0.));
#374=DIRECTION('',(0.,0.,1.));
#375=DIRECTION('',(1.,0.,0.));
#376=DIRECTION('',(-1.66930253628555E-17,0.,-1.));
#377=CARTESIAN_POINT('',(0.,0.,0.));
#378=CARTESIAN_POINT('',(3.5,-0.0774576002255348,17.5010121034637));
#379=CARTESIAN_POINT('',(7.,-0.0774576002255348,17.5010121034637));
#380=CARTESIAN_POINT('',(3.5,-17.49403968,0.5));
#381=CARTESIAN_POINT('',(7.,-17.49403968,0.5));
#382=CARTESIAN_POINT('',(7.,-17.49403968,0.5));
#383=CARTESIAN_POINT('',(7.,-18.0237274346574,-18.0327571959755));
#384=CARTESIAN_POINT('',(7.,-1.04242523835573,-25.4744662819512));
#385=CARTESIAN_POINT('',(7.,12.224891913746,-12.5237151845066));
#386=CARTESIAN_POINT('',(7.,25.4922090658478,0.427035912937972));
#387=CARTESIAN_POINT('',(7.,18.4626860104079,17.5830687881529));
#388=CARTESIAN_POINT('',(7.,-0.0774576002255303,17.5010121034637));
#389=CARTESIAN_POINT('',(7.,-10.49403968,0.499999999999999));
#390=CARTESIAN_POINT('',(6.99999999999999,-11.0237274346574,-10.617128630771));
#391=CARTESIAN_POINT('',(6.99999999999999,-0.916750915346037,-15.2776161319484));
#392=CARTESIAN_POINT('',(7.,7.19415291705708,-7.65630672135159));
#393=CARTESIAN_POINT('',(6.99999999999999,15.3050567494602,-0.0349973107547936));
#394=CARTESIAN_POINT('',(6.99999999999999,11.2820475196515,10.3422140124966));
#395=CARTESIAN_POINT('',(7.,0.15349521486213,10.5048230839186));
#396=CARTESIAN_POINT('',(1.72461449739155E-15,-10.49403968,0.499999999999999));
#397=CARTESIAN_POINT('',(1.72461449739155E-15,-11.0237274346574,-10.617128630771));
#398=CARTESIAN_POINT('',(1.72461449739155E-15,-0.916750915346037,-15.2776161319484));
#399=CARTESIAN_POINT('',(1.72461449739155E-15,7.19415291705708,-7.65630672135159));
#400=CARTESIAN_POINT('',(1.72461449739155E-15,15.3050567494602,-0.0349973107547936));
#401=CARTESIAN_POINT('',(1.72461449739155E-15,11.2820475196515,10.3422140124966));
#402=CARTESIAN_POINT('',(1.72461449739155E-15,0.15349521486213,10.5048230839186));
#403=CARTESIAN_POINT('',(8.67361737988404E-16,-17.49403968,0.5));
#404=CARTESIAN_POINT('',(8.67361737988404E-16,-18.0237274346574,-18.0327571959755));
#405=CARTESIAN_POINT('',(8.67361737988404E-16,-1.04242523835573,-25.4744662819512));
#406=CARTESIAN_POINT('',(8.67361737988404E-16,12.224891913746,-12.5237151845066));
#407=CARTESIAN_POINT('',(8.67361737988404E-16,25.4922090658478,0.427035912937972));
#408=CARTESIAN_POINT('',(8.67361737988404E-16,18.4626860104079,17.5830687881529));
#409=CARTESIAN_POINT('',(8.67361737988404E-16,-0.0774576002255303,17.5010121034637));
#410=CARTESIAN_POINT('',(1.01089785852566E-17,-24.49403968,0.499999999999999));
#411=CARTESIAN_POINT('',(1.01089785852566E-17,-25.0237274346574,-25.4483857611799));
#412=CARTESIAN_POINT('',(1.01089785852566E-17,-1.16809956136542,-35.671316431954));
#413=CARTESIAN_POINT('',(1.01089785852566E-17,17.255630910435,-17.3911236476617));
#414=CARTESIAN_POINT('',(1.01089785852566E-17,35.6793613822353,0.88906913663074));
#415=CARTESIAN_POINT('',(1.01089785852566E-17,25.6433245011643,24.8239235638092));
#416=CARTESIAN_POINT('',(1.01089785852566E-17,-0.308410415313194,24.4972011230087));
#417=CARTESIAN_POINT('',(7.,-24.49403968,0.499999999999999));
#418=CARTESIAN_POINT('',(6.99999999999999,-25.0237274346574,-25.4483857611799));
#419=CARTESIAN_POINT('',(6.99999999999999,-1.16809956136542,-35.671316431954));
#420=CARTESIAN_POINT('',(7.,17.255630910435,-17.3911236476617));
#421=CARTESIAN_POINT('',(6.99999999999999,35.6793613822353,0.88906913663074));
#422=CARTESIAN_POINT('',(6.99999999999999,25.6433245011643,24.8239235638092));
#423=CARTESIAN_POINT('',(7.,-0.308410415313194,24.4972011230087));
#424=CARTESIAN_POINT('',(7.,-17.49403968,0.5));
#425=CARTESIAN_POINT('',(7.,-18.0237274346574,-18.0327571959755));
#426=CARTESIAN_POINT('',(7.,-1.04242523835573,-25.4744662819512));
#427=CARTESIAN_POINT('',(7.,12.224891913746,-12.5237151845066));
#428=CARTESIAN_POINT('',(7.,25.4922090658478,0.427035912937972));
#429=CARTESIAN_POINT('',(7.,18.4626860104079,17.5830687881529));
#430=CARTESIAN_POINT('',(7.,-0.0774576002255303,17.5010121034637));
#431=CARTESIAN_POINT('',(7.,-0.0774576002255348,17.5010121034637));
#432=CARTESIAN_POINT('',(7.,-10.0630607770711,17.4568168961059));
#433=CARTESIAN_POINT('',(7.,-17.2087532314846,10.4816249009906));
#434=CARTESIAN_POINT('',(7.,-17.49403968,0.5));
#435=CARTESIAN_POINT('',(7.,0.153495214862128,10.5048230839186));
#436=CARTESIAN_POINT('',(7.,-5.84027212492607,10.5924032933429));
#437=CARTESIAN_POINT('',(7.,-10.2087532314846,6.48761462177452));
#438=CARTESIAN_POINT('',(7.,-10.49403968,0.499999999999999));
#439=CARTESIAN_POINT('',(1.72461449739155E-15,0.153495214862128,10.5048230839186));
#440=CARTESIAN_POINT('',(1.72461449739155E-15,-5.84027212492607,10.5924032933429));
#441=CARTESIAN_POINT('',(1.72461449739155E-15,-10.2087532314846,6.48761462177452));
#442=CARTESIAN_POINT('',(1.72461449739155E-15,-10.49403968,0.499999999999999));
#443=CARTESIAN_POINT('',(8.67361737988404E-16,-0.0774576002255348,17.5010121034637));
#444=CARTESIAN_POINT('',(8.67361737988404E-16,-10.0630607770711,17.4568168961059));
#445=CARTESIAN_POINT('',(8.67361737988404E-16,-17.2087532314846,10.4816249009906));
#446=CARTESIAN_POINT('',(8.67361737988404E-16,-17.49403968,0.5));
#447=CARTESIAN_POINT('',(1.01089785852566E-17,-0.308410415313198,24.4972011230087));
#448=CARTESIAN_POINT('',(1.01089785852566E-17,-14.2858494292162,24.321230498869));
#449=CARTESIAN_POINT('',(1.01089785852566E-17,-24.2087532314846,14.4756351802067));
#450=CARTESIAN_POINT('',(1.01089785852566E-17,-24.49403968,0.499999999999999));
#451=CARTESIAN_POINT('',(7.,-0.308410415313198,24.4972011230087));
#452=CARTESIAN_POINT('',(7.,-14.2858494292162,24.321230498869));
#453=CARTESIAN_POINT('',(7.,-24.2087532314846,14.4756351802067));
#454=CARTESIAN_POINT('',(7.,-24.49403968,0.499999999999999));
#455=CARTESIAN_POINT('',(7.,-0.0774576002255348,17.5010121034637));
#456=CARTESIAN_POINT('',(7.,-10.0630607770711,17.4568168961059));
#457=CARTESIAN_POINT('',(7.,-17.2087532314846,10.4816249009906));
#458=CARTESIAN_POINT('',(7.,-17.49403968,0.5));
#459=CARTESIAN_POINT('',(42.8004445042265,0.,0.));
#460=CARTESIAN_POINT('',(42.8004445042265,0.,9.03529142706151));
#461=CARTESIAN_POINT('',(43.5352914270615,0.,0.));
#462=CARTESIAN_POINT('',(43.5352914270615,0.,8.30044450422656));
#463=CARTESIAN_POINT('',(43.38,0.,0.));
#464=CARTESIAN_POINT('',(44.2800426762176,0.,0.));
#465=CARTESIAN_POINT('',(44.2800426762176,0.,8.5));
#466=CARTESIAN_POINT('',(44.2800426762176,0.,0.));
#467=CARTESIAN_POINT('',(49.,0.,0.));
#468=CARTESIAN_POINT('',(49.,0.,8.5));
#469=CARTESIAN_POINT('',(0.,0.,0.));
#470=CARTESIAN_POINT('',(50.0825317547305,0.,0.));
#471=CARTESIAN_POINT('',(50.0825317547305,0.,7.875));
#472=CARTESIAN_POINT('',(50.0825317547305,0.,0.));
#473=CARTESIAN_POINT('',(66.,0.,0.));
#474=CARTESIAN_POINT('',(66.,0.,7.875));
#475=CARTESIAN_POINT('',(0.,0.,0.));
#476=CARTESIAN_POINT('',(68.,0.,0.));
#477=CARTESIAN_POINT('',(68.,0.,5.875));
#478=CARTESIAN_POINT('',(68.,0.,0.));
#479=CARTESIAN_POINT('',(68.,0.,0.));
#480=CARTESIAN_POINT('',(2.5,0.,0.));
#481=CARTESIAN_POINT('',(2.5,0.,14.3070271527674));
#482=CARTESIAN_POINT('',(2.5,14.3070271527674,0.));
#483=CARTESIAN_POINT('',(2.02665419704852,0.,0.));
#484=CARTESIAN_POINT('',(2.02665419704852,0.,15.1571067733011));
#485=CARTESIAN_POINT('',(1.49999999523014,0.,0.));
#486=CARTESIAN_POINT('',(4.48325551334672,0.,0.));
#487=CARTESIAN_POINT('',(4.48325551334672,0.,20.2694918796857));
#488=CARTESIAN_POINT('',(3.5085287466764,0.,0.));
#489=CARTESIAN_POINT('',(18.5362760901155,0.,0.));
#490=CARTESIAN_POINT('',(18.5362760901155,0.,15.1546106882114));
#491=CARTESIAN_POINT('',(18.5362760901155,0.,0.));
#492=CARTESIAN_POINT('',(23.6665782400006,0.,0.));
#493=CARTESIAN_POINT('',(23.6665782400006,0.,14.25));
#494=CARTESIAN_POINT('',(23.6665782400006,0.,0.));
#495=CARTESIAN_POINT('',(38.,0.,0.));
#496=CARTESIAN_POINT('',(38.,0.,14.25));
#497=CARTESIAN_POINT('',(0.,0.,0.));
#498=CARTESIAN_POINT('',(38.25,0.,0.));
#499=CARTESIAN_POINT('',(38.25,0.,14.5));
#500=CARTESIAN_POINT('',(38.25,0.,0.));
#501=CARTESIAN_POINT('',(42.5,0.,0.));
#502=CARTESIAN_POINT('',(42.5,0.,14.5));
#503=CARTESIAN_POINT('',(0.,0.,0.));
#504=CARTESIAN_POINT('',(43.,0.,0.));
#505=CARTESIAN_POINT('',(43.,0.,14.));
#506=CARTESIAN_POINT('',(43.,0.,0.));
#507=CARTESIAN_POINT('',(43.,0.,0.));
#508=CARTESIAN_POINT('',(43.,0.,9.78004267621758));
#509=CARTESIAN_POINT('',(43.,14.,0.));
#510=CARTESIAN_POINT('',(42.8004445042265,0.,0.));
#511=MECHANICAL_DESIGN_GEOMETRIC_PRESENTATION_REPRESENTATION('',(#53,#54),
#512);
#512=(
GEOMETRIC_REPRESENTATION_CONTEXT(3)
GLOBAL_UNCERTAINTY_ASSIGNED_CONTEXT((#513))
GLOBAL_UNIT_ASSIGNED_CONTEXT((#519,#515,#514))
REPRESENTATION_CONTEXT('AEMR-RD0702-D42-M16-L43-Z05-H',
'TOP_LEVEL_ASSEMBLY_PART')
);
#513=UNCERTAINTY_MEASURE_WITH_UNIT(LENGTH_MEASURE(2.E-5),#519,
'DISTANCE_ACCURACY_VALUE','Maximum Tolerance applied to model');
#514=(
NAMED_UNIT(*)
SI_UNIT($,.STERADIAN.)
SOLID_ANGLE_UNIT()
);
#515=(
CONVERSION_BASED_UNIT('DEGREE',#517)
NAMED_UNIT(#516)
PLANE_ANGLE_UNIT()
);
#516=DIMENSIONAL_EXPONENTS(0.,0.,0.,0.,0.,0.,0.);
#517=PLANE_ANGLE_MEASURE_WITH_UNIT(PLANE_ANGLE_MEASURE(0.0174532925),#518);
#518=(
NAMED_UNIT(*)
PLANE_ANGLE_UNIT()
SI_UNIT($,.RADIAN.)
);
#519=(
LENGTH_UNIT()
NAMED_UNIT(*)
SI_UNIT(.MILLI.,.METRE.)
);
ENDSEC;
END-ISO-10303-21;
