ISO-10303-21;
HEADER;
/* Generated by software containing ST-Developer
 * from STEP Tools, Inc. (www.steptools.com) 
 */
/* OPTION: using custom schema-name function */

FILE_DESCRIPTION(
/* description */ (''),
/* implementation_level */ '2;1');

FILE_NAME(
/* name */ 'AEMR-RD0802Y-D16-M08-L23-Z02-H.stp',
/* time_stamp */ '2023-10-19T19:50:47+03:00',
/* author */ (''),
/* organization */ (''),
/* preprocessor_version */ 'ST-DEVELOPER v19.4',
/* originating_system */ 'SIEMENS PLM Software NX2306.5001',
/* authorisation */ '');

FILE_SCHEMA (('AUTOMOTIVE_DESIGN { 1 0 10303 214 3 1 1 1 }'));
ENDSEC;

DATA;
#10=PROPERTY_DEFINITION_REPRESENTATION(#14,#12);
#11=PROPERTY_DEFINITION_REPRESENTATION(#15,#13);
#12=REPRESENTATION('',(#16),#556);
#13=REPRESENTATION('',(#17),#556);
#14=PROPERTY_DEFINITION('pmi validation property','',#21);
#15=PROPERTY_DEFINITION('pmi validation property','',#21);
#16=VALUE_REPRESENTATION_ITEM('number of annotations',COUNT_MEASURE(0.));
#17=VALUE_REPRESENTATION_ITEM('number of views',COUNT_MEASURE(0.));
#18=SHAPE_REPRESENTATION_RELATIONSHIP('None',
'relationship between AEMR-RD0802Y-D16-M08-L23-Z02-H-LIGHT_x_t_objects
-None and AEMR-RD0802Y-D16-M08-L23-Z02-H-LIGHT_x_t_objects-None',#30,#19);
#19=ADVANCED_BREP_SHAPE_REPRESENTATION(
'AEMR-RD0802Y-D16-M08-L23-Z02-H-LIGHT_x_t_objects-None',(#50,#51),#556);
#20=SHAPE_DEFINITION_REPRESENTATION(#21,#30);
#21=PRODUCT_DEFINITION_SHAPE('','',#22);
#22=PRODUCT_DEFINITION(' ','',#24,#23);
#23=PRODUCT_DEFINITION_CONTEXT('part definition',#29,'design');
#24=PRODUCT_DEFINITION_FORMATION_WITH_SPECIFIED_SOURCE(' ',' ',#26,
 .NOT_KNOWN.);
#25=PRODUCT_RELATED_PRODUCT_CATEGORY('part','',(#26));
#26=PRODUCT('AEMR-RD0802Y-D16-M08-L23-Z02-H-LIGHT_x_t_objects',
'AEMR-RD0802Y-D16-M08-L23-Z02-H-LIGHT_x_t_objects',' ',(#27));
#27=PRODUCT_CONTEXT(' ',#29,'mechanical');
#28=APPLICATION_PROTOCOL_DEFINITION('international standard',
'automotive_design',2010,#29);
#29=APPLICATION_CONTEXT(
'core data for automotive mechanical design processes');
#30=SHAPE_REPRESENTATION(
'AEMR-RD0802Y-D16-M08-L23-Z02-H-LIGHT_x_t_objects-None',(#254),#556);
#31=DRAUGHTING_PRE_DEFINED_COLOUR('yellow');
#32=(
BOUNDED_SURFACE()
B_SPLINE_SURFACE(3,3,((#478,#479,#480,#481,#482,#483,#484),(#485,#486,#487,
#488,#489,#490,#491),(#492,#493,#494,#495,#496,#497,#498),(#499,#500,#501,
#502,#503,#504,#505),(#506,#507,#508,#509,#510,#511,#512),(#513,#514,#515,
#516,#517,#518,#519),(#520,#521,#522,#523,#524,#525,#526)),
 .UNSPECIFIED.,.T.,.F.,.F.)
B_SPLINE_SURFACE_WITH_KNOTS((1,3,3,3,1),(4,3,4),(-0.5,0.,0.5,1.,1.5),(0.,
0.5,1.),.UNSPECIFIED.)
GEOMETRIC_REPRESENTATION_ITEM()
RATIONAL_B_SPLINE_SURFACE(((1.,0.565560594415565,0.565560594415565,1.,0.565560594415565,
0.565560594415565,1.),(0.333333333333334,0.188520198138522,0.188520198138522,
0.333333333333334,0.188520198138522,0.188520198138522,0.333333333333334),
(0.333333333333334,0.188520198138522,0.188520198138522,0.333333333333334,
0.188520198138522,0.188520198138522,0.333333333333334),(1.,0.565560594415565,
0.565560594415565,1.,0.565560594415565,0.565560594415565,1.),(0.333333333333334,
0.188520198138522,0.188520198138522,0.333333333333334,0.188520198138522,
0.188520198138522,0.333333333333334),(0.333333333333334,0.188520198138522,
0.188520198138522,0.333333333333334,0.188520198138522,0.188520198138522,
0.333333333333334),(1.,0.565560594415565,0.565560594415565,1.,0.565560594415565,
0.565560594415565,1.)))
REPRESENTATION_ITEM('')
SURFACE()
);
#33=(
BOUNDED_SURFACE()
B_SPLINE_SURFACE(3,3,((#527,#528,#529,#530),(#531,#532,#533,#534),(#535,
#536,#537,#538),(#539,#540,#541,#542),(#543,#544,#545,#546),(#547,#548,
#549,#550),(#551,#552,#553,#554)),.UNSPECIFIED.,.T.,.F.,.F.)
B_SPLINE_SURFACE_WITH_KNOTS((1,3,3,3,1),(4,4),(-0.5,0.,0.5,1.,1.5),(0.,
1.),.UNSPECIFIED.)
GEOMETRIC_REPRESENTATION_ITEM()
RATIONAL_B_SPLINE_SURFACE(((1.,0.838211497630735,0.838211497630735,1.),
(0.333333333333334,0.279403832543579,0.279403832543579,0.333333333333334),
(0.333333333333334,0.279403832543579,0.279403832543579,0.333333333333334),
(1.,0.838211497630735,0.838211497630735,1.),(0.333333333333334,0.279403832543579,
0.279403832543579,0.333333333333334),(0.333333333333334,0.279403832543579,
0.279403832543579,0.333333333333334),(1.,0.838211497630735,0.838211497630735,
1.)))
REPRESENTATION_ITEM('')
SURFACE()
);
#34=PRESENTATION_LAYER_ASSIGNMENT('1','Layer 1',(#50,#51));
#35=STYLED_ITEM('',(#37),#50);
#36=STYLED_ITEM('',(#38),#51);
#37=PRESENTATION_STYLE_ASSIGNMENT((#39));
#38=PRESENTATION_STYLE_ASSIGNMENT((#40));
#39=SURFACE_STYLE_USAGE(.BOTH.,#41);
#40=SURFACE_STYLE_USAGE(.BOTH.,#42);
#41=SURFACE_SIDE_STYLE('',(#43));
#42=SURFACE_SIDE_STYLE('',(#44));
#43=SURFACE_STYLE_FILL_AREA(#45);
#44=SURFACE_STYLE_FILL_AREA(#46);
#45=FILL_AREA_STYLE('',(#47));
#46=FILL_AREA_STYLE('',(#48));
#47=FILL_AREA_STYLE_COLOUR('',#49);
#48=FILL_AREA_STYLE_COLOUR('',#31);
#49=COLOUR_RGB('silver gray',0.6,0.6,0.6);
#50=MANIFOLD_SOLID_BREP('',#52);
#51=MANIFOLD_SOLID_BREP('',#53);
#52=CLOSED_SHELL('',(#73,#74,#75,#76,#77,#78,#79,#80,#81,#82,#83,#84,#85,
#86,#87,#88,#89));
#53=CLOSED_SHELL('',(#90,#91));
#54=FACE_OUTER_BOUND('',#148,.T.);
#55=FACE_OUTER_BOUND('',#149,.T.);
#56=SURFACE_OF_REVOLUTION('',#58,#57);
#57=AXIS1_PLACEMENT('',#456,#331);
#58=B_SPLINE_CURVE_WITH_KNOTS('',3,(#392,#393,#394,#395,#396,#397,#398,
#399,#400,#401,#402,#403,#404,#405,#406,#407,#408,#409,#410,#411,#412,#413,
#414,#415,#416,#417,#418,#419,#420,#421,#422,#423,#424,#425,#426,#427,#428,
#429,#430,#431,#432,#433,#434,#435,#436,#437,#438,#439,#440,#441,#442,#443,
#444,#445,#446,#447,#448,#449,#450,#451,#452,#453,#454,#455),
 .UNSPECIFIED.,.T.,.F.,(2,2,2,2,2,2,2,2,2,2,2,2,2,2,2,2,2,2,2,2,2,2,2,2,
2,2,2,2,2,2,2,2,2,2),(-0.03125,0.,0.03125,0.0625,0.09375,0.125,0.15625,
0.1875,0.21875,0.25,0.28125,0.3125,0.34375,0.375,0.40625,0.4375,0.46875,
0.5,0.53125,0.5625,0.59375,0.625,0.6875,0.71875,0.75,0.78125,0.8125,0.84375,
0.875,0.90625,0.9375,0.96875,1.,1.03125),.UNSPECIFIED.);
#59=CYLINDRICAL_SURFACE('',#265,7.375);
#60=CYLINDRICAL_SURFACE('',#269,6.8);
#61=CYLINDRICAL_SURFACE('',#281,3.875);
#62=CYLINDRICAL_SURFACE('',#285,4.25);
#63=PLANE('',#261);
#64=PLANE('',#275);
#65=PLANE('',#277);
#66=CONICAL_SURFACE('',#259,4.7751531373598,76.0000000000001);
#67=CONICAL_SURFACE('',#263,7.075,45.0000000000001);
#68=CONICAL_SURFACE('',#267,7.375,44.9999999999997);
#69=CONICAL_SURFACE('',#273,6.99577393481878,17.9999999999719);
#70=CONICAL_SURFACE('',#279,2.875,45.0000000000002);
#71=CONICAL_SURFACE('',#283,3.875,30.);
#72=CONICAL_SURFACE('',#286,4.25,15.);
#73=ADVANCED_FACE('',(#94,#95),#92,.F.);
#74=ADVANCED_FACE('',(#96,#97),#66,.F.);
#75=ADVANCED_FACE('',(#98,#99),#63,.F.);
#76=ADVANCED_FACE('',(#100,#101),#67,.T.);
#77=ADVANCED_FACE('',(#102,#103),#59,.T.);
#78=ADVANCED_FACE('',(#104,#105),#68,.T.);
#79=ADVANCED_FACE('',(#106,#107),#60,.T.);
#80=ADVANCED_FACE('',(#108,#109),#93,.F.);
#81=ADVANCED_FACE('',(#110,#111),#69,.T.);
#82=ADVANCED_FACE('',(#112,#113),#56,.T.);
#83=ADVANCED_FACE('',(#54),#64,.F.);
#84=ADVANCED_FACE('',(#55),#65,.F.);
#85=ADVANCED_FACE('',(#114,#115),#70,.T.);
#86=ADVANCED_FACE('',(#116,#117),#61,.T.);
#87=ADVANCED_FACE('',(#118,#119),#71,.T.);
#88=ADVANCED_FACE('',(#120,#121),#62,.T.);
#89=ADVANCED_FACE('',(#122,#123),#72,.T.);
#90=ADVANCED_FACE('',(#124,#125),#32,.F.);
#91=ADVANCED_FACE('',(#126,#127),#33,.F.);
#92=TOROIDAL_SURFACE('',#257,4.63,0.6);
#93=TOROIDAL_SURFACE('',#271,10.8,4.);
#94=FACE_BOUND('',#128,.T.);
#95=FACE_BOUND('',#129,.T.);
#96=FACE_BOUND('',#130,.T.);
#97=FACE_BOUND('',#131,.T.);
#98=FACE_BOUND('',#132,.T.);
#99=FACE_BOUND('',#133,.T.);
#100=FACE_BOUND('',#134,.T.);
#101=FACE_BOUND('',#135,.T.);
#102=FACE_BOUND('',#136,.T.);
#103=FACE_BOUND('',#137,.T.);
#104=FACE_BOUND('',#138,.T.);
#105=FACE_BOUND('',#139,.T.);
#106=FACE_BOUND('',#140,.T.);
#107=FACE_BOUND('',#141,.T.);
#108=FACE_BOUND('',#142,.T.);
#109=FACE_BOUND('',#143,.T.);
#110=FACE_BOUND('',#144,.T.);
#111=FACE_BOUND('',#145,.T.);
#112=FACE_BOUND('',#146,.T.);
#113=FACE_BOUND('',#147,.T.);
#114=FACE_BOUND('',#150,.T.);
#115=FACE_BOUND('',#151,.T.);
#116=FACE_BOUND('',#152,.T.);
#117=FACE_BOUND('',#153,.T.);
#118=FACE_BOUND('',#154,.T.);
#119=FACE_BOUND('',#155,.T.);
#120=FACE_BOUND('',#156,.T.);
#121=FACE_BOUND('',#157,.T.);
#122=FACE_BOUND('',#158,.T.);
#123=FACE_BOUND('',#159,.T.);
#124=FACE_BOUND('',#160,.T.);
#125=FACE_BOUND('',#161,.T.);
#126=FACE_BOUND('',#162,.T.);
#127=FACE_BOUND('',#163,.T.);
#128=EDGE_LOOP('',(#164));
#129=EDGE_LOOP('',(#165));
#130=EDGE_LOOP('',(#166));
#131=EDGE_LOOP('',(#167));
#132=EDGE_LOOP('',(#168));
#133=EDGE_LOOP('',(#169));
#134=EDGE_LOOP('',(#170));
#135=EDGE_LOOP('',(#171));
#136=EDGE_LOOP('',(#172));
#137=EDGE_LOOP('',(#173));
#138=EDGE_LOOP('',(#174));
#139=EDGE_LOOP('',(#175));
#140=EDGE_LOOP('',(#176));
#141=EDGE_LOOP('',(#177));
#142=EDGE_LOOP('',(#178));
#143=EDGE_LOOP('',(#179));
#144=EDGE_LOOP('',(#180));
#145=EDGE_LOOP('',(#181));
#146=EDGE_LOOP('',(#182));
#147=EDGE_LOOP('',(#183));
#148=EDGE_LOOP('',(#184));
#149=EDGE_LOOP('',(#185));
#150=EDGE_LOOP('',(#186));
#151=EDGE_LOOP('',(#187));
#152=EDGE_LOOP('',(#188));
#153=EDGE_LOOP('',(#189));
#154=EDGE_LOOP('',(#190));
#155=EDGE_LOOP('',(#191));
#156=EDGE_LOOP('',(#192));
#157=EDGE_LOOP('',(#193));
#158=EDGE_LOOP('',(#194));
#159=EDGE_LOOP('',(#195));
#160=EDGE_LOOP('',(#196));
#161=EDGE_LOOP('',(#197));
#162=EDGE_LOOP('',(#198));
#163=EDGE_LOOP('',(#199));
#164=ORIENTED_EDGE('',*,*,#218,.F.);
#165=ORIENTED_EDGE('',*,*,#219,.T.);
#166=ORIENTED_EDGE('',*,*,#220,.F.);
#167=ORIENTED_EDGE('',*,*,#218,.T.);
#168=ORIENTED_EDGE('',*,*,#221,.F.);
#169=ORIENTED_EDGE('',*,*,#220,.T.);
#170=ORIENTED_EDGE('',*,*,#222,.F.);
#171=ORIENTED_EDGE('',*,*,#221,.T.);
#172=ORIENTED_EDGE('',*,*,#223,.F.);
#173=ORIENTED_EDGE('',*,*,#222,.T.);
#174=ORIENTED_EDGE('',*,*,#224,.F.);
#175=ORIENTED_EDGE('',*,*,#223,.T.);
#176=ORIENTED_EDGE('',*,*,#225,.F.);
#177=ORIENTED_EDGE('',*,*,#224,.T.);
#178=ORIENTED_EDGE('',*,*,#226,.F.);
#179=ORIENTED_EDGE('',*,*,#225,.T.);
#180=ORIENTED_EDGE('',*,*,#227,.F.);
#181=ORIENTED_EDGE('',*,*,#226,.T.);
#182=ORIENTED_EDGE('',*,*,#228,.F.);
#183=ORIENTED_EDGE('',*,*,#227,.T.);
#184=ORIENTED_EDGE('',*,*,#228,.T.);
#185=ORIENTED_EDGE('',*,*,#229,.F.);
#186=ORIENTED_EDGE('',*,*,#230,.F.);
#187=ORIENTED_EDGE('',*,*,#229,.T.);
#188=ORIENTED_EDGE('',*,*,#231,.F.);
#189=ORIENTED_EDGE('',*,*,#230,.T.);
#190=ORIENTED_EDGE('',*,*,#232,.F.);
#191=ORIENTED_EDGE('',*,*,#231,.T.);
#192=ORIENTED_EDGE('',*,*,#233,.F.);
#193=ORIENTED_EDGE('',*,*,#232,.T.);
#194=ORIENTED_EDGE('',*,*,#219,.F.);
#195=ORIENTED_EDGE('',*,*,#233,.T.);
#196=ORIENTED_EDGE('',*,*,#234,.T.);
#197=ORIENTED_EDGE('',*,*,#235,.T.);
#198=ORIENTED_EDGE('',*,*,#235,.F.);
#199=ORIENTED_EDGE('',*,*,#234,.F.);
#200=VERTEX_POINT('',#362);
#201=VERTEX_POINT('',#364);
#202=VERTEX_POINT('',#367);
#203=VERTEX_POINT('',#370);
#204=VERTEX_POINT('',#373);
#205=VERTEX_POINT('',#376);
#206=VERTEX_POINT('',#379);
#207=VERTEX_POINT('',#382);
#208=VERTEX_POINT('',#385);
#209=VERTEX_POINT('',#388);
#210=VERTEX_POINT('',#391);
#211=VERTEX_POINT('',#459);
#212=VERTEX_POINT('',#462);
#213=VERTEX_POINT('',#465);
#214=VERTEX_POINT('',#468);
#215=VERTEX_POINT('',#471);
#216=VERTEX_POINT('',#475);
#217=VERTEX_POINT('',#477);
#218=EDGE_CURVE('',#200,#200,#236,.T.);
#219=EDGE_CURVE('',#201,#201,#237,.T.);
#220=EDGE_CURVE('',#202,#202,#238,.T.);
#221=EDGE_CURVE('',#203,#203,#239,.T.);
#222=EDGE_CURVE('',#204,#204,#240,.T.);
#223=EDGE_CURVE('',#205,#205,#241,.T.);
#224=EDGE_CURVE('',#206,#206,#242,.T.);
#225=EDGE_CURVE('',#207,#207,#243,.T.);
#226=EDGE_CURVE('',#208,#208,#244,.T.);
#227=EDGE_CURVE('',#209,#209,#245,.T.);
#228=EDGE_CURVE('',#210,#210,#246,.T.);
#229=EDGE_CURVE('',#211,#211,#247,.T.);
#230=EDGE_CURVE('',#212,#212,#248,.T.);
#231=EDGE_CURVE('',#213,#213,#249,.T.);
#232=EDGE_CURVE('',#214,#214,#250,.T.);
#233=EDGE_CURVE('',#215,#215,#251,.T.);
#234=EDGE_CURVE('',#216,#216,#252,.T.);
#235=EDGE_CURVE('',#217,#217,#253,.T.);
#236=CIRCLE('',#255,4.7751531373598);
#237=CIRCLE('',#256,4.05044450422656);
#238=CIRCLE('',#258,5.58604254191963);
#239=CIRCLE('',#260,7.075);
#240=CIRCLE('',#262,7.375);
#241=CIRCLE('',#264,7.375);
#242=CIRCLE('',#266,6.8);
#243=CIRCLE('',#268,6.8);
#244=CIRCLE('',#270,6.99577393481878);
#245=CIRCLE('',#272,7.12876431994291);
#246=CIRCLE('',#274,1.89386134621934);
#247=CIRCLE('',#276,2.875);
#248=CIRCLE('',#278,3.875);
#249=CIRCLE('',#280,3.875);
#250=CIRCLE('',#282,4.25);
#251=CIRCLE('',#284,4.25);
#252=CIRCLE('',#287,4.);
#253=CIRCLE('',#288,4.);
#254=AXIS2_PLACEMENT_3D('',#360,#289,#290);
#255=AXIS2_PLACEMENT_3D('',#361,#291,#292);
#256=AXIS2_PLACEMENT_3D('',#363,#293,#294);
#257=AXIS2_PLACEMENT_3D('',#365,#295,#296);
#258=AXIS2_PLACEMENT_3D('',#366,#297,#298);
#259=AXIS2_PLACEMENT_3D('',#368,#299,#300);
#260=AXIS2_PLACEMENT_3D('',#369,#301,#302);
#261=AXIS2_PLACEMENT_3D('',#371,#303,#304);
#262=AXIS2_PLACEMENT_3D('',#372,#305,#306);
#263=AXIS2_PLACEMENT_3D('',#374,#307,#308);
#264=AXIS2_PLACEMENT_3D('',#375,#309,#310);
#265=AXIS2_PLACEMENT_3D('',#377,#311,#312);
#266=AXIS2_PLACEMENT_3D('',#378,#313,#314);
#267=AXIS2_PLACEMENT_3D('',#380,#315,#316);
#268=AXIS2_PLACEMENT_3D('',#381,#317,#318);
#269=AXIS2_PLACEMENT_3D('',#383,#319,#320);
#270=AXIS2_PLACEMENT_3D('',#384,#321,#322);
#271=AXIS2_PLACEMENT_3D('',#386,#323,#324);
#272=AXIS2_PLACEMENT_3D('',#387,#325,#326);
#273=AXIS2_PLACEMENT_3D('',#389,#327,#328);
#274=AXIS2_PLACEMENT_3D('',#390,#329,#330);
#275=AXIS2_PLACEMENT_3D('',#457,#332,#333);
#276=AXIS2_PLACEMENT_3D('',#458,#334,#335);
#277=AXIS2_PLACEMENT_3D('',#460,#336,#337);
#278=AXIS2_PLACEMENT_3D('',#461,#338,#339);
#279=AXIS2_PLACEMENT_3D('',#463,#340,#341);
#280=AXIS2_PLACEMENT_3D('',#464,#342,#343);
#281=AXIS2_PLACEMENT_3D('',#466,#344,#345);
#282=AXIS2_PLACEMENT_3D('',#467,#346,#347);
#283=AXIS2_PLACEMENT_3D('',#469,#348,#349);
#284=AXIS2_PLACEMENT_3D('',#470,#350,#351);
#285=AXIS2_PLACEMENT_3D('',#472,#352,#353);
#286=AXIS2_PLACEMENT_3D('',#473,#354,#355);
#287=AXIS2_PLACEMENT_3D('',#474,#356,#357);
#288=AXIS2_PLACEMENT_3D('',#476,#358,#359);
#289=DIRECTION('',(0.,0.,1.));
#290=DIRECTION('',(1.,0.,0.));
#291=DIRECTION('',(-1.,0.,0.));
#292=DIRECTION('',(0.,0.,1.));
#293=DIRECTION('',(-1.,0.,0.));
#294=DIRECTION('',(0.,0.,1.));
#295=DIRECTION('',(-1.,0.,0.));
#296=DIRECTION('',(0.,0.,1.));
#297=DIRECTION('',(-1.,0.,0.));
#298=DIRECTION('',(0.,0.,1.));
#299=DIRECTION('',(1.,0.,0.));
#300=DIRECTION('',(1.55520291056134E-17,0.,-1.));
#301=DIRECTION('',(-1.,0.,0.));
#302=DIRECTION('',(0.,0.,1.));
#303=DIRECTION('',(-1.,0.,0.));
#304=DIRECTION('',(0.,0.,1.));
#305=DIRECTION('',(-1.,0.,0.));
#306=DIRECTION('',(0.,0.,1.));
#307=DIRECTION('',(-1.,0.,0.));
#308=DIRECTION('',(2.06704383603223E-17,0.,1.));
#309=DIRECTION('',(-1.,0.,0.));
#310=DIRECTION('',(0.,0.,1.));
#311=DIRECTION('',(-1.,0.,0.));
#312=DIRECTION('',(0.,0.,1.));
#313=DIRECTION('',(-1.,0.,0.));
#314=DIRECTION('',(0.,0.,1.));
#315=DIRECTION('',(1.,0.,0.));
#316=DIRECTION('',(1.03321413136726E-17,0.,-1.));
#317=DIRECTION('',(-1.,0.,0.));
#318=DIRECTION('',(0.,0.,1.));
#319=DIRECTION('',(-1.,0.,0.));
#320=DIRECTION('',(0.,0.,1.));
#321=DIRECTION('',(-1.,0.,0.));
#322=DIRECTION('',(0.,0.,1.));
#323=DIRECTION('',(-1.,0.,0.));
#324=DIRECTION('',(0.,0.,1.));
#325=DIRECTION('',(-1.,0.,0.));
#326=DIRECTION('',(0.,0.,1.));
#327=DIRECTION('',(-1.,0.,0.));
#328=DIRECTION('',(-1.01914827183287E-16,0.,1.));
#329=DIRECTION('',(-1.,0.,0.));
#330=DIRECTION('',(0.,0.,1.));
#331=DIRECTION('',(-1.,0.,0.));
#332=DIRECTION('',(1.,0.,0.));
#333=DIRECTION('',(0.,0.,-1.));
#334=DIRECTION('',(-1.,0.,0.));
#335=DIRECTION('',(0.,0.,1.));
#336=DIRECTION('',(-1.,0.,0.));
#337=DIRECTION('',(0.,0.,1.));
#338=DIRECTION('',(-1.,0.,0.));
#339=DIRECTION('',(0.,0.,1.));
#340=DIRECTION('',(-1.,0.,0.));
#341=DIRECTION('',(3.45950088690374E-17,0.,1.));
#342=DIRECTION('',(-1.,0.,0.));
#343=DIRECTION('',(0.,0.,1.));
#344=DIRECTION('',(-1.,0.,0.));
#345=DIRECTION('',(0.,0.,1.));
#346=DIRECTION('',(-1.,0.,0.));
#347=DIRECTION('',(0.,0.,1.));
#348=DIRECTION('',(-1.,0.,0.));
#349=DIRECTION('',(-7.75995345802525E-17,0.,1.));
#350=DIRECTION('',(-1.,0.,0.));
#351=DIRECTION('',(0.,0.,1.));
#352=DIRECTION('',(-1.,0.,0.));
#353=DIRECTION('',(0.,0.,1.));
#354=DIRECTION('',(1.,0.,0.));
#355=DIRECTION('',(-2.67665694891662E-16,0.,-1.));
#356=DIRECTION('',(0.,0.989127748282367,0.147058823529412));
#357=DIRECTION('',(1.,0.,0.));
#358=DIRECTION('',(0.,0.,-1.));
#359=DIRECTION('',(1.,0.,0.));
#360=CARTESIAN_POINT('',(0.,0.,0.));
#361=CARTESIAN_POINT('',(22.7978225642344,0.,0.));
#362=CARTESIAN_POINT('',(22.7978225642344,0.,4.7751531373598));
#363=CARTESIAN_POINT('',(23.5352914270615,0.,0.));
#364=CARTESIAN_POINT('',(23.5352914270615,0.,4.05044450422656));
#365=CARTESIAN_POINT('',(23.38,0.,0.));
#366=CARTESIAN_POINT('',(23.,0.,0.));
#367=CARTESIAN_POINT('',(23.,0.,5.58604254191963));
#368=CARTESIAN_POINT('',(22.7978225642344,0.,0.));
#369=CARTESIAN_POINT('',(23.,0.,0.));
#370=CARTESIAN_POINT('',(23.,0.,7.075));
#371=CARTESIAN_POINT('',(23.,7.075,0.));
#372=CARTESIAN_POINT('',(22.7,0.,0.));
#373=CARTESIAN_POINT('',(22.7,0.,7.375));
#374=CARTESIAN_POINT('',(23.,0.,0.));
#375=CARTESIAN_POINT('',(20.575,0.,0.));
#376=CARTESIAN_POINT('',(20.575,0.,7.375));
#377=CARTESIAN_POINT('',(0.,0.,0.));
#378=CARTESIAN_POINT('',(20.,0.,0.));
#379=CARTESIAN_POINT('',(20.,0.,6.8));
#380=CARTESIAN_POINT('',(20.575,0.,0.));
#381=CARTESIAN_POINT('',(6.92110462406956,0.,0.));
#382=CARTESIAN_POINT('',(6.92110462406956,0.,6.8));
#383=CARTESIAN_POINT('',(0.,0.,0.));
#384=CARTESIAN_POINT('',(5.68503664657164,0.,0.));
#385=CARTESIAN_POINT('',(5.68503664657164,0.,6.99577393481878));
#386=CARTESIAN_POINT('',(6.92110462406956,0.,0.));
#387=CARTESIAN_POINT('',(5.27573432767182,0.,0.));
#388=CARTESIAN_POINT('',(5.27573432767182,0.,7.12876431994291));
#389=CARTESIAN_POINT('',(5.68503664657164,0.,0.));
#390=CARTESIAN_POINT('',(1.99999999996922,0.,0.));
#391=CARTESIAN_POINT('',(1.99999999996922,0.,1.89386134621934));
#392=CARTESIAN_POINT('',(3.79261197395229,1.51489020517947,0.));
#393=CARTESIAN_POINT('',(4.20738802604771,1.51489020517947,0.));
#394=CARTESIAN_POINT('',(4.4145578064675,1.52258302401417,0.));
#395=CARTESIAN_POINT('',(4.8258560073253,1.55737866922395,0.));
#396=CARTESIAN_POINT('',(5.03033510829673,1.58450475222345,0.));
#397=CARTESIAN_POINT('',(5.43545855594333,1.67064196577962,0.));
#398=CARTESIAN_POINT('',(5.63739488455791,1.73070060730042,0.));
#399=CARTESIAN_POINT('',(6.0182878980904,1.89408821931927,0.));
#400=CARTESIAN_POINT('',(6.20129861757499,1.99964875212471,0.));
#401=CARTESIAN_POINT('',(6.52870008204223,2.25369568532646,0.));
#402=CARTESIAN_POINT('',(6.67313293549466,2.40069868356316,0.));
#403=CARTESIAN_POINT('',(6.92371298616162,2.73440440457241,0.));
#404=CARTESIAN_POINT('',(7.02564186208505,2.915968017265,0.));
#405=CARTESIAN_POINT('',(7.18335802379074,3.29585276239681,0.));
#406=CARTESIAN_POINT('',(7.24048426937541,3.49863620935497,0.));
#407=CARTESIAN_POINT('',(7.30785638895056,3.90720228794865,0.));
#408=CARTESIAN_POINT('',(7.31886147514439,4.11256220722826,0.));
#409=CARTESIAN_POINT('',(7.29841027052768,4.5252980882976,0.));
#410=CARTESIAN_POINT('',(7.26613858847173,4.73351506592711,0.));
#411=CARTESIAN_POINT('',(7.16286416517527,5.13248227035157,0.));
#412=CARTESIAN_POINT('',(7.09192336558542,5.32578718313929,0.));
#413=CARTESIAN_POINT('',(6.91158005675566,5.70008619067502,0.));
#414=CARTESIAN_POINT('',(6.8029706560364,5.87851086848425,0.));
#415=CARTESIAN_POINT('',(6.55683649756002,6.20841061589505,0.));
#416=CARTESIAN_POINT('',(6.41846641170366,6.36163261746192,0.));
#417=CARTESIAN_POINT('',(6.11043314269556,6.64361230701758,0.));
#418=CARTESIAN_POINT('',(5.94567332942864,6.76789695421107,0.));
#419=CARTESIAN_POINT('',(5.59575203202301,6.98474249620717,0.));
#420=CARTESIAN_POINT('',(5.40897324864922,7.07788763303901,0.));
#421=CARTESIAN_POINT('',(5.02144029464414,7.22785142288865,0.));
#422=CARTESIAN_POINT('',(4.82322620769407,7.28405739224388,0.));
#423=CARTESIAN_POINT('',(4.41814714347863,7.35994893582351,0.));
#424=CARTESIAN_POINT('',(4.20906990618743,7.37950695535255,0.));
#425=CARTESIAN_POINT('',(3.79507025363327,7.37976112901395,0.));
#426=CARTESIAN_POINT('',(3.59003954582471,7.36098799257926,0.));
#427=CARTESIAN_POINT('',(3.1838927922027,7.28586755294498,0.));
#428=CARTESIAN_POINT('',(2.98143884363519,7.22867798564153,0.));
#429=CARTESIAN_POINT('',(2.59620226798148,7.08017203140452,0.));
#430=CARTESIAN_POINT('',(2.41159727428626,6.98878469240979,0.));
#431=CARTESIAN_POINT('',(2.05870978773955,6.77110855796725,0.));
#432=CARTESIAN_POINT('',(1.8913780411046,6.64485512274316,0.));
#433=CARTESIAN_POINT('',(1.43465621763108,6.22799403645072,0.));
#434=CARTESIAN_POINT('',(1.18013449201593,5.88892498197786,0.));
#435=CARTESIAN_POINT('',(0.910610741458894,5.33178929763714,0.));
#436=CARTESIAN_POINT('',(0.837812367825475,5.13478258260392,0.));
#437=CARTESIAN_POINT('',(0.733774800074356,4.73349195152465,0.));
#438=CARTESIAN_POINT('',(0.70200812698403,4.52948127535993,0.));
#439=CARTESIAN_POINT('',(0.681021002549707,4.11438987581768,0.));
#440=CARTESIAN_POINT('',(0.692335482512088,3.90529454733809,0.));
#441=CARTESIAN_POINT('',(0.759862777241527,3.49728175167887,0.));
#442=CARTESIAN_POINT('',(0.817036170528526,3.29428234260478,0.));
#443=CARTESIAN_POINT('',(0.976268883628891,2.91199568407106,0.));
#444=CARTESIAN_POINT('',(1.0793708701096,2.72957719729293,0.));
#445=CARTESIAN_POINT('',(1.32979927003376,2.39753164094798,0.));
#446=CARTESIAN_POINT('',(1.47438324474711,2.25076219462216,0.));
#447=CARTESIAN_POINT('',(1.8032440613322,1.99667755237656,0.));
#448=CARTESIAN_POINT('',(1.9852528200806,1.8922854291168,0.));
#449=CARTESIAN_POINT('',(2.36538442704679,1.7297971250371,0.));
#450=CARTESIAN_POINT('',(2.56716355611843,1.66996297507975,0.));
#451=CARTESIAN_POINT('',(2.9715026557084,1.58423683335286,0.));
#452=CARTESIAN_POINT('',(3.17560141417086,1.55721973051138,0.));
#453=CARTESIAN_POINT('',(3.58615752471154,1.52255833796297,0.));
#454=CARTESIAN_POINT('',(3.79261197395229,1.51489020517947,0.));
#455=CARTESIAN_POINT('',(4.20738802604771,1.51489020517947,0.));
#456=CARTESIAN_POINT('',(0.,0.,0.));
#457=CARTESIAN_POINT('',(1.99999999998461,1.89386134620332,0.));
#458=CARTESIAN_POINT('',(40.,0.,0.));
#459=CARTESIAN_POINT('',(40.,0.,2.875));
#460=CARTESIAN_POINT('',(40.,0.,0.));
#461=CARTESIAN_POINT('',(39.,0.,0.));
#462=CARTESIAN_POINT('',(39.,0.,3.875));
#463=CARTESIAN_POINT('',(40.,0.,0.));
#464=CARTESIAN_POINT('',(29.6495190528383,0.,0.));
#465=CARTESIAN_POINT('',(29.6495190528383,0.,3.875));
#466=CARTESIAN_POINT('',(0.,0.,0.));
#467=CARTESIAN_POINT('',(29.,0.,0.));
#468=CARTESIAN_POINT('',(29.,0.,4.25));
#469=CARTESIAN_POINT('',(29.6495190528383,0.,0.));
#470=CARTESIAN_POINT('',(24.2800426762176,0.,0.));
#471=CARTESIAN_POINT('',(24.2800426762176,0.,4.25));
#472=CARTESIAN_POINT('',(0.,0.,0.));
#473=CARTESIAN_POINT('',(24.2800426762176,0.,0.));
#474=CARTESIAN_POINT('',(4.,0.410131457105896,4.04142764826493));
#475=CARTESIAN_POINT('',(8.,0.410131457105896,4.04142764826493));
#476=CARTESIAN_POINT('',(4.,-3.93717478,1.));
#477=CARTESIAN_POINT('',(8.,-3.93717478,1.));
#478=CARTESIAN_POINT('',(8.,-3.93717478,1.));
#479=CARTESIAN_POINT('',(8.,-5.04211730055714,-3.35035182528721));
#480=CARTESIAN_POINT('',(8.,-1.34913370821514,-5.90149493460264));
#481=CARTESIAN_POINT('',(8.,2.32864320695563,-3.32847804003083));
#482=CARTESIAN_POINT('',(8.,6.00642012212639,-0.755461145459023));
#483=CARTESIAN_POINT('',(8.,4.87567670942907,3.58825596229058));
#484=CARTESIAN_POINT('',(8.,0.410131457105895,4.04142764826493));
#485=CARTESIAN_POINT('',(7.99999999999999,4.06282522,1.));
#486=CARTESIAN_POINT('',(7.99999999999999,2.95788269944286,5.48918833916991));
#487=CARTESIAN_POINT('',(7.99999999999999,-1.63503511317218,6.01721853228187));
#488=CARTESIAN_POINT('',(7.99999999999999,-3.72989476461319,1.89589920965729));
#489=CARTESIAN_POINT('',(7.99999999999999,-5.82475441605421,-2.22542011296729));
#490=CARTESIAN_POINT('',(7.99999999999999,-2.69128716105665,-5.6246984010944));
#491=CARTESIAN_POINT('',(7.99999999999999,1.58660204534119,-3.871594337994));
#492=CARTESIAN_POINT('',(1.12355701329479E-16,4.06282522,1.));
#493=CARTESIAN_POINT('',(1.12355701329479E-16,2.95788269944286,5.48918833916991));
#494=CARTESIAN_POINT('',(1.12355701329479E-16,-1.63503511317217,6.01721853228187));
#495=CARTESIAN_POINT('',(1.12355701329479E-16,-3.72989476461319,1.89589920965729));
#496=CARTESIAN_POINT('',(1.12355701329479E-16,-5.82475441605421,-2.22542011296729));
#497=CARTESIAN_POINT('',(1.12355701329479E-16,-2.69128716105665,-5.6246984010944));
#498=CARTESIAN_POINT('',(1.12355701329479E-16,1.58660204534119,-3.871594337994));
#499=CARTESIAN_POINT('',(-8.67361737988404E-16,-3.93717478,1.));
#500=CARTESIAN_POINT('',(-8.67361737988403E-16,-5.04211730055714,-3.35035182528721));
#501=CARTESIAN_POINT('',(-8.67361737988403E-16,-1.34913370821514,-5.90149493460264));
#502=CARTESIAN_POINT('',(-8.67361737988404E-16,2.32864320695562,-3.32847804003083));
#503=CARTESIAN_POINT('',(-8.67361737988403E-16,6.00642012212639,-0.755461145459024));
#504=CARTESIAN_POINT('',(-8.67361737988403E-16,4.87567670942907,3.58825596229058));
#505=CARTESIAN_POINT('',(-8.67361737988404E-16,0.410131457105896,4.04142764826493));
#506=CARTESIAN_POINT('',(-1.84707917730629E-15,-11.93717478,1.));
#507=CARTESIAN_POINT('',(-1.84707917730628E-15,-13.0421173005571,-12.1898919897443));
#508=CARTESIAN_POINT('',(-1.84707917730628E-15,-1.06323230325809,-17.8202084014871));
#509=CARTESIAN_POINT('',(-1.84707917730629E-15,8.38718117852443,-8.55285528971894));
#510=CARTESIAN_POINT('',(-1.84707917730628E-15,17.837594660307,0.714497822049249));
#511=CARTESIAN_POINT('',(-1.84707917730628E-15,12.4426405799148,12.8012103256755));
#512=CARTESIAN_POINT('',(-1.84707917730629E-15,-0.766339131129398,11.9544496345239));
#513=CARTESIAN_POINT('',(7.99999999999999,-11.93717478,1.));
#514=CARTESIAN_POINT('',(7.99999999999999,-13.0421173005571,-12.1898919897443));
#515=CARTESIAN_POINT('',(7.99999999999999,-1.06323230325809,-17.8202084014871));
#516=CARTESIAN_POINT('',(7.99999999999999,8.38718117852443,-8.55285528971894));
#517=CARTESIAN_POINT('',(7.99999999999999,17.837594660307,0.714497822049249));
#518=CARTESIAN_POINT('',(7.99999999999999,12.4426405799148,12.8012103256755));
#519=CARTESIAN_POINT('',(7.99999999999999,-0.766339131129398,11.9544496345239));
#520=CARTESIAN_POINT('',(8.,-3.93717478,1.));
#521=CARTESIAN_POINT('',(8.,-5.04211730055714,-3.35035182528721));
#522=CARTESIAN_POINT('',(8.,-1.34913370821514,-5.90149493460264));
#523=CARTESIAN_POINT('',(8.,2.32864320695563,-3.32847804003083));
#524=CARTESIAN_POINT('',(8.,6.00642012212639,-0.755461145459023));
#525=CARTESIAN_POINT('',(8.,4.87567670942907,3.58825596229058));
#526=CARTESIAN_POINT('',(8.,0.410131457105895,4.04142764826493));
#527=CARTESIAN_POINT('',(8.,0.410131457105896,4.04142764826493));
#528=CARTESIAN_POINT('',(8.,-1.68897506528692,4.25444881097684));
#529=CARTESIAN_POINT('',(8.,-3.41777750134427,3.04495786632396));
#530=CARTESIAN_POINT('',(8.,-3.93717478,1.));
#531=CARTESIAN_POINT('',(7.99999999999999,1.58660204534119,-3.871594337994));
#532=CARTESIAN_POINT('',(7.99999999999999,3.59749760855419,-3.04751755333417));
#533=CARTESIAN_POINT('',(7.99999999999999,4.58222249865572,-1.11022036292185));
#534=CARTESIAN_POINT('',(7.99999999999999,4.06282521999999,1.));
#535=CARTESIAN_POINT('',(1.12355701329479E-16,1.58660204534119,-3.871594337994));
#536=CARTESIAN_POINT('',(1.12355701329479E-16,3.59749760855419,-3.04751755333417));
#537=CARTESIAN_POINT('',(1.12355701329479E-16,4.58222249865572,-1.11022036292185));
#538=CARTESIAN_POINT('',(1.12355701329479E-16,4.06282522,0.999999999999999));
#539=CARTESIAN_POINT('',(-8.67361737988404E-16,0.410131457105896,4.04142764826493));
#540=CARTESIAN_POINT('',(-8.67361737988404E-16,-1.68897506528692,4.25444881097684));
#541=CARTESIAN_POINT('',(-8.67361737988404E-16,-3.41777750134427,3.04495786632396));
#542=CARTESIAN_POINT('',(-8.67361737988404E-16,-3.93717478,1.));
#543=CARTESIAN_POINT('',(-1.84707917730629E-15,-0.766339131129397,11.9544496345239));
#544=CARTESIAN_POINT('',(-1.84707917730628E-15,-6.97544773912802,11.5564151752879));
#545=CARTESIAN_POINT('',(-1.84707917730628E-15,-11.4177775013443,7.20013609556975));
#546=CARTESIAN_POINT('',(-1.84707917730629E-15,-11.93717478,1.));
#547=CARTESIAN_POINT('',(7.99999999999999,-0.766339131129397,11.9544496345239));
#548=CARTESIAN_POINT('',(7.99999999999999,-6.97544773912802,11.5564151752879));
#549=CARTESIAN_POINT('',(7.99999999999999,-11.4177775013443,7.20013609556975));
#550=CARTESIAN_POINT('',(7.99999999999999,-11.93717478,1.));
#551=CARTESIAN_POINT('',(8.,0.410131457105896,4.04142764826493));
#552=CARTESIAN_POINT('',(8.,-1.68897506528692,4.25444881097684));
#553=CARTESIAN_POINT('',(8.,-3.41777750134427,3.04495786632396));
#554=CARTESIAN_POINT('',(8.,-3.93717478,1.));
#555=MECHANICAL_DESIGN_GEOMETRIC_PRESENTATION_REPRESENTATION('',(#35,#36),
#556);
#556=(
GEOMETRIC_REPRESENTATION_CONTEXT(3)
GLOBAL_UNCERTAINTY_ASSIGNED_CONTEXT((#557))
GLOBAL_UNIT_ASSIGNED_CONTEXT((#563,#559,#558))
REPRESENTATION_CONTEXT('AEMR-RD0802Y-D16-M08-L23-Z02-H',
'TOP_LEVEL_ASSEMBLY_PART')
);
#557=UNCERTAINTY_MEASURE_WITH_UNIT(LENGTH_MEASURE(2.E-5),#563,
'DISTANCE_ACCURACY_VALUE','Maximum Tolerance applied to model');
#558=(
NAMED_UNIT(*)
SI_UNIT($,.STERADIAN.)
SOLID_ANGLE_UNIT()
);
#559=(
CONVERSION_BASED_UNIT('DEGREE',#561)
NAMED_UNIT(#560)
PLANE_ANGLE_UNIT()
);
#560=DIMENSIONAL_EXPONENTS(0.,0.,0.,0.,0.,0.,0.);
#561=PLANE_ANGLE_MEASURE_WITH_UNIT(PLANE_ANGLE_MEASURE(0.0174532925),#562);
#562=(
NAMED_UNIT(*)
PLANE_ANGLE_UNIT()
SI_UNIT($,.RADIAN.)
);
#563=(
LENGTH_UNIT()
NAMED_UNIT(*)
SI_UNIT(.MILLI.,.METRE.)
);
ENDSEC;
END-ISO-10303-21;
