ISO-10303-21;
HEADER;
/* Generated by software containing ST-Developer
 * from STEP Tools, Inc. (www.steptools.com) 
 */
/* OPTION: using custom schema-name function */

FILE_DESCRIPTION(
/* description */ (''),
/* implementation_level */ '2;1');

FILE_NAME(
/* name */ 'model1.stp',
/* time_stamp */ '2023-11-06T19:48:02+03:00',
/* author */ (''),
/* organization */ (''),
/* preprocessor_version */ 'ST-DEVELOPER v19.4',
/* originating_system */ 'SIEMENS PLM Software NX2306.3001',
/* authorisation */ '');

FILE_SCHEMA (('AUTOMOTIVE_DESIGN { 1 0 10303 214 3 1 1 1 }'));
ENDSEC;

DATA;
#10=PROPERTY_DEFINITION_REPRESENTATION(#14,#12);
#11=PROPERTY_DEFINITION_REPRESENTATION(#15,#13);
#12=REPRESENTATION('',(#16),#422);
#13=REPRESENTATION('',(#17),#422);
#14=PROPERTY_DEFINITION('pmi validation property','',#21);
#15=PROPERTY_DEFINITION('pmi validation property','',#21);
#16=VALUE_REPRESENTATION_ITEM('number of annotations',COUNT_MEASURE(0.));
#17=VALUE_REPRESENTATION_ITEM('number of views',COUNT_MEASURE(0.));
#18=SHAPE_REPRESENTATION_RELATIONSHIP('None',
'relationship between model1_objects-None and model1_objects-None',#30,
#19);
#19=ADVANCED_BREP_SHAPE_REPRESENTATION('model1_objects-None',(#131,#132),
#422);
#20=SHAPE_DEFINITION_REPRESENTATION(#21,#30);
#21=PRODUCT_DEFINITION_SHAPE('','',#22);
#22=PRODUCT_DEFINITION(' ','',#24,#23);
#23=PRODUCT_DEFINITION_CONTEXT('part definition',#29,'design');
#24=PRODUCT_DEFINITION_FORMATION_WITH_SPECIFIED_SOURCE(' ',' ',#26,
 .NOT_KNOWN.);
#25=PRODUCT_RELATED_PRODUCT_CATEGORY('part','',(#26));
#26=PRODUCT('model1_objects','model1_objects',' ',(#27));
#27=PRODUCT_CONTEXT(' ',#29,'mechanical');
#28=APPLICATION_PROTOCOL_DEFINITION('international standard',
'automotive_design',2010,#29);
#29=APPLICATION_CONTEXT(
'core data for automotive mechanical design processes');
#30=SHAPE_REPRESENTATION('model1_objects-None',(#246),#422);
#31=OVER_RIDING_STYLED_ITEM('',(#60),#137,#57);
#32=OVER_RIDING_STYLED_ITEM('',(#61),#138,#57);
#33=OVER_RIDING_STYLED_ITEM('',(#62),#139,#57);
#34=OVER_RIDING_STYLED_ITEM('',(#63),#140,#57);
#35=OVER_RIDING_STYLED_ITEM('',(#64),#141,#57);
#36=OVER_RIDING_STYLED_ITEM('',(#65),#142,#57);
#37=OVER_RIDING_STYLED_ITEM('',(#66),#143,#57);
#38=OVER_RIDING_STYLED_ITEM('',(#67),#144,#57);
#39=OVER_RIDING_STYLED_ITEM('',(#68),#145,#57);
#40=OVER_RIDING_STYLED_ITEM('',(#69),#146,#57);
#41=COLOUR_RGB('Medium Steel',0.611764705882353,0.658823529411765,0.670588235294118);
#42=COLOUR_RGB('silver gray',0.6,0.6,0.6);
#43=PLANE('',#260);
#44=PLANE('',#262);
#45=FACE_OUTER_BOUND('',#183,.T.);
#46=FACE_OUTER_BOUND('',#184,.T.);
#47=TOROIDAL_SURFACE('',#259,8.25,1.5);
#48=TOROIDAL_SURFACE('',#264,3.875,3.);
#49=CYLINDRICAL_SURFACE('',#253,10.);
#50=CYLINDRICAL_SURFACE('',#257,9.75);
#51=CYLINDRICAL_SURFACE('',#266,6.875);
#52=CONICAL_SURFACE('',#251,10.,44.9999999999998);
#53=CONICAL_SURFACE('',#255,9.75,9.99999999999998);
#54=CONICAL_SURFACE('',#267,9.75,5.4741282006092);
#55=PRESENTATION_LAYER_ASSIGNMENT('1','Layer 1',(#131,#132));
#56=STYLED_ITEM('',(#58),#131);
#57=STYLED_ITEM('',(#59),#132);
#58=PRESENTATION_STYLE_ASSIGNMENT((#70));
#59=PRESENTATION_STYLE_ASSIGNMENT((#71));
#60=PRESENTATION_STYLE_ASSIGNMENT((#72));
#61=PRESENTATION_STYLE_ASSIGNMENT((#73));
#62=PRESENTATION_STYLE_ASSIGNMENT((#74));
#63=PRESENTATION_STYLE_ASSIGNMENT((#75));
#64=PRESENTATION_STYLE_ASSIGNMENT((#76));
#65=PRESENTATION_STYLE_ASSIGNMENT((#77));
#66=PRESENTATION_STYLE_ASSIGNMENT((#78));
#67=PRESENTATION_STYLE_ASSIGNMENT((#79));
#68=PRESENTATION_STYLE_ASSIGNMENT((#80));
#69=PRESENTATION_STYLE_ASSIGNMENT((#81));
#70=SURFACE_STYLE_USAGE(.BOTH.,#82);
#71=SURFACE_STYLE_USAGE(.BOTH.,#83);
#72=SURFACE_STYLE_USAGE(.BOTH.,#84);
#73=SURFACE_STYLE_USAGE(.BOTH.,#85);
#74=SURFACE_STYLE_USAGE(.BOTH.,#86);
#75=SURFACE_STYLE_USAGE(.BOTH.,#87);
#76=SURFACE_STYLE_USAGE(.BOTH.,#88);
#77=SURFACE_STYLE_USAGE(.BOTH.,#89);
#78=SURFACE_STYLE_USAGE(.BOTH.,#90);
#79=SURFACE_STYLE_USAGE(.BOTH.,#91);
#80=SURFACE_STYLE_USAGE(.BOTH.,#92);
#81=SURFACE_STYLE_USAGE(.BOTH.,#93);
#82=SURFACE_SIDE_STYLE('',(#94));
#83=SURFACE_SIDE_STYLE('',(#95));
#84=SURFACE_SIDE_STYLE('',(#96));
#85=SURFACE_SIDE_STYLE('',(#97));
#86=SURFACE_SIDE_STYLE('',(#98));
#87=SURFACE_SIDE_STYLE('',(#99));
#88=SURFACE_SIDE_STYLE('',(#100));
#89=SURFACE_SIDE_STYLE('',(#101));
#90=SURFACE_SIDE_STYLE('',(#102));
#91=SURFACE_SIDE_STYLE('',(#103));
#92=SURFACE_SIDE_STYLE('',(#104));
#93=SURFACE_SIDE_STYLE('',(#105));
#94=SURFACE_STYLE_FILL_AREA(#106);
#95=SURFACE_STYLE_FILL_AREA(#107);
#96=SURFACE_STYLE_FILL_AREA(#108);
#97=SURFACE_STYLE_FILL_AREA(#109);
#98=SURFACE_STYLE_FILL_AREA(#110);
#99=SURFACE_STYLE_FILL_AREA(#111);
#100=SURFACE_STYLE_FILL_AREA(#112);
#101=SURFACE_STYLE_FILL_AREA(#113);
#102=SURFACE_STYLE_FILL_AREA(#114);
#103=SURFACE_STYLE_FILL_AREA(#115);
#104=SURFACE_STYLE_FILL_AREA(#116);
#105=SURFACE_STYLE_FILL_AREA(#117);
#106=FILL_AREA_STYLE('',(#118));
#107=FILL_AREA_STYLE('',(#119));
#108=FILL_AREA_STYLE('',(#120));
#109=FILL_AREA_STYLE('',(#121));
#110=FILL_AREA_STYLE('',(#122));
#111=FILL_AREA_STYLE('',(#123));
#112=FILL_AREA_STYLE('',(#124));
#113=FILL_AREA_STYLE('',(#125));
#114=FILL_AREA_STYLE('',(#126));
#115=FILL_AREA_STYLE('',(#127));
#116=FILL_AREA_STYLE('',(#128));
#117=FILL_AREA_STYLE('',(#129));
#118=FILL_AREA_STYLE_COLOUR('',#130);
#119=FILL_AREA_STYLE_COLOUR('',#41);
#120=FILL_AREA_STYLE_COLOUR('',#42);
#121=FILL_AREA_STYLE_COLOUR('',#42);
#122=FILL_AREA_STYLE_COLOUR('',#42);
#123=FILL_AREA_STYLE_COLOUR('',#42);
#124=FILL_AREA_STYLE_COLOUR('',#42);
#125=FILL_AREA_STYLE_COLOUR('',#42);
#126=FILL_AREA_STYLE_COLOUR('',#42);
#127=FILL_AREA_STYLE_COLOUR('',#42);
#128=FILL_AREA_STYLE_COLOUR('',#42);
#129=FILL_AREA_STYLE_COLOUR('',#42);
#130=DRAUGHTING_PRE_DEFINED_COLOUR('yellow');
#131=MANIFOLD_SOLID_BREP('',#133);
#132=MANIFOLD_SOLID_BREP('',#134);
#133=CLOSED_SHELL('',(#135,#136));
#134=CLOSED_SHELL('',(#137,#138,#139,#140,#141,#142,#143,#144,#145,#146));
#135=ADVANCED_FACE('',(#149,#150),#147,.T.);
#136=ADVANCED_FACE('',(#151,#152),#148,.T.);
#137=ADVANCED_FACE('',(#153,#154),#52,.T.);
#138=ADVANCED_FACE('',(#155,#156),#49,.T.);
#139=ADVANCED_FACE('',(#157,#158),#53,.T.);
#140=ADVANCED_FACE('',(#159,#160),#50,.T.);
#141=ADVANCED_FACE('',(#161,#162),#47,.T.);
#142=ADVANCED_FACE('',(#45),#43,.T.);
#143=ADVANCED_FACE('',(#46),#44,.T.);
#144=ADVANCED_FACE('',(#163,#164),#48,.T.);
#145=ADVANCED_FACE('',(#165,#166),#51,.T.);
#146=ADVANCED_FACE('',(#167,#168),#54,.T.);
#147=(
BOUNDED_SURFACE()
B_SPLINE_SURFACE(3,3,((#317,#318,#319,#320,#321,#322,#323),(#324,#325,#326,
#327,#328,#329,#330),(#331,#332,#333,#334,#335,#336,#337),(#338,#339,#340,
#341,#342,#343,#344),(#345,#346,#347,#348,#349,#350,#351),(#352,#353,#354,
#355,#356,#357,#358),(#359,#360,#361,#362,#363,#364,#365)),
 .UNSPECIFIED.,.T.,.F.,.F.)
B_SPLINE_SURFACE_WITH_KNOTS((1,3,3,3,1),(4,3,4),(-0.5,0.,0.5,1.,1.5),(0.,
0.5,1.),.UNSPECIFIED.)
GEOMETRIC_REPRESENTATION_ITEM()
RATIONAL_B_SPLINE_SURFACE(((1.,0.768699533558519,0.768699533558519,1.,0.768699533558519,
0.768699533558519,1.),(0.333333333333334,0.25623317785284,0.25623317785284,
0.333333333333334,0.25623317785284,0.25623317785284,0.333333333333334),
(0.333333333333334,0.25623317785284,0.25623317785284,0.333333333333334,
0.25623317785284,0.25623317785284,0.333333333333334),(1.,0.768699533558519,
0.768699533558519,1.,0.768699533558519,0.768699533558519,1.),(0.333333333333334,
0.25623317785284,0.25623317785284,0.333333333333334,0.25623317785284,0.25623317785284,
0.333333333333334),(0.333333333333334,0.25623317785284,0.25623317785284,
0.333333333333334,0.25623317785284,0.25623317785284,0.333333333333334),
(1.,0.768699533558519,0.768699533558519,1.,0.768699533558519,0.768699533558519,
1.)))
REPRESENTATION_ITEM('')
SURFACE()
);
#148=(
BOUNDED_SURFACE()
B_SPLINE_SURFACE(3,3,((#366,#367,#368,#369),(#370,#371,#372,#373),(#374,
#375,#376,#377),(#378,#379,#380,#381),(#382,#383,#384,#385),(#386,#387,
#388,#389),(#390,#391,#392,#393)),.UNSPECIFIED.,.T.,.F.,.F.)
B_SPLINE_SURFACE_WITH_KNOTS((1,3,3,3,1),(4,4),(-0.5,0.,0.5,1.,1.5),(0.,
1.),.UNSPECIFIED.)
GEOMETRIC_REPRESENTATION_ITEM()
RATIONAL_B_SPLINE_SURFACE(((1.,0.43136881510445,0.43136881510445,1.),(0.333333333333334,
0.143789605034817,0.143789605034817,0.333333333333334),(0.333333333333334,
0.143789605034817,0.143789605034817,0.333333333333334),(1.,0.43136881510445,
0.43136881510445,1.),(0.333333333333334,0.143789605034817,0.143789605034817,
0.333333333333334),(0.333333333333334,0.143789605034817,0.143789605034817,
0.333333333333334),(1.,0.43136881510445,0.43136881510445,1.)))
REPRESENTATION_ITEM('')
SURFACE()
);
#149=FACE_BOUND('',#169,.T.);
#150=FACE_BOUND('',#170,.T.);
#151=FACE_BOUND('',#171,.T.);
#152=FACE_BOUND('',#172,.T.);
#153=FACE_BOUND('',#173,.T.);
#154=FACE_BOUND('',#174,.T.);
#155=FACE_BOUND('',#175,.T.);
#156=FACE_BOUND('',#176,.T.);
#157=FACE_BOUND('',#177,.T.);
#158=FACE_BOUND('',#178,.T.);
#159=FACE_BOUND('',#179,.T.);
#160=FACE_BOUND('',#180,.T.);
#161=FACE_BOUND('',#181,.T.);
#162=FACE_BOUND('',#182,.T.);
#163=FACE_BOUND('',#185,.T.);
#164=FACE_BOUND('',#186,.T.);
#165=FACE_BOUND('',#187,.T.);
#166=FACE_BOUND('',#188,.T.);
#167=FACE_BOUND('',#189,.T.);
#168=FACE_BOUND('',#190,.T.);
#169=EDGE_LOOP('',(#191));
#170=EDGE_LOOP('',(#192));
#171=EDGE_LOOP('',(#193));
#172=EDGE_LOOP('',(#194));
#173=EDGE_LOOP('',(#195));
#174=EDGE_LOOP('',(#196));
#175=EDGE_LOOP('',(#197));
#176=EDGE_LOOP('',(#198));
#177=EDGE_LOOP('',(#199));
#178=EDGE_LOOP('',(#200));
#179=EDGE_LOOP('',(#201));
#180=EDGE_LOOP('',(#202));
#181=EDGE_LOOP('',(#203));
#182=EDGE_LOOP('',(#204));
#183=EDGE_LOOP('',(#205));
#184=EDGE_LOOP('',(#206));
#185=EDGE_LOOP('',(#207));
#186=EDGE_LOOP('',(#208));
#187=EDGE_LOOP('',(#209));
#188=EDGE_LOOP('',(#210));
#189=EDGE_LOOP('',(#211));
#190=EDGE_LOOP('',(#212));
#191=ORIENTED_EDGE('',*,*,#224,.F.);
#192=ORIENTED_EDGE('',*,*,#225,.T.);
#193=ORIENTED_EDGE('',*,*,#225,.F.);
#194=ORIENTED_EDGE('',*,*,#224,.T.);
#195=ORIENTED_EDGE('',*,*,#226,.T.);
#196=ORIENTED_EDGE('',*,*,#227,.F.);
#197=ORIENTED_EDGE('',*,*,#227,.T.);
#198=ORIENTED_EDGE('',*,*,#228,.F.);
#199=ORIENTED_EDGE('',*,*,#228,.T.);
#200=ORIENTED_EDGE('',*,*,#229,.F.);
#201=ORIENTED_EDGE('',*,*,#229,.T.);
#202=ORIENTED_EDGE('',*,*,#230,.F.);
#203=ORIENTED_EDGE('',*,*,#230,.T.);
#204=ORIENTED_EDGE('',*,*,#231,.F.);
#205=ORIENTED_EDGE('',*,*,#231,.T.);
#206=ORIENTED_EDGE('',*,*,#232,.F.);
#207=ORIENTED_EDGE('',*,*,#232,.T.);
#208=ORIENTED_EDGE('',*,*,#233,.F.);
#209=ORIENTED_EDGE('',*,*,#233,.T.);
#210=ORIENTED_EDGE('',*,*,#234,.F.);
#211=ORIENTED_EDGE('',*,*,#234,.T.);
#212=ORIENTED_EDGE('',*,*,#226,.F.);
#213=VERTEX_POINT('',#314);
#214=VERTEX_POINT('',#316);
#215=VERTEX_POINT('',#395);
#216=VERTEX_POINT('',#397);
#217=VERTEX_POINT('',#400);
#218=VERTEX_POINT('',#403);
#219=VERTEX_POINT('',#406);
#220=VERTEX_POINT('',#409);
#221=VERTEX_POINT('',#413);
#222=VERTEX_POINT('',#416);
#223=VERTEX_POINT('',#419);
#224=EDGE_CURVE('',#213,#213,#235,.T.);
#225=EDGE_CURVE('',#214,#214,#236,.T.);
#226=EDGE_CURVE('',#215,#215,#237,.T.);
#227=EDGE_CURVE('',#216,#216,#238,.T.);
#228=EDGE_CURVE('',#217,#217,#239,.T.);
#229=EDGE_CURVE('',#218,#218,#240,.T.);
#230=EDGE_CURVE('',#219,#219,#241,.T.);
#231=EDGE_CURVE('',#220,#220,#242,.T.);
#232=EDGE_CURVE('',#221,#221,#243,.T.);
#233=EDGE_CURVE('',#222,#222,#244,.T.);
#234=EDGE_CURVE('',#223,#223,#245,.T.);
#235=CIRCLE('',#247,4.);
#236=CIRCLE('',#248,4.);
#237=CIRCLE('',#249,9.75);
#238=CIRCLE('',#250,10.);
#239=CIRCLE('',#252,10.);
#240=CIRCLE('',#254,9.75);
#241=CIRCLE('',#256,9.75);
#242=CIRCLE('',#258,8.25);
#243=CIRCLE('',#261,1.63893202250024);
#244=CIRCLE('',#263,6.875);
#245=CIRCLE('',#265,6.875);
#246=AXIS2_PLACEMENT_3D('',#312,#268,#269);
#247=AXIS2_PLACEMENT_3D('',#313,#270,#271);
#248=AXIS2_PLACEMENT_3D('',#315,#272,#273);
#249=AXIS2_PLACEMENT_3D('',#394,#274,#275);
#250=AXIS2_PLACEMENT_3D('',#396,#276,#277);
#251=AXIS2_PLACEMENT_3D('',#398,#278,#279);
#252=AXIS2_PLACEMENT_3D('',#399,#280,#281);
#253=AXIS2_PLACEMENT_3D('',#401,#282,#283);
#254=AXIS2_PLACEMENT_3D('',#402,#284,#285);
#255=AXIS2_PLACEMENT_3D('',#404,#286,#287);
#256=AXIS2_PLACEMENT_3D('',#405,#288,#289);
#257=AXIS2_PLACEMENT_3D('',#407,#290,#291);
#258=AXIS2_PLACEMENT_3D('',#408,#292,#293);
#259=AXIS2_PLACEMENT_3D('',#410,#294,#295);
#260=AXIS2_PLACEMENT_3D('',#411,#296,#297);
#261=AXIS2_PLACEMENT_3D('',#412,#298,#299);
#262=AXIS2_PLACEMENT_3D('',#414,#300,#301);
#263=AXIS2_PLACEMENT_3D('',#415,#302,#303);
#264=AXIS2_PLACEMENT_3D('',#417,#304,#305);
#265=AXIS2_PLACEMENT_3D('',#418,#306,#307);
#266=AXIS2_PLACEMENT_3D('',#420,#308,#309);
#267=AXIS2_PLACEMENT_3D('',#421,#310,#311);
#268=DIRECTION('',(0.,0.,1.));
#269=DIRECTION('',(1.,0.,0.));
#270=DIRECTION('',(0.,0.,1.));
#271=DIRECTION('',(1.,0.,0.));
#272=DIRECTION('',(-4.46225757485461E-17,0.29090909090909,-0.956750699412573));
#273=DIRECTION('',(1.,2.16840434497101E-16,5.42101086242752E-17));
#274=DIRECTION('',(1.,1.53390104135628E-16,0.));
#275=DIRECTION('',(0.,1.,0.));
#276=DIRECTION('',(1.,1.53390104135628E-16,0.));
#277=DIRECTION('',(0.,1.,0.));
#278=DIRECTION('',(1.,1.53390104135628E-16,0.));
#279=DIRECTION('',(-3.02288447298931E-16,1.,0.));
#280=DIRECTION('',(1.,1.53390104135628E-16,0.));
#281=DIRECTION('',(0.,1.,0.));
#282=DIRECTION('',(1.,1.53390104135628E-16,0.));
#283=DIRECTION('',(0.,1.,0.));
#284=DIRECTION('',(1.,1.53390104135628E-16,0.));
#285=DIRECTION('',(0.,1.,0.));
#286=DIRECTION('',(-1.,-1.53390104135628E-16,0.));
#287=DIRECTION('',(-2.9832358102494E-16,-1.,0.));
#288=DIRECTION('',(1.,1.53390104135628E-16,0.));
#289=DIRECTION('',(0.,1.,0.));
#290=DIRECTION('',(1.,1.53390104135628E-16,0.));
#291=DIRECTION('',(0.,1.,0.));
#292=DIRECTION('',(1.,1.53390104135628E-16,0.));
#293=DIRECTION('',(0.,1.,0.));
#294=DIRECTION('',(1.,1.53390104135628E-16,0.));
#295=DIRECTION('',(0.,1.,0.));
#296=DIRECTION('',(1.,1.53390104135628E-16,0.));
#297=DIRECTION('',(-1.66533453693773E-16,1.,0.));
#298=DIRECTION('',(1.,1.53390104135628E-16,0.));
#299=DIRECTION('',(-2.64611871047958E-16,1.,0.));
#300=DIRECTION('',(-1.,-1.53390104135628E-16,0.));
#301=DIRECTION('',(1.53523027623947E-16,-1.,0.));
#302=DIRECTION('',(1.,1.53390104135628E-16,0.));
#303=DIRECTION('',(-1.26161707343768E-16,1.,0.));
#304=DIRECTION('',(1.,1.53390104135628E-16,0.));
#305=DIRECTION('',(-1.26161707343768E-16,1.,0.));
#306=DIRECTION('',(1.,1.53390104135628E-16,0.));
#307=DIRECTION('',(0.,1.,0.));
#308=DIRECTION('',(1.,1.53390104135628E-16,0.));
#309=DIRECTION('',(0.,1.,0.));
#310=DIRECTION('',(1.,1.53390104135628E-16,0.));
#311=DIRECTION('',(5.25756759885631E-16,1.,0.));
#312=CARTESIAN_POINT('',(0.,0.,0.));
#313=CARTESIAN_POINT('',(4.,-3.74514411,2.));
#314=CARTESIAN_POINT('',(8.,-3.74514411,2.));
#315=CARTESIAN_POINT('',(4.,4.16498742846156,-0.824004930461514));
#316=CARTESIAN_POINT('',(8.,4.16498742846156,-0.824004930461514));
#317=CARTESIAN_POINT('',(8.,4.16498742846156,-0.824004930461514));
#318=CARTESIAN_POINT('',(8.,3.62378626621103,-3.55954200519692));
#319=CARTESIAN_POINT('',(8.,1.19869087866392,-4.93612260457021));
#320=CARTESIAN_POINT('',(8.,-1.42752165126558,-3.9985355243934));
#321=CARTESIAN_POINT('',(8.,-4.05373418119509,-3.06094844421658));
#322=CARTESIAN_POINT('',(8.,-5.05873130406552,-0.459786671412864));
#323=CARTESIAN_POINT('',(8.,-3.74514411000005,2.));
#324=CARTESIAN_POINT('',(8.,-3.48901816683902,-3.15127765773423));
#325=CARTESIAN_POINT('',(8.,-5.55875715491117,-0.859712865823488));
#326=CARTESIAN_POINT('',(8.,-5.1749614516135,2.20423712273721));
#327=CARTESIAN_POINT('',(8.,-2.60394743251898,3.91449312342549));
#328=CARTESIAN_POINT('',(8.,-0.0329334134244545,5.62474912411376));
#329=CARTESIAN_POINT('',(8.,2.94126869593448,4.794562104849));
#330=CARTESIAN_POINT('',(8.,4.25485588999995,2.00000000000001));
#331=CARTESIAN_POINT('',(1.30018934932121E-15,-3.48901816683903,-3.15127765773423));
#332=CARTESIAN_POINT('',(1.61766682823516E-15,-5.55875715491118,-0.859712865823488));
#333=CARTESIAN_POINT('',(1.55879636533952E-15,-5.1749614516135,2.20423712273721));
#334=CARTESIAN_POINT('',(1.16442825721645E-15,-2.60394743251898,3.91449312342549));
#335=CARTESIAN_POINT('',(7.70060149093384E-16,-0.032933413424455,5.62474912411376));
#336=CARTESIAN_POINT('',(3.13846977818407E-16,2.94126869593448,4.794562104849));
#337=CARTESIAN_POINT('',(1.12355701329478E-16,4.25485588999995,2.00000000000001));
#338=CARTESIAN_POINT('',(-2.08069763839954E-15,4.16498742846156,-0.824004930461514));
#339=CARTESIAN_POINT('',(-1.99768273576361E-15,3.62378626621103,-3.55954200519691));
#340=CARTESIAN_POINT('',(-1.62569710172893E-15,1.19869087866392,-4.93612260457021));
#341=CARTESIAN_POINT('',(-1.22286208828075E-15,-1.42752165126558,-3.9985355243934));
#342=CARTESIAN_POINT('',(-8.20027074832572E-16,-4.05373418119509,-3.06094844421658));
#343=CARTESIAN_POINT('',(-6.65870461499475E-16,-5.05873130406552,-0.459786671412864));
#344=CARTESIAN_POINT('',(-8.67361737988405E-16,-3.74514411000005,2.));
#345=CARTESIAN_POINT('',(-5.46158462612028E-15,11.8189930237621,1.5032677968112));
#346=CARTESIAN_POINT('',(-5.61303229976237E-15,12.8063296873332,-6.25937114457033));
#347=CARTESIAN_POINT('',(-4.81019056879738E-15,7.57234320894135,-12.0764823318776));
#348=CARTESIAN_POINT('',(-3.61015243377795E-15,-0.251095870012185,-11.9115641722123));
#349=CARTESIAN_POINT('',(-2.41011429875853E-15,-8.07453494896572,-11.7466460125469));
#350=CARTESIAN_POINT('',(-1.64558790081736E-15,-13.0587313040655,-5.71413544767473));
#351=CARTESIAN_POINT('',(-1.84707917730629E-15,-11.74514411,2.00000000000001));
#352=CARTESIAN_POINT('',(7.99999999999999,11.8189930237621,1.5032677968112));
#353=CARTESIAN_POINT('',(8.,12.8063296873332,-6.25937114457033));
#354=CARTESIAN_POINT('',(8.,7.57234320894135,-12.0764823318776));
#355=CARTESIAN_POINT('',(7.99999999999999,-0.251095870012183,-11.9115641722123));
#356=CARTESIAN_POINT('',(8.,-8.07453494896572,-11.7466460125469));
#357=CARTESIAN_POINT('',(8.,-13.0587313040655,-5.71413544767473));
#358=CARTESIAN_POINT('',(7.99999999999999,-11.74514411,2.00000000000001));
#359=CARTESIAN_POINT('',(8.,4.16498742846156,-0.824004930461514));
#360=CARTESIAN_POINT('',(8.,3.62378626621103,-3.55954200519692));
#361=CARTESIAN_POINT('',(8.,1.19869087866392,-4.93612260457021));
#362=CARTESIAN_POINT('',(8.,-1.42752165126558,-3.9985355243934));
#363=CARTESIAN_POINT('',(8.,-4.05373418119509,-3.06094844421658));
#364=CARTESIAN_POINT('',(8.,-5.05873130406552,-0.459786671412864));
#365=CARTESIAN_POINT('',(8.,-3.74514411000005,2.));
#366=CARTESIAN_POINT('',(8.,-3.74514411,2.));
#367=CARTESIAN_POINT('',(8.,-0.687811123028109,7.72507631423321));
#368=CARTESIAN_POINT('',(8.,5.42461615612526,5.54287179721782));
#369=CARTESIAN_POINT('',(8.,4.16498742846151,-0.82400493046152));
#370=CARTESIAN_POINT('',(7.99999999999999,4.25485588999999,2.));
#371=CARTESIAN_POINT('',(8.00000000000001,7.3121888769719,-4.50425563365436));
#372=CARTESIAN_POINT('',(8.00000000000001,1.32823440021013,-8.48482282454484));
#373=CARTESIAN_POINT('',(8.,-3.48901816683907,-3.15127765773423));
#374=CARTESIAN_POINT('',(1.12355701329479E-16,4.25485588999999,2.));
#375=CARTESIAN_POINT('',(-3.56608923919431E-16,7.3121888769719,-4.50425563365437));
#376=CARTESIAN_POINT('',(5.61270476413908E-16,1.32823440021013,-8.48482282454486));
#377=CARTESIAN_POINT('',(1.30018934932121E-15,-3.48901816683907,-3.15127765773423));
#378=CARTESIAN_POINT('',(-8.67361737988404E-16,-3.74514411,2.));
#379=CARTESIAN_POINT('',(-1.33632636323731E-15,-0.687811123028109,7.72507631423321));
#380=CARTESIAN_POINT('',(-2.27391222010811E-15,5.42461615612525,5.54287179721782));
#381=CARTESIAN_POINT('',(-2.08069763839954E-15,4.16498742846151,-0.824004930461521));
#382=CARTESIAN_POINT('',(-1.84707917730629E-15,-11.74514411,2.));
#383=CARTESIAN_POINT('',(-2.3160438025552E-15,-8.68781112302812,19.9544082621208));
#384=CARTESIAN_POINT('',(-5.10909491663013E-15,9.52099791204038,19.5705664189805));
#385=CARTESIAN_POINT('',(-5.46158462612028E-15,11.8189930237621,1.5032677968112));
#386=CARTESIAN_POINT('',(7.99999999999999,-11.74514411,2.));
#387=CARTESIAN_POINT('',(8.00000000000001,-8.68781112302812,19.9544082621208));
#388=CARTESIAN_POINT('',(8.,9.52099791204038,19.5705664189805));
#389=CARTESIAN_POINT('',(7.99999999999999,11.8189930237621,1.5032677968112));
#390=CARTESIAN_POINT('',(8.,-3.74514411,2.));
#391=CARTESIAN_POINT('',(8.,-0.687811123028109,7.72507631423321));
#392=CARTESIAN_POINT('',(8.,5.42461615612526,5.54287179721782));
#393=CARTESIAN_POINT('',(8.,4.16498742846151,-0.82400493046152));
#394=CARTESIAN_POINT('',(60.,-1.53513805832511E-14,0.));
#395=CARTESIAN_POINT('',(60.,9.74999999999998,0.));
#396=CARTESIAN_POINT('',(60.25,-1.53130330572173E-14,0.));
#397=CARTESIAN_POINT('',(60.25,9.99999999999998,0.));
#398=CARTESIAN_POINT('',(60.25,-1.53130330572173E-14,0.));
#399=CARTESIAN_POINT('',(194.582179545096,5.29219395197084E-15,0.));
#400=CARTESIAN_POINT('',(194.582179545096,10.,0.));
#401=CARTESIAN_POINT('',(200.,6.12323399573677E-15,0.));
#402=CARTESIAN_POINT('',(196.,5.50967357919426E-15,0.));
#403=CARTESIAN_POINT('',(196.,9.75000000000001,0.));
#404=CARTESIAN_POINT('',(196.,5.50967357919426E-15,0.));
#405=CARTESIAN_POINT('',(198.5,5.89314883953333E-15,0.));
#406=CARTESIAN_POINT('',(198.5,9.75000000000001,0.));
#407=CARTESIAN_POINT('',(200.,6.12323399573677E-15,0.));
#408=CARTESIAN_POINT('',(200.,6.12323399573677E-15,0.));
#409=CARTESIAN_POINT('',(200.,8.25000000000001,0.));
#410=CARTESIAN_POINT('',(198.5,6.93889390390723E-15,0.));
#411=CARTESIAN_POINT('',(200.,8.25,0.));
#412=CARTESIAN_POINT('',(2.,-2.42480066231176E-14,0.));
#413=CARTESIAN_POINT('',(2.,1.63893202250021,0.));
#414=CARTESIAN_POINT('',(2.,-2.42480066231176E-14,0.));
#415=CARTESIAN_POINT('',(4.,-2.39412264148463E-14,0.));
#416=CARTESIAN_POINT('',(4.,6.87499999999998,0.));
#417=CARTESIAN_POINT('',(4.,-2.38524477946811E-14,0.));
#418=CARTESIAN_POINT('',(30.,-1.995308370732E-14,0.));
#419=CARTESIAN_POINT('',(30.,6.87499999999998,0.));
#420=CARTESIAN_POINT('',(200.,6.12323399573677E-15,0.));
#421=CARTESIAN_POINT('',(60.,-1.53513805832511E-14,0.));
#422=(
GEOMETRIC_REPRESENTATION_CONTEXT(3)
GLOBAL_UNCERTAINTY_ASSIGNED_CONTEXT((#423))
GLOBAL_UNIT_ASSIGNED_CONTEXT((#429,#425,#424))
REPRESENTATION_CONTEXT('model1','TOP_LEVEL_ASSEMBLY_PART')
);
#423=UNCERTAINTY_MEASURE_WITH_UNIT(LENGTH_MEASURE(2.E-5),#429,
'DISTANCE_ACCURACY_VALUE','Maximum Tolerance applied to model');
#424=(
NAMED_UNIT(*)
SI_UNIT($,.STERADIAN.)
SOLID_ANGLE_UNIT()
);
#425=(
CONVERSION_BASED_UNIT('DEGREE',#427)
NAMED_UNIT(#426)
PLANE_ANGLE_UNIT()
);
#426=DIMENSIONAL_EXPONENTS(0.,0.,0.,0.,0.,0.,0.);
#427=PLANE_ANGLE_MEASURE_WITH_UNIT(PLANE_ANGLE_MEASURE(0.0174532925),#428);
#428=(
NAMED_UNIT(*)
PLANE_ANGLE_UNIT()
SI_UNIT($,.RADIAN.)
);
#429=(
LENGTH_UNIT()
NAMED_UNIT(*)
SI_UNIT(.MILLI.,.METRE.)
);
ENDSEC;
END-ISO-10303-21;
