ISO-10303-21;
HEADER;
/* Generated by software containing ST-Developer
 * from STEP Tools, Inc. (www.steptools.com) 
 */
/* OPTION: using custom schema-name function */

FILE_DESCRIPTION(
/* description */ (''),
/* implementation_level */ '2;1');

FILE_NAME(
/* name */ 'model1.stp',
/* time_stamp */ '2023-11-07T11:07:10+03:00',
/* author */ (''),
/* organization */ (''),
/* preprocessor_version */ 'ST-DEVELOPER v19.4',
/* originating_system */ 'SIEMENS PLM Software NX2306.3001',
/* authorisation */ '');

FILE_SCHEMA (('AUTOMOTIVE_DESIGN { 1 0 10303 214 3 1 1 1 }'));
ENDSEC;

DATA;
#10=PROPERTY_DEFINITION_REPRESENTATION(#14,#12);
#11=PROPERTY_DEFINITION_REPRESENTATION(#15,#13);
#12=REPRESENTATION('',(#16),#536);
#13=REPRESENTATION('',(#17),#536);
#14=PROPERTY_DEFINITION('pmi validation property','',#21);
#15=PROPERTY_DEFINITION('pmi validation property','',#21);
#16=VALUE_REPRESENTATION_ITEM('number of annotations',COUNT_MEASURE(0.));
#17=VALUE_REPRESENTATION_ITEM('number of views',COUNT_MEASURE(0.));
#18=SHAPE_REPRESENTATION_RELATIONSHIP('None',
'relationship between model1_objects-None and model1_objects-None',#30,
#19);
#19=ADVANCED_BREP_SHAPE_REPRESENTATION('model1_objects-None',(#149,#150),
#536);
#20=SHAPE_DEFINITION_REPRESENTATION(#21,#30);
#21=PRODUCT_DEFINITION_SHAPE('','',#22);
#22=PRODUCT_DEFINITION(' ','',#24,#23);
#23=PRODUCT_DEFINITION_CONTEXT('part definition',#29,'design');
#24=PRODUCT_DEFINITION_FORMATION_WITH_SPECIFIED_SOURCE(' ',' ',#26,
 .NOT_KNOWN.);
#25=PRODUCT_RELATED_PRODUCT_CATEGORY('part','',(#26));
#26=PRODUCT('model1_objects','model1_objects',' ',(#27));
#27=PRODUCT_CONTEXT(' ',#29,'mechanical');
#28=APPLICATION_PROTOCOL_DEFINITION('international standard',
'automotive_design',2010,#29);
#29=APPLICATION_CONTEXT(
'core data for automotive mechanical design processes');
#30=SHAPE_REPRESENTATION('model1_objects-None',(#284),#536);
#31=OVER_RIDING_STYLED_ITEM('',(#66),#155,#63);
#32=OVER_RIDING_STYLED_ITEM('',(#67),#156,#63);
#33=OVER_RIDING_STYLED_ITEM('',(#68),#157,#63);
#34=OVER_RIDING_STYLED_ITEM('',(#69),#158,#63);
#35=OVER_RIDING_STYLED_ITEM('',(#70),#159,#63);
#36=OVER_RIDING_STYLED_ITEM('',(#71),#160,#63);
#37=OVER_RIDING_STYLED_ITEM('',(#72),#161,#63);
#38=OVER_RIDING_STYLED_ITEM('',(#73),#162,#63);
#39=OVER_RIDING_STYLED_ITEM('',(#74),#163,#63);
#40=OVER_RIDING_STYLED_ITEM('',(#75),#164,#63);
#41=OVER_RIDING_STYLED_ITEM('',(#76),#165,#63);
#42=OVER_RIDING_STYLED_ITEM('',(#77),#166,#63);
#43=COLOUR_RGB('Medium Steel',0.611764705882353,0.658823529411765,0.670588235294118);
#44=COLOUR_RGB('silver gray',0.6,0.6,0.6);
#45=CYLINDRICAL_SURFACE('',#299,7.);
#46=CYLINDRICAL_SURFACE('',#305,8.);
#47=CYLINDRICAL_SURFACE('',#308,7.75);
#48=CONICAL_SURFACE('',#295,7.0489434837047,17.9999999999723);
#49=CONICAL_SURFACE('',#301,7.75,1.44412553093583);
#50=CONICAL_SURFACE('',#303,8.,45.0000000000001);
#51=CONICAL_SURFACE('',#307,7.75,9.99999999999998);
#52=SURFACE_OF_REVOLUTION('',#54,#53);
#53=AXIS1_PLACEMENT('',#513,#329);
#54=B_SPLINE_CURVE_WITH_KNOTS('',3,(#453,#454,#455,#456,#457,#458,#459,
#460,#461,#462,#463,#464,#465,#466,#467,#468,#469,#470,#471,#472,#473,#474,
#475,#476,#477,#478,#479,#480,#481,#482,#483,#484,#485,#486,#487,#488,#489,
#490,#491,#492,#493,#494,#495,#496,#497,#498,#499,#500,#501,#502,#503,#504,
#505,#506,#507,#508,#509,#510,#511,#512),.UNSPECIFIED.,.T.,.F.,(2,2,2,2,
2,2,2,2,2,2,2,2,2,2,2,2,2,2,2,2,2,2,2,2,2,2,2,2,2,2,2,2),(-0.0625,0.,0.0625,
0.09375,0.125,0.15625,0.1875,0.21875,0.25,0.28125,0.3125,0.34375,0.375,
0.40625,0.4375,0.46875,0.5,0.53125,0.5625,0.59375,0.625,0.65625,0.6875,
0.71875,0.75,0.8125,0.84375,0.875,0.90625,0.9375,1.,1.0625),
 .UNSPECIFIED.);
#55=PLANE('',#290);
#56=PLANE('',#292);
#57=FACE_OUTER_BOUND('',#199,.T.);
#58=FACE_OUTER_BOUND('',#200,.T.);
#59=TOROIDAL_SURFACE('',#289,6.75,1.);
#60=TOROIDAL_SURFACE('',#297,8.,1.);
#61=PRESENTATION_LAYER_ASSIGNMENT('1','Layer 1',(#149,#150));
#62=STYLED_ITEM('',(#64),#149);
#63=STYLED_ITEM('',(#65),#150);
#64=PRESENTATION_STYLE_ASSIGNMENT((#78));
#65=PRESENTATION_STYLE_ASSIGNMENT((#79));
#66=PRESENTATION_STYLE_ASSIGNMENT((#80));
#67=PRESENTATION_STYLE_ASSIGNMENT((#81));
#68=PRESENTATION_STYLE_ASSIGNMENT((#82));
#69=PRESENTATION_STYLE_ASSIGNMENT((#83));
#70=PRESENTATION_STYLE_ASSIGNMENT((#84));
#71=PRESENTATION_STYLE_ASSIGNMENT((#85));
#72=PRESENTATION_STYLE_ASSIGNMENT((#86));
#73=PRESENTATION_STYLE_ASSIGNMENT((#87));
#74=PRESENTATION_STYLE_ASSIGNMENT((#88));
#75=PRESENTATION_STYLE_ASSIGNMENT((#89));
#76=PRESENTATION_STYLE_ASSIGNMENT((#90));
#77=PRESENTATION_STYLE_ASSIGNMENT((#91));
#78=SURFACE_STYLE_USAGE(.BOTH.,#92);
#79=SURFACE_STYLE_USAGE(.BOTH.,#93);
#80=SURFACE_STYLE_USAGE(.BOTH.,#94);
#81=SURFACE_STYLE_USAGE(.BOTH.,#95);
#82=SURFACE_STYLE_USAGE(.BOTH.,#96);
#83=SURFACE_STYLE_USAGE(.BOTH.,#97);
#84=SURFACE_STYLE_USAGE(.BOTH.,#98);
#85=SURFACE_STYLE_USAGE(.BOTH.,#99);
#86=SURFACE_STYLE_USAGE(.BOTH.,#100);
#87=SURFACE_STYLE_USAGE(.BOTH.,#101);
#88=SURFACE_STYLE_USAGE(.BOTH.,#102);
#89=SURFACE_STYLE_USAGE(.BOTH.,#103);
#90=SURFACE_STYLE_USAGE(.BOTH.,#104);
#91=SURFACE_STYLE_USAGE(.BOTH.,#105);
#92=SURFACE_SIDE_STYLE('',(#106));
#93=SURFACE_SIDE_STYLE('',(#107));
#94=SURFACE_SIDE_STYLE('',(#108));
#95=SURFACE_SIDE_STYLE('',(#109));
#96=SURFACE_SIDE_STYLE('',(#110));
#97=SURFACE_SIDE_STYLE('',(#111));
#98=SURFACE_SIDE_STYLE('',(#112));
#99=SURFACE_SIDE_STYLE('',(#113));
#100=SURFACE_SIDE_STYLE('',(#114));
#101=SURFACE_SIDE_STYLE('',(#115));
#102=SURFACE_SIDE_STYLE('',(#116));
#103=SURFACE_SIDE_STYLE('',(#117));
#104=SURFACE_SIDE_STYLE('',(#118));
#105=SURFACE_SIDE_STYLE('',(#119));
#106=SURFACE_STYLE_FILL_AREA(#120);
#107=SURFACE_STYLE_FILL_AREA(#121);
#108=SURFACE_STYLE_FILL_AREA(#122);
#109=SURFACE_STYLE_FILL_AREA(#123);
#110=SURFACE_STYLE_FILL_AREA(#124);
#111=SURFACE_STYLE_FILL_AREA(#125);
#112=SURFACE_STYLE_FILL_AREA(#126);
#113=SURFACE_STYLE_FILL_AREA(#127);
#114=SURFACE_STYLE_FILL_AREA(#128);
#115=SURFACE_STYLE_FILL_AREA(#129);
#116=SURFACE_STYLE_FILL_AREA(#130);
#117=SURFACE_STYLE_FILL_AREA(#131);
#118=SURFACE_STYLE_FILL_AREA(#132);
#119=SURFACE_STYLE_FILL_AREA(#133);
#120=FILL_AREA_STYLE('',(#134));
#121=FILL_AREA_STYLE('',(#135));
#122=FILL_AREA_STYLE('',(#136));
#123=FILL_AREA_STYLE('',(#137));
#124=FILL_AREA_STYLE('',(#138));
#125=FILL_AREA_STYLE('',(#139));
#126=FILL_AREA_STYLE('',(#140));
#127=FILL_AREA_STYLE('',(#141));
#128=FILL_AREA_STYLE('',(#142));
#129=FILL_AREA_STYLE('',(#143));
#130=FILL_AREA_STYLE('',(#144));
#131=FILL_AREA_STYLE('',(#145));
#132=FILL_AREA_STYLE('',(#146));
#133=FILL_AREA_STYLE('',(#147));
#134=FILL_AREA_STYLE_COLOUR('',#148);
#135=FILL_AREA_STYLE_COLOUR('',#43);
#136=FILL_AREA_STYLE_COLOUR('',#44);
#137=FILL_AREA_STYLE_COLOUR('',#44);
#138=FILL_AREA_STYLE_COLOUR('',#44);
#139=FILL_AREA_STYLE_COLOUR('',#44);
#140=FILL_AREA_STYLE_COLOUR('',#44);
#141=FILL_AREA_STYLE_COLOUR('',#44);
#142=FILL_AREA_STYLE_COLOUR('',#44);
#143=FILL_AREA_STYLE_COLOUR('',#44);
#144=FILL_AREA_STYLE_COLOUR('',#44);
#145=FILL_AREA_STYLE_COLOUR('',#44);
#146=FILL_AREA_STYLE_COLOUR('',#44);
#147=FILL_AREA_STYLE_COLOUR('',#44);
#148=DRAUGHTING_PRE_DEFINED_COLOUR('yellow');
#149=MANIFOLD_SOLID_BREP('',#151);
#150=MANIFOLD_SOLID_BREP('',#152);
#151=CLOSED_SHELL('',(#153,#154));
#152=CLOSED_SHELL('',(#155,#156,#157,#158,#159,#160,#161,#162,#163,#164,
#165,#166));
#153=ADVANCED_FACE('',(#169,#170),#167,.F.);
#154=ADVANCED_FACE('',(#171,#172),#168,.F.);
#155=ADVANCED_FACE('',(#173,#174),#59,.T.);
#156=ADVANCED_FACE('',(#57),#55,.F.);
#157=ADVANCED_FACE('',(#58),#56,.F.);
#158=ADVANCED_FACE('',(#175,#176),#52,.T.);
#159=ADVANCED_FACE('',(#177,#178),#48,.T.);
#160=ADVANCED_FACE('',(#179,#180),#60,.F.);
#161=ADVANCED_FACE('',(#181,#182),#45,.T.);
#162=ADVANCED_FACE('',(#183,#184),#49,.T.);
#163=ADVANCED_FACE('',(#185,#186),#50,.T.);
#164=ADVANCED_FACE('',(#187,#188),#46,.T.);
#165=ADVANCED_FACE('',(#189,#190),#51,.T.);
#166=ADVANCED_FACE('',(#191,#192),#47,.T.);
#167=(
BOUNDED_SURFACE()
B_SPLINE_SURFACE(3,3,((#365,#366,#367,#368,#369,#370,#371),(#372,#373,#374,
#375,#376,#377,#378),(#379,#380,#381,#382,#383,#384,#385),(#386,#387,#388,
#389,#390,#391,#392),(#393,#394,#395,#396,#397,#398,#399),(#400,#401,#402,
#403,#404,#405,#406),(#407,#408,#409,#410,#411,#412,#413)),
 .UNSPECIFIED.,.T.,.F.,.F.)
B_SPLINE_SURFACE_WITH_KNOTS((1,3,3,3,1),(4,3,4),(-0.5,0.,0.5,1.,1.5),(0.,
0.5,1.),.UNSPECIFIED.)
GEOMETRIC_REPRESENTATION_ITEM()
RATIONAL_B_SPLINE_SURFACE(((1.,0.566615290633742,0.566615290633742,1.,0.566615290633742,
0.566615290633742,1.),(0.333333333333334,0.188871763544581,0.188871763544581,
0.333333333333334,0.188871763544581,0.188871763544581,0.333333333333334),
(0.333333333333334,0.188871763544581,0.188871763544581,0.333333333333334,
0.188871763544581,0.188871763544581,0.333333333333334),(1.,0.566615290633742,
0.566615290633742,1.,0.566615290633742,0.566615290633742,1.),(0.333333333333334,
0.188871763544581,0.188871763544581,0.333333333333334,0.188871763544581,
0.188871763544581,0.333333333333334),(0.333333333333334,0.188871763544581,
0.188871763544581,0.333333333333334,0.188871763544581,0.188871763544581,
0.333333333333334),(1.,0.566615290633742,0.566615290633742,1.,0.566615290633742,
0.566615290633742,1.)))
REPRESENTATION_ITEM('')
SURFACE()
);
#168=(
BOUNDED_SURFACE()
B_SPLINE_SURFACE(3,3,((#414,#415,#416,#417),(#418,#419,#420,#421),(#422,
#423,#424,#425),(#426,#427,#428,#429),(#430,#431,#432,#433),(#434,#435,
#436,#437),(#438,#439,#440,#441)),.UNSPECIFIED.,.T.,.F.,.F.)
B_SPLINE_SURFACE_WITH_KNOTS((1,3,3,3,1),(4,4),(-0.5,0.,0.5,1.,1.5),(0.,
1.),.UNSPECIFIED.)
GEOMETRIC_REPRESENTATION_ITEM()
RATIONAL_B_SPLINE_SURFACE(((1.,0.836738585194271,0.836738585194271,1.),
(0.333333333333334,0.278912861731423,0.278912861731423,0.333333333333334),
(0.333333333333334,0.278912861731423,0.278912861731423,0.333333333333334),
(1.,0.836738585194271,0.836738585194271,1.),(0.333333333333334,0.278912861731423,
0.278912861731423,0.333333333333334),(0.333333333333334,0.278912861731423,
0.278912861731423,0.333333333333334),(1.,0.836738585194271,0.836738585194271,
1.)))
REPRESENTATION_ITEM('')
SURFACE()
);
#169=FACE_BOUND('',#193,.T.);
#170=FACE_BOUND('',#194,.T.);
#171=FACE_BOUND('',#195,.T.);
#172=FACE_BOUND('',#196,.T.);
#173=FACE_BOUND('',#197,.T.);
#174=FACE_BOUND('',#198,.T.);
#175=FACE_BOUND('',#201,.T.);
#176=FACE_BOUND('',#202,.T.);
#177=FACE_BOUND('',#203,.T.);
#178=FACE_BOUND('',#204,.T.);
#179=FACE_BOUND('',#205,.T.);
#180=FACE_BOUND('',#206,.T.);
#181=FACE_BOUND('',#207,.T.);
#182=FACE_BOUND('',#208,.T.);
#183=FACE_BOUND('',#209,.T.);
#184=FACE_BOUND('',#210,.T.);
#185=FACE_BOUND('',#211,.T.);
#186=FACE_BOUND('',#212,.T.);
#187=FACE_BOUND('',#213,.T.);
#188=FACE_BOUND('',#214,.T.);
#189=FACE_BOUND('',#215,.T.);
#190=FACE_BOUND('',#216,.T.);
#191=FACE_BOUND('',#217,.T.);
#192=FACE_BOUND('',#218,.T.);
#193=EDGE_LOOP('',(#219));
#194=EDGE_LOOP('',(#220));
#195=EDGE_LOOP('',(#221));
#196=EDGE_LOOP('',(#222));
#197=EDGE_LOOP('',(#223));
#198=EDGE_LOOP('',(#224));
#199=EDGE_LOOP('',(#225));
#200=EDGE_LOOP('',(#226));
#201=EDGE_LOOP('',(#227));
#202=EDGE_LOOP('',(#228));
#203=EDGE_LOOP('',(#229));
#204=EDGE_LOOP('',(#230));
#205=EDGE_LOOP('',(#231));
#206=EDGE_LOOP('',(#232));
#207=EDGE_LOOP('',(#233));
#208=EDGE_LOOP('',(#234));
#209=EDGE_LOOP('',(#235));
#210=EDGE_LOOP('',(#236));
#211=EDGE_LOOP('',(#237));
#212=EDGE_LOOP('',(#238));
#213=EDGE_LOOP('',(#239));
#214=EDGE_LOOP('',(#240));
#215=EDGE_LOOP('',(#241));
#216=EDGE_LOOP('',(#242));
#217=EDGE_LOOP('',(#243));
#218=EDGE_LOOP('',(#244));
#219=ORIENTED_EDGE('',*,*,#258,.T.);
#220=ORIENTED_EDGE('',*,*,#259,.F.);
#221=ORIENTED_EDGE('',*,*,#259,.T.);
#222=ORIENTED_EDGE('',*,*,#258,.F.);
#223=ORIENTED_EDGE('',*,*,#260,.F.);
#224=ORIENTED_EDGE('',*,*,#261,.T.);
#225=ORIENTED_EDGE('',*,*,#261,.F.);
#226=ORIENTED_EDGE('',*,*,#262,.T.);
#227=ORIENTED_EDGE('',*,*,#262,.F.);
#228=ORIENTED_EDGE('',*,*,#263,.T.);
#229=ORIENTED_EDGE('',*,*,#263,.F.);
#230=ORIENTED_EDGE('',*,*,#264,.T.);
#231=ORIENTED_EDGE('',*,*,#264,.F.);
#232=ORIENTED_EDGE('',*,*,#265,.T.);
#233=ORIENTED_EDGE('',*,*,#265,.F.);
#234=ORIENTED_EDGE('',*,*,#266,.T.);
#235=ORIENTED_EDGE('',*,*,#266,.F.);
#236=ORIENTED_EDGE('',*,*,#267,.T.);
#237=ORIENTED_EDGE('',*,*,#267,.F.);
#238=ORIENTED_EDGE('',*,*,#268,.T.);
#239=ORIENTED_EDGE('',*,*,#268,.F.);
#240=ORIENTED_EDGE('',*,*,#269,.T.);
#241=ORIENTED_EDGE('',*,*,#269,.F.);
#242=ORIENTED_EDGE('',*,*,#270,.T.);
#243=ORIENTED_EDGE('',*,*,#270,.F.);
#244=ORIENTED_EDGE('',*,*,#260,.T.);
#245=VERTEX_POINT('',#362);
#246=VERTEX_POINT('',#364);
#247=VERTEX_POINT('',#443);
#248=VERTEX_POINT('',#445);
#249=VERTEX_POINT('',#449);
#250=VERTEX_POINT('',#452);
#251=VERTEX_POINT('',#515);
#252=VERTEX_POINT('',#518);
#253=VERTEX_POINT('',#521);
#254=VERTEX_POINT('',#524);
#255=VERTEX_POINT('',#527);
#256=VERTEX_POINT('',#530);
#257=VERTEX_POINT('',#533);
#258=EDGE_CURVE('',#245,#245,#271,.T.);
#259=EDGE_CURVE('',#246,#246,#272,.T.);
#260=EDGE_CURVE('',#247,#247,#273,.T.);
#261=EDGE_CURVE('',#248,#248,#274,.T.);
#262=EDGE_CURVE('',#249,#249,#275,.T.);
#263=EDGE_CURVE('',#250,#250,#276,.T.);
#264=EDGE_CURVE('',#251,#251,#277,.T.);
#265=EDGE_CURVE('',#252,#252,#278,.T.);
#266=EDGE_CURVE('',#253,#253,#279,.T.);
#267=EDGE_CURVE('',#254,#254,#280,.T.);
#268=EDGE_CURVE('',#255,#255,#281,.T.);
#269=EDGE_CURVE('',#256,#256,#282,.T.);
#270=EDGE_CURVE('',#257,#257,#283,.T.);
#271=CIRCLE('',#285,4.);
#272=CIRCLE('',#286,4.);
#273=CIRCLE('',#287,7.75);
#274=CIRCLE('',#288,6.75);
#275=CIRCLE('',#291,2.50139877398031);
#276=CIRCLE('',#293,7.12373428187303);
#277=CIRCLE('',#294,7.0489434837047);
#278=CIRCLE('',#296,7.);
#279=CIRCLE('',#298,7.);
#280=CIRCLE('',#300,7.75);
#281=CIRCLE('',#302,8.);
#282=CIRCLE('',#304,8.);
#283=CIRCLE('',#306,7.75);
#284=AXIS2_PLACEMENT_3D('',#360,#309,#310);
#285=AXIS2_PLACEMENT_3D('',#361,#311,#312);
#286=AXIS2_PLACEMENT_3D('',#363,#313,#314);
#287=AXIS2_PLACEMENT_3D('',#442,#315,#316);
#288=AXIS2_PLACEMENT_3D('',#444,#317,#318);
#289=AXIS2_PLACEMENT_3D('',#446,#319,#320);
#290=AXIS2_PLACEMENT_3D('',#447,#321,#322);
#291=AXIS2_PLACEMENT_3D('',#448,#323,#324);
#292=AXIS2_PLACEMENT_3D('',#450,#325,#326);
#293=AXIS2_PLACEMENT_3D('',#451,#327,#328);
#294=AXIS2_PLACEMENT_3D('',#514,#330,#331);
#295=AXIS2_PLACEMENT_3D('',#516,#332,#333);
#296=AXIS2_PLACEMENT_3D('',#517,#334,#335);
#297=AXIS2_PLACEMENT_3D('',#519,#336,#337);
#298=AXIS2_PLACEMENT_3D('',#520,#338,#339);
#299=AXIS2_PLACEMENT_3D('',#522,#340,#341);
#300=AXIS2_PLACEMENT_3D('',#523,#342,#343);
#301=AXIS2_PLACEMENT_3D('',#525,#344,#345);
#302=AXIS2_PLACEMENT_3D('',#526,#346,#347);
#303=AXIS2_PLACEMENT_3D('',#528,#348,#349);
#304=AXIS2_PLACEMENT_3D('',#529,#350,#351);
#305=AXIS2_PLACEMENT_3D('',#531,#352,#353);
#306=AXIS2_PLACEMENT_3D('',#532,#354,#355);
#307=AXIS2_PLACEMENT_3D('',#534,#356,#357);
#308=AXIS2_PLACEMENT_3D('',#535,#358,#359);
#309=DIRECTION('',(0.,0.,1.));
#310=DIRECTION('',(1.,0.,0.));
#311=DIRECTION('',(0.,0.990098293497269,0.140375814205281));
#312=DIRECTION('',(1.,0.,0.));
#313=DIRECTION('',(0.,0.,1.));
#314=DIRECTION('',(1.,0.,0.));
#315=DIRECTION('',(-1.,0.,0.));
#316=DIRECTION('',(0.,0.,1.));
#317=DIRECTION('',(-1.,0.,0.));
#318=DIRECTION('',(0.,0.,1.));
#319=DIRECTION('',(-1.,0.,0.));
#320=DIRECTION('',(0.,0.,1.));
#321=DIRECTION('',(-1.,0.,0.));
#322=DIRECTION('',(0.,0.,1.));
#323=DIRECTION('',(-1.,0.,0.));
#324=DIRECTION('',(0.,0.,1.));
#325=DIRECTION('',(1.,0.,0.));
#326=DIRECTION('',(0.,0.,-1.));
#327=DIRECTION('',(-1.,0.,0.));
#328=DIRECTION('',(0.,0.,1.));
#329=DIRECTION('',(-1.,0.,0.));
#330=DIRECTION('',(-1.,0.,0.));
#331=DIRECTION('',(0.,0.,1.));
#332=DIRECTION('',(-1.,0.,0.));
#333=DIRECTION('',(-3.3966168019645E-17,0.,1.));
#334=DIRECTION('',(-1.,0.,0.));
#335=DIRECTION('',(0.,0.,1.));
#336=DIRECTION('',(-1.,0.,0.));
#337=DIRECTION('',(0.,0.,1.));
#338=DIRECTION('',(-1.,0.,0.));
#339=DIRECTION('',(0.,0.,1.));
#340=DIRECTION('',(-1.,0.,0.));
#341=DIRECTION('',(0.,0.,1.));
#342=DIRECTION('',(-1.,0.,0.));
#343=DIRECTION('',(0.,0.,1.));
#344=DIRECTION('',(1.,0.,0.));
#345=DIRECTION('',(-8.42096627767191E-16,0.,-1.));
#346=DIRECTION('',(-1.,0.,0.));
#347=DIRECTION('',(0.,0.,1.));
#348=DIRECTION('',(1.,0.,0.));
#349=DIRECTION('',(5.5070586538946E-17,0.,-1.));
#350=DIRECTION('',(-1.,0.,0.));
#351=DIRECTION('',(0.,0.,1.));
#352=DIRECTION('',(-1.,0.,0.));
#353=DIRECTION('',(0.,0.,1.));
#354=DIRECTION('',(-1.,0.,0.));
#355=DIRECTION('',(0.,0.,1.));
#356=DIRECTION('',(-1.,0.,0.));
#357=DIRECTION('',(1.5078243628728E-16,0.,1.));
#358=DIRECTION('',(-1.,0.,0.));
#359=DIRECTION('',(0.,0.,1.));
#360=CARTESIAN_POINT('',(0.,0.,0.));
#361=CARTESIAN_POINT('',(4.,0.437414178086271,4.03856584508377));
#362=CARTESIAN_POINT('',(8.,0.437414178086271,4.03856584508377));
#363=CARTESIAN_POINT('',(4.,-3.93717478,1.));
#364=CARTESIAN_POINT('',(8.,-3.93717478,1.));
#365=CARTESIAN_POINT('',(8.,-3.93717478,1.));
#366=CARTESIAN_POINT('',(8.00000000000001,-5.03936704961114,-3.33952360662394));
#367=CARTESIAN_POINT('',(8.00000000000001,-1.35987703404124,-5.89053245744324));
#368=CARTESIAN_POINT('',(8.,2.31739113366827,-3.33632186424868));
#369=CARTESIAN_POINT('',(8.00000000000001,5.99465930137778,-0.782111271054121));
#370=CARTESIAN_POINT('',(8.00000000000001,4.88869023285317,3.55645131937878));
#371=CARTESIAN_POINT('',(8.,0.437414178086271,4.03856584508376));
#372=CARTESIAN_POINT('',(7.99999999999999,4.06282522,1.));
#373=CARTESIAN_POINT('',(7.99999999999998,2.96063295038886,5.47801455026516));
#374=CARTESIAN_POINT('',(7.99999999999998,-1.61995711214089,6.01246453916106));
#375=CARTESIAN_POINT('',(7.99999999999999,-3.72347188866297,1.90848260736235));
#376=CARTESIAN_POINT('',(7.99999999999998,-5.82698666518506,-2.19549932443637));
#377=CARTESIAN_POINT('',(7.99999999999998,-2.71853273548754,-5.60210412665882));
#378=CARTESIAN_POINT('',(7.99999999999999,1.56042069172852,-3.88222050289438));
#379=CARTESIAN_POINT('',(1.12355701329479E-16,4.06282522,1.));
#380=CARTESIAN_POINT('',(1.12355701329479E-16,2.96063295038886,5.47801455026516));
#381=CARTESIAN_POINT('',(1.12355701329479E-16,-1.61995711214089,6.01246453916106));
#382=CARTESIAN_POINT('',(1.12355701329479E-16,-3.72347188866297,1.90848260736235));
#383=CARTESIAN_POINT('',(1.12355701329479E-16,-5.82698666518506,-2.19549932443637));
#384=CARTESIAN_POINT('',(1.12355701329479E-16,-2.71853273548754,-5.60210412665882));
#385=CARTESIAN_POINT('',(1.12355701329479E-16,1.56042069172852,-3.88222050289439));
#386=CARTESIAN_POINT('',(-8.67361737988404E-16,-3.93717478,1.));
#387=CARTESIAN_POINT('',(-8.67361737988404E-16,-5.03936704961114,-3.33952360662394));
#388=CARTESIAN_POINT('',(-8.67361737988404E-16,-1.35987703404124,-5.89053245744324));
#389=CARTESIAN_POINT('',(-8.67361737988404E-16,2.31739113366827,-3.33632186424868));
#390=CARTESIAN_POINT('',(-8.67361737988404E-16,5.99465930137778,-0.782111271054122));
#391=CARTESIAN_POINT('',(-8.67361737988404E-16,4.88869023285317,3.55645131937878));
#392=CARTESIAN_POINT('',(-8.67361737988404E-16,0.437414178086271,4.03856584508376));
#393=CARTESIAN_POINT('',(-1.84707917730629E-15,-11.93717478,1.));
#394=CARTESIAN_POINT('',(-1.84707917730629E-15,-13.0393670496111,-12.157061763513));
#395=CARTESIAN_POINT('',(-1.84707917730629E-15,-1.09979695594159,-17.7935294540475));
#396=CARTESIAN_POINT('',(-1.84707917730629E-15,8.35825415599951,-8.58112633585969));
#397=CARTESIAN_POINT('',(-1.84707917730629E-15,17.8163052679406,0.631276782328131));
#398=CARTESIAN_POINT('',(-1.84707917730629E-15,12.4959132011939,12.7150067654164));
#399=CARTESIAN_POINT('',(-1.84707917730629E-15,-0.68559233555598,11.9593521930619));
#400=CARTESIAN_POINT('',(7.99999999999999,-11.93717478,1.));
#401=CARTESIAN_POINT('',(7.99999999999998,-13.0393670496111,-12.157061763513));
#402=CARTESIAN_POINT('',(7.99999999999998,-1.09979695594159,-17.7935294540475));
#403=CARTESIAN_POINT('',(7.99999999999999,8.35825415599951,-8.58112633585969));
#404=CARTESIAN_POINT('',(7.99999999999998,17.8163052679406,0.631276782328131));
#405=CARTESIAN_POINT('',(7.99999999999998,12.4959132011939,12.7150067654164));
#406=CARTESIAN_POINT('',(7.99999999999999,-0.68559233555598,11.9593521930619));
#407=CARTESIAN_POINT('',(8.,-3.93717478,1.));
#408=CARTESIAN_POINT('',(8.00000000000001,-5.03936704961114,-3.33952360662394));
#409=CARTESIAN_POINT('',(8.00000000000001,-1.35987703404124,-5.89053245744324));
#410=CARTESIAN_POINT('',(8.,2.31739113366827,-3.33632186424868));
#411=CARTESIAN_POINT('',(8.00000000000001,5.99465930137778,-0.782111271054121));
#412=CARTESIAN_POINT('',(8.00000000000001,4.88869023285317,3.55645131937878));
#413=CARTESIAN_POINT('',(8.,0.437414178086271,4.03856584508376));
#414=CARTESIAN_POINT('',(8.,0.437414178086271,4.03856584508377));
#415=CARTESIAN_POINT('',(7.99999999999999,-1.67211447060483,4.26704738417763));
#416=CARTESIAN_POINT('',(7.99999999999999,-3.41482879639815,3.05656743307148));
#417=CARTESIAN_POINT('',(8.,-3.93717478,1.));
#418=CARTESIAN_POINT('',(7.99999999999999,1.56042069172852,-3.88222050289439));
#419=CARTESIAN_POINT('',(8.00000000000001,3.58828297887214,-3.06714102184078));
#420=CARTESIAN_POINT('',(8.00000000000001,4.58517120360185,-1.12220043574329));
#421=CARTESIAN_POINT('',(7.99999999999999,4.06282522,1.));
#422=CARTESIAN_POINT('',(1.12355701329479E-16,1.56042069172852,-3.88222050289439));
#423=CARTESIAN_POINT('',(1.12355701329479E-16,3.58828297887214,-3.06714102184078));
#424=CARTESIAN_POINT('',(1.12355701329479E-16,4.58517120360185,-1.12220043574329));
#425=CARTESIAN_POINT('',(1.12355701329479E-16,4.06282522,1.));
#426=CARTESIAN_POINT('',(-8.67361737988404E-16,0.437414178086271,4.03856584508376));
#427=CARTESIAN_POINT('',(-8.67361737988403E-16,-1.67211447060483,4.26704738417763));
#428=CARTESIAN_POINT('',(-8.67361737988403E-16,-3.41482879639815,3.05656743307148));
#429=CARTESIAN_POINT('',(-8.67361737988404E-16,-3.93717478,1.));
#430=CARTESIAN_POINT('',(-1.84707917730629E-15,-0.685592335555978,11.9593521930619));
#431=CARTESIAN_POINT('',(-1.84707917730629E-15,-6.93251192008182,11.601235790196));
#432=CARTESIAN_POINT('',(-1.84707917730629E-15,-11.4148287963982,7.23533530188626));
#433=CARTESIAN_POINT('',(-1.84707917730629E-15,-11.93717478,0.999999999999999));
#434=CARTESIAN_POINT('',(7.99999999999999,-0.685592335555978,11.9593521930619));
#435=CARTESIAN_POINT('',(8.00000000000001,-6.93251192008182,11.601235790196));
#436=CARTESIAN_POINT('',(8.00000000000001,-11.4148287963982,7.23533530188626));
#437=CARTESIAN_POINT('',(7.99999999999999,-11.93717478,0.999999999999999));
#438=CARTESIAN_POINT('',(8.,0.437414178086271,4.03856584508377));
#439=CARTESIAN_POINT('',(7.99999999999999,-1.67211447060483,4.26704738417763));
#440=CARTESIAN_POINT('',(7.99999999999999,-3.41482879639815,3.05656743307148));
#441=CARTESIAN_POINT('',(8.,-3.93717478,1.));
#442=CARTESIAN_POINT('',(149.,0.,0.));
#443=CARTESIAN_POINT('',(149.,0.,7.75));
#444=CARTESIAN_POINT('',(150.,0.,0.));
#445=CARTESIAN_POINT('',(150.,0.,6.75));
#446=CARTESIAN_POINT('',(149.,0.,0.));
#447=CARTESIAN_POINT('',(150.,0.,0.));
#448=CARTESIAN_POINT('',(2.49999999999993,0.,0.));
#449=CARTESIAN_POINT('',(2.49999999999993,0.,2.50139877398031));
#450=CARTESIAN_POINT('',(2.49999999999996,2.50139877398029,0.));
#451=CARTESIAN_POINT('',(5.22650605003359,0.,0.));
#452=CARTESIAN_POINT('',(5.22650605003359,0.,7.12373428187303));
#453=CARTESIAN_POINT('',(3.6257400357323,2.33596788371255,0.));
#454=CARTESIAN_POINT('',(4.37425996426769,2.33596788371255,0.));
#455=CARTESIAN_POINT('',(4.7496970459382,2.35698131131487,0.));
#456=CARTESIAN_POINT('',(5.30399610317791,2.45006854751695,0.));
#457=CARTESIAN_POINT('',(5.48565945850796,2.49176117356054,0.));
#458=CARTESIAN_POINT('',(5.8392945484938,2.60845198565797,0.));
#459=CARTESIAN_POINT('',(6.0134504112758,2.68495866897987,0.));
#460=CARTESIAN_POINT('',(6.33249397588661,2.88007843183115,0.));
#461=CARTESIAN_POINT('',(6.47996192905294,3.00070581638743,0.));
#462=CARTESIAN_POINT('',(6.7292396119414,3.27931101872549,0.));
#463=CARTESIAN_POINT('',(6.83098119112862,3.43547409915846,0.));
#464=CARTESIAN_POINT('',(6.98846024701869,3.77880552681579,0.));
#465=CARTESIAN_POINT('',(7.04070694217988,3.95768184956243,0.));
#466=CARTESIAN_POINT('',(7.09946446115895,4.327882521451,0.));
#467=CARTESIAN_POINT('',(7.10487667093723,4.51673612968175,0.));
#468=CARTESIAN_POINT('',(7.07417761501642,4.88545049831871,0.));
#469=CARTESIAN_POINT('',(7.03814648473988,5.06859476884581,0.));
#470=CARTESIAN_POINT('',(6.92737768173359,5.42775049306419,0.));
#471=CARTESIAN_POINT('',(6.85448033762722,5.59836897790018,0.));
#472=CARTESIAN_POINT('',(6.67725908480237,5.92352855526064,0.));
#473=CARTESIAN_POINT('',(6.57173845338537,6.07937740967184,0.));
#474=CARTESIAN_POINT('',(6.33392086550226,6.3681135905171,0.));
#475=CARTESIAN_POINT('',(6.20323455397373,6.49961231865927,0.));
#476=CARTESIAN_POINT('',(5.91963245778609,6.73831949977235,0.));
#477=CARTESIAN_POINT('',(5.76506031856693,6.8463874694308,0.));
#478=CARTESIAN_POINT('',(5.44118810502879,7.03233461205007,0.));
#479=CARTESIAN_POINT('',(5.27289332816663,7.11008210092698,0.));
#480=CARTESIAN_POINT('',(4.92400520737669,7.23612768231261,0.));
#481=CARTESIAN_POINT('',(4.74156729033089,7.28466306140855,0.));
#482=CARTESIAN_POINT('',(4.37397624387785,7.34889049449148,0.));
#483=CARTESIAN_POINT('',(4.18925294153974,7.36491007777009,0.));
#484=CARTESIAN_POINT('',(3.81798325009366,7.36532425831766,0.));
#485=CARTESIAN_POINT('',(3.62965107083465,7.34929968321543,0.));
#486=CARTESIAN_POINT('',(3.26229471244342,7.2855579123583,0.));
#487=CARTESIAN_POINT('',(3.08296141183652,7.23821686499525,0.));
#488=CARTESIAN_POINT('',(2.73297857601739,7.11261578044844,0.));
#489=CARTESIAN_POINT('',(2.56105541370767,7.03341556222045,0.));
#490=CARTESIAN_POINT('',(2.23795718455278,6.84832372198423,0.));
#491=CARTESIAN_POINT('',(2.08558821148082,6.74228862439305,0.));
#492=CARTESIAN_POINT('',(1.79971100631239,6.50250470800717,0.));
#493=CARTESIAN_POINT('',(1.66644989090985,6.36841193771593,0.));
#494=CARTESIAN_POINT('',(1.4298685236018,6.08147897990451,0.));
#495=CARTESIAN_POINT('',(1.32497460222296,5.92741161941208,0.));
#496=CARTESIAN_POINT('',(1.14478835665143,5.59724064423956,0.));
#497=CARTESIAN_POINT('',(1.07195380425555,5.42573386063908,0.));
#498=CARTESIAN_POINT('',(0.962142110932097,5.06937903468144,0.));
#499=CARTESIAN_POINT('',(0.925361805794553,4.88323844015899,0.));
#500=CARTESIAN_POINT('',(0.879787503612849,4.32580473989617,0.));
#501=CARTESIAN_POINT('',(0.935496213393948,3.94188579972852,0.));
#502=CARTESIAN_POINT('',(1.17136255040756,3.43175033755468,0.));
#503=CARTESIAN_POINT('',(1.27294825313582,3.2759820279996,0.));
#504=CARTESIAN_POINT('',(1.52563924824886,2.99535710128579,0.));
#505=CARTESIAN_POINT('',(1.67012305404592,2.87809772415068,0.));
#506=CARTESIAN_POINT('',(1.99019795345109,2.68311512609331,0.));
#507=CARTESIAN_POINT('',(2.16290231387018,2.60756376641662,0.));
#508=CARTESIAN_POINT('',(2.51685749906829,2.49109613954045,0.));
#509=CARTESIAN_POINT('',(2.70073649771958,2.44910351227233,0.));
#510=CARTESIAN_POINT('',(3.25344050685707,2.35680080939815,0.));
#511=CARTESIAN_POINT('',(3.6257400357323,2.33596788371255,0.));
#512=CARTESIAN_POINT('',(4.37425996426769,2.33596788371255,0.));
#513=CARTESIAN_POINT('',(0.,0.,0.));
#514=CARTESIAN_POINT('',(5.45668845828885,0.,0.));
#515=CARTESIAN_POINT('',(5.45668845828885,0.,7.0489434837047));
#516=CARTESIAN_POINT('',(5.45668845828885,0.,0.));
#517=CARTESIAN_POINT('',(5.76570545266333,0.,0.));
#518=CARTESIAN_POINT('',(5.76570545266333,0.,7.));
#519=CARTESIAN_POINT('',(5.76570545266333,0.,0.));
#520=CARTESIAN_POINT('',(30.,0.,0.));
#521=CARTESIAN_POINT('',(30.,0.,7.));
#522=CARTESIAN_POINT('',(0.,0.,0.));
#523=CARTESIAN_POINT('',(59.75,0.,0.));
#524=CARTESIAN_POINT('',(59.75,0.,7.75));
#525=CARTESIAN_POINT('',(59.75,0.,0.));
#526=CARTESIAN_POINT('',(60.,0.,0.));
#527=CARTESIAN_POINT('',(60.,0.,8.));
#528=CARTESIAN_POINT('',(60.,0.,0.));
#529=CARTESIAN_POINT('',(144.582179545096,0.,0.));
#530=CARTESIAN_POINT('',(144.582179545096,0.,8.));
#531=CARTESIAN_POINT('',(0.,0.,0.));
#532=CARTESIAN_POINT('',(146.,0.,0.));
#533=CARTESIAN_POINT('',(146.,0.,7.75));
#534=CARTESIAN_POINT('',(146.,0.,0.));
#535=CARTESIAN_POINT('',(0.,0.,0.));
#536=(
GEOMETRIC_REPRESENTATION_CONTEXT(3)
GLOBAL_UNCERTAINTY_ASSIGNED_CONTEXT((#537))
GLOBAL_UNIT_ASSIGNED_CONTEXT((#543,#539,#538))
REPRESENTATION_CONTEXT('model1','TOP_LEVEL_ASSEMBLY_PART')
);
#537=UNCERTAINTY_MEASURE_WITH_UNIT(LENGTH_MEASURE(2.E-5),#543,
'DISTANCE_ACCURACY_VALUE','Maximum Tolerance applied to model');
#538=(
NAMED_UNIT(*)
SI_UNIT($,.STERADIAN.)
SOLID_ANGLE_UNIT()
);
#539=(
CONVERSION_BASED_UNIT('DEGREE',#541)
NAMED_UNIT(#540)
PLANE_ANGLE_UNIT()
);
#540=DIMENSIONAL_EXPONENTS(0.,0.,0.,0.,0.,0.,0.);
#541=PLANE_ANGLE_MEASURE_WITH_UNIT(PLANE_ANGLE_MEASURE(0.0174532925),#542);
#542=(
NAMED_UNIT(*)
PLANE_ANGLE_UNIT()
SI_UNIT($,.RADIAN.)
);
#543=(
LENGTH_UNIT()
NAMED_UNIT(*)
SI_UNIT(.MILLI.,.METRE.)
);
ENDSEC;
END-ISO-10303-21;
