ISO-10303-21;
HEADER;
/* Generated by software containing ST-Developer
 * from STEP Tools, Inc. (www.steptools.com) 
 */
/* OPTION: using custom schema-name function */

FILE_DESCRIPTION(
/* description */ (''),
/* implementation_level */ '2;1');

FILE_NAME(
/* name */ 'AEMR-RD0803-D20-M10-L30-Z03-H.stp',
/* time_stamp */ '2023-10-19T19:56:10+03:00',
/* author */ (''),
/* organization */ (''),
/* preprocessor_version */ 'ST-DEVELOPER v19.4',
/* originating_system */ 'SIEMENS PLM Software NX2306.5001',
/* authorisation */ '');

FILE_SCHEMA (('AUTOMOTIVE_DESIGN { 1 0 10303 214 3 1 1 1 }'));
ENDSEC;

DATA;
#10=PROPERTY_DEFINITION_REPRESENTATION(#14,#12);
#11=PROPERTY_DEFINITION_REPRESENTATION(#15,#13);
#12=REPRESENTATION('',(#16),#548);
#13=REPRESENTATION('',(#17),#548);
#14=PROPERTY_DEFINITION('pmi validation property','',#21);
#15=PROPERTY_DEFINITION('pmi validation property','',#21);
#16=VALUE_REPRESENTATION_ITEM('number of annotations',COUNT_MEASURE(0.));
#17=VALUE_REPRESENTATION_ITEM('number of views',COUNT_MEASURE(0.));
#18=SHAPE_REPRESENTATION_RELATIONSHIP('None',
'relationship between AEMR-RD0803-D20-M10-L30-Z03-H-LIGHT_x_t_objects-
None and AEMR-RD0803-D20-M10-L30-Z03-H-LIGHT_x_t_objects-None',#30,#19);
#19=ADVANCED_BREP_SHAPE_REPRESENTATION(
'AEMR-RD0803-D20-M10-L30-Z03-H-LIGHT_x_t_objects-None',(#50,#51),#548);
#20=SHAPE_DEFINITION_REPRESENTATION(#21,#30);
#21=PRODUCT_DEFINITION_SHAPE('','',#22);
#22=PRODUCT_DEFINITION(' ','',#24,#23);
#23=PRODUCT_DEFINITION_CONTEXT('part definition',#29,'design');
#24=PRODUCT_DEFINITION_FORMATION_WITH_SPECIFIED_SOURCE(' ',' ',#26,
 .NOT_KNOWN.);
#25=PRODUCT_RELATED_PRODUCT_CATEGORY('part','',(#26));
#26=PRODUCT('AEMR-RD0803-D20-M10-L30-Z03-H-LIGHT_x_t_objects',
'AEMR-RD0803-D20-M10-L30-Z03-H-LIGHT_x_t_objects',' ',(#27));
#27=PRODUCT_CONTEXT(' ',#29,'mechanical');
#28=APPLICATION_PROTOCOL_DEFINITION('international standard',
'automotive_design',2010,#29);
#29=APPLICATION_CONTEXT(
'core data for automotive mechanical design processes');
#30=SHAPE_REPRESENTATION(
'AEMR-RD0803-D20-M10-L30-Z03-H-LIGHT_x_t_objects-None',(#254),#548);
#31=DRAUGHTING_PRE_DEFINED_COLOUR('yellow');
#32=(
BOUNDED_SURFACE()
B_SPLINE_SURFACE(3,3,((#470,#471,#472,#473,#474,#475,#476),(#477,#478,#479,
#480,#481,#482,#483),(#484,#485,#486,#487,#488,#489,#490),(#491,#492,#493,
#494,#495,#496,#497),(#498,#499,#500,#501,#502,#503,#504),(#505,#506,#507,
#508,#509,#510,#511),(#512,#513,#514,#515,#516,#517,#518)),
 .UNSPECIFIED.,.T.,.F.,.F.)
B_SPLINE_SURFACE_WITH_KNOTS((1,3,3,3,1),(4,3,4),(-0.5,0.,0.5,1.,1.5),(0.,
0.5,1.),.UNSPECIFIED.)
GEOMETRIC_REPRESENTATION_ITEM()
RATIONAL_B_SPLINE_SURFACE(((1.,0.560897737478441,0.560897737478441,1.,0.560897737478441,
0.560897737478441,1.),(0.333333333333334,0.186965912492813,0.186965912492813,
0.333333333333334,0.186965912492813,0.186965912492813,0.333333333333334),
(0.333333333333334,0.186965912492813,0.186965912492813,0.333333333333334,
0.186965912492813,0.186965912492813,0.333333333333334),(1.,0.560897737478441,
0.560897737478441,1.,0.560897737478441,0.560897737478441,1.),(0.333333333333334,
0.186965912492813,0.186965912492813,0.333333333333334,0.186965912492813,
0.186965912492813,0.333333333333334),(0.333333333333334,0.186965912492813,
0.186965912492813,0.333333333333334,0.186965912492813,0.186965912492813,
0.333333333333334),(1.,0.560897737478441,0.560897737478441,1.,0.560897737478441,
0.560897737478441,1.)))
REPRESENTATION_ITEM('')
SURFACE()
);
#33=(
BOUNDED_SURFACE()
B_SPLINE_SURFACE(3,3,((#519,#520,#521,#522),(#523,#524,#525,#526),(#527,
#528,#529,#530),(#531,#532,#533,#534),(#535,#536,#537,#538),(#539,#540,
#541,#542),(#543,#544,#545,#546)),.UNSPECIFIED.,.T.,.F.,.F.)
B_SPLINE_SURFACE_WITH_KNOTS((1,3,3,3,1),(4,4),(-0.5,0.,0.5,1.,1.5),(0.,
1.),.UNSPECIFIED.)
GEOMETRIC_REPRESENTATION_ITEM()
RATIONAL_B_SPLINE_SURFACE(((1.,0.844643325898247,0.844643325898247,1.),
(0.333333333333334,0.281547775299415,0.281547775299415,0.333333333333334),
(0.333333333333334,0.281547775299415,0.281547775299415,0.333333333333334),
(1.,0.844643325898247,0.844643325898247,1.),(0.333333333333334,0.281547775299415,
0.281547775299415,0.333333333333334),(0.333333333333334,0.281547775299415,
0.281547775299415,0.333333333333334),(1.,0.844643325898247,0.844643325898247,
1.)))
REPRESENTATION_ITEM('')
SURFACE()
);
#34=PRESENTATION_LAYER_ASSIGNMENT('1','Layer 1',(#50,#51));
#35=STYLED_ITEM('',(#37),#50);
#36=STYLED_ITEM('',(#38),#51);
#37=PRESENTATION_STYLE_ASSIGNMENT((#39));
#38=PRESENTATION_STYLE_ASSIGNMENT((#40));
#39=SURFACE_STYLE_USAGE(.BOTH.,#41);
#40=SURFACE_STYLE_USAGE(.BOTH.,#42);
#41=SURFACE_SIDE_STYLE('',(#43));
#42=SURFACE_SIDE_STYLE('',(#44));
#43=SURFACE_STYLE_FILL_AREA(#45);
#44=SURFACE_STYLE_FILL_AREA(#46);
#45=FILL_AREA_STYLE('',(#47));
#46=FILL_AREA_STYLE('',(#48));
#47=FILL_AREA_STYLE_COLOUR('',#49);
#48=FILL_AREA_STYLE_COLOUR('',#31);
#49=COLOUR_RGB('silver gray',0.6,0.6,0.6);
#50=MANIFOLD_SOLID_BREP('',#52);
#51=MANIFOLD_SOLID_BREP('',#53);
#52=CLOSED_SHELL('',(#73,#74,#75,#76,#77,#78,#79,#80,#81,#82,#83,#84,#85,
#86,#87,#88,#89));
#53=CLOSED_SHELL('',(#90,#91));
#54=FACE_OUTER_BOUND('',#148,.T.);
#55=FACE_OUTER_BOUND('',#149,.T.);
#56=SURFACE_OF_REVOLUTION('',#58,#57);
#57=AXIS1_PLACEMENT('',#448,#331);
#58=B_SPLINE_CURVE_WITH_KNOTS('',3,(#392,#393,#394,#395,#396,#397,#398,
#399,#400,#401,#402,#403,#404,#405,#406,#407,#408,#409,#410,#411,#412,#413,
#414,#415,#416,#417,#418,#419,#420,#421,#422,#423,#424,#425,#426,#427,#428,
#429,#430,#431,#432,#433,#434,#435,#436,#437,#438,#439,#440,#441,#442,#443,
#444,#445,#446,#447),.UNSPECIFIED.,.T.,.F.,(2,2,2,2,2,2,2,2,2,2,2,2,2,2,
2,2,2,2,2,2,2,2,2,2,2,2,2,2,2,2),(-0.0625,0.,0.0625,0.09375,0.125,0.15625,
0.1875,0.21875,0.25,0.28125,0.3125,0.375,0.40625,0.4375,0.46875,0.5,0.53125,
0.5625,0.625,0.65625,0.6875,0.71875,0.75,0.78125,0.8125,0.84375,0.875,0.9375,
1.,1.0625),.UNSPECIFIED.);
#59=CYLINDRICAL_SURFACE('',#265,9.);
#60=CYLINDRICAL_SURFACE('',#269,8.5);
#61=CYLINDRICAL_SURFACE('',#281,5.);
#62=CYLINDRICAL_SURFACE('',#285,5.25);
#63=PLANE('',#261);
#64=PLANE('',#275);
#65=PLANE('',#277);
#66=CONICAL_SURFACE('',#259,5.7751531373598,76.);
#67=CONICAL_SURFACE('',#263,8.5,45.0000000000002);
#68=CONICAL_SURFACE('',#267,9.,44.9999999999998);
#69=CONICAL_SURFACE('',#273,8.69577393481938,17.9999999999995);
#70=CONICAL_SURFACE('',#279,4.,45.0000000000002);
#71=CONICAL_SURFACE('',#283,5.,30.);
#72=CONICAL_SURFACE('',#286,5.25,15.);
#73=ADVANCED_FACE('',(#94,#95),#92,.F.);
#74=ADVANCED_FACE('',(#96,#97),#66,.F.);
#75=ADVANCED_FACE('',(#98,#99),#63,.F.);
#76=ADVANCED_FACE('',(#100,#101),#67,.T.);
#77=ADVANCED_FACE('',(#102,#103),#59,.T.);
#78=ADVANCED_FACE('',(#104,#105),#68,.T.);
#79=ADVANCED_FACE('',(#106,#107),#60,.T.);
#80=ADVANCED_FACE('',(#108,#109),#93,.F.);
#81=ADVANCED_FACE('',(#110,#111),#69,.T.);
#82=ADVANCED_FACE('',(#112,#113),#56,.T.);
#83=ADVANCED_FACE('',(#54),#64,.F.);
#84=ADVANCED_FACE('',(#55),#65,.F.);
#85=ADVANCED_FACE('',(#114,#115),#70,.T.);
#86=ADVANCED_FACE('',(#116,#117),#61,.T.);
#87=ADVANCED_FACE('',(#118,#119),#71,.T.);
#88=ADVANCED_FACE('',(#120,#121),#62,.T.);
#89=ADVANCED_FACE('',(#122,#123),#72,.T.);
#90=ADVANCED_FACE('',(#124,#125),#32,.F.);
#91=ADVANCED_FACE('',(#126,#127),#33,.F.);
#92=TOROIDAL_SURFACE('',#257,5.63,0.6);
#93=TOROIDAL_SURFACE('',#271,12.5,4.);
#94=FACE_BOUND('',#128,.T.);
#95=FACE_BOUND('',#129,.T.);
#96=FACE_BOUND('',#130,.T.);
#97=FACE_BOUND('',#131,.T.);
#98=FACE_BOUND('',#132,.T.);
#99=FACE_BOUND('',#133,.T.);
#100=FACE_BOUND('',#134,.T.);
#101=FACE_BOUND('',#135,.T.);
#102=FACE_BOUND('',#136,.T.);
#103=FACE_BOUND('',#137,.T.);
#104=FACE_BOUND('',#138,.T.);
#105=FACE_BOUND('',#139,.T.);
#106=FACE_BOUND('',#140,.T.);
#107=FACE_BOUND('',#141,.T.);
#108=FACE_BOUND('',#142,.T.);
#109=FACE_BOUND('',#143,.T.);
#110=FACE_BOUND('',#144,.T.);
#111=FACE_BOUND('',#145,.T.);
#112=FACE_BOUND('',#146,.T.);
#113=FACE_BOUND('',#147,.T.);
#114=FACE_BOUND('',#150,.T.);
#115=FACE_BOUND('',#151,.T.);
#116=FACE_BOUND('',#152,.T.);
#117=FACE_BOUND('',#153,.T.);
#118=FACE_BOUND('',#154,.T.);
#119=FACE_BOUND('',#155,.T.);
#120=FACE_BOUND('',#156,.T.);
#121=FACE_BOUND('',#157,.T.);
#122=FACE_BOUND('',#158,.T.);
#123=FACE_BOUND('',#159,.T.);
#124=FACE_BOUND('',#160,.T.);
#125=FACE_BOUND('',#161,.T.);
#126=FACE_BOUND('',#162,.T.);
#127=FACE_BOUND('',#163,.T.);
#128=EDGE_LOOP('',(#164));
#129=EDGE_LOOP('',(#165));
#130=EDGE_LOOP('',(#166));
#131=EDGE_LOOP('',(#167));
#132=EDGE_LOOP('',(#168));
#133=EDGE_LOOP('',(#169));
#134=EDGE_LOOP('',(#170));
#135=EDGE_LOOP('',(#171));
#136=EDGE_LOOP('',(#172));
#137=EDGE_LOOP('',(#173));
#138=EDGE_LOOP('',(#174));
#139=EDGE_LOOP('',(#175));
#140=EDGE_LOOP('',(#176));
#141=EDGE_LOOP('',(#177));
#142=EDGE_LOOP('',(#178));
#143=EDGE_LOOP('',(#179));
#144=EDGE_LOOP('',(#180));
#145=EDGE_LOOP('',(#181));
#146=EDGE_LOOP('',(#182));
#147=EDGE_LOOP('',(#183));
#148=EDGE_LOOP('',(#184));
#149=EDGE_LOOP('',(#185));
#150=EDGE_LOOP('',(#186));
#151=EDGE_LOOP('',(#187));
#152=EDGE_LOOP('',(#188));
#153=EDGE_LOOP('',(#189));
#154=EDGE_LOOP('',(#190));
#155=EDGE_LOOP('',(#191));
#156=EDGE_LOOP('',(#192));
#157=EDGE_LOOP('',(#193));
#158=EDGE_LOOP('',(#194));
#159=EDGE_LOOP('',(#195));
#160=EDGE_LOOP('',(#196));
#161=EDGE_LOOP('',(#197));
#162=EDGE_LOOP('',(#198));
#163=EDGE_LOOP('',(#199));
#164=ORIENTED_EDGE('',*,*,#218,.F.);
#165=ORIENTED_EDGE('',*,*,#219,.T.);
#166=ORIENTED_EDGE('',*,*,#220,.F.);
#167=ORIENTED_EDGE('',*,*,#218,.T.);
#168=ORIENTED_EDGE('',*,*,#221,.F.);
#169=ORIENTED_EDGE('',*,*,#220,.T.);
#170=ORIENTED_EDGE('',*,*,#222,.F.);
#171=ORIENTED_EDGE('',*,*,#221,.T.);
#172=ORIENTED_EDGE('',*,*,#223,.F.);
#173=ORIENTED_EDGE('',*,*,#222,.T.);
#174=ORIENTED_EDGE('',*,*,#224,.F.);
#175=ORIENTED_EDGE('',*,*,#223,.T.);
#176=ORIENTED_EDGE('',*,*,#225,.F.);
#177=ORIENTED_EDGE('',*,*,#224,.T.);
#178=ORIENTED_EDGE('',*,*,#226,.F.);
#179=ORIENTED_EDGE('',*,*,#225,.T.);
#180=ORIENTED_EDGE('',*,*,#227,.F.);
#181=ORIENTED_EDGE('',*,*,#226,.T.);
#182=ORIENTED_EDGE('',*,*,#228,.F.);
#183=ORIENTED_EDGE('',*,*,#227,.T.);
#184=ORIENTED_EDGE('',*,*,#228,.T.);
#185=ORIENTED_EDGE('',*,*,#229,.F.);
#186=ORIENTED_EDGE('',*,*,#230,.F.);
#187=ORIENTED_EDGE('',*,*,#229,.T.);
#188=ORIENTED_EDGE('',*,*,#231,.F.);
#189=ORIENTED_EDGE('',*,*,#230,.T.);
#190=ORIENTED_EDGE('',*,*,#232,.F.);
#191=ORIENTED_EDGE('',*,*,#231,.T.);
#192=ORIENTED_EDGE('',*,*,#233,.F.);
#193=ORIENTED_EDGE('',*,*,#232,.T.);
#194=ORIENTED_EDGE('',*,*,#219,.F.);
#195=ORIENTED_EDGE('',*,*,#233,.T.);
#196=ORIENTED_EDGE('',*,*,#234,.T.);
#197=ORIENTED_EDGE('',*,*,#235,.T.);
#198=ORIENTED_EDGE('',*,*,#235,.F.);
#199=ORIENTED_EDGE('',*,*,#234,.F.);
#200=VERTEX_POINT('',#362);
#201=VERTEX_POINT('',#364);
#202=VERTEX_POINT('',#367);
#203=VERTEX_POINT('',#370);
#204=VERTEX_POINT('',#373);
#205=VERTEX_POINT('',#376);
#206=VERTEX_POINT('',#379);
#207=VERTEX_POINT('',#382);
#208=VERTEX_POINT('',#385);
#209=VERTEX_POINT('',#388);
#210=VERTEX_POINT('',#391);
#211=VERTEX_POINT('',#451);
#212=VERTEX_POINT('',#454);
#213=VERTEX_POINT('',#457);
#214=VERTEX_POINT('',#460);
#215=VERTEX_POINT('',#463);
#216=VERTEX_POINT('',#467);
#217=VERTEX_POINT('',#469);
#218=EDGE_CURVE('',#200,#200,#236,.T.);
#219=EDGE_CURVE('',#201,#201,#237,.T.);
#220=EDGE_CURVE('',#202,#202,#238,.T.);
#221=EDGE_CURVE('',#203,#203,#239,.T.);
#222=EDGE_CURVE('',#204,#204,#240,.T.);
#223=EDGE_CURVE('',#205,#205,#241,.T.);
#224=EDGE_CURVE('',#206,#206,#242,.T.);
#225=EDGE_CURVE('',#207,#207,#243,.T.);
#226=EDGE_CURVE('',#208,#208,#244,.T.);
#227=EDGE_CURVE('',#209,#209,#245,.T.);
#228=EDGE_CURVE('',#210,#210,#246,.T.);
#229=EDGE_CURVE('',#211,#211,#247,.T.);
#230=EDGE_CURVE('',#212,#212,#248,.T.);
#231=EDGE_CURVE('',#213,#213,#249,.T.);
#232=EDGE_CURVE('',#214,#214,#250,.T.);
#233=EDGE_CURVE('',#215,#215,#251,.T.);
#234=EDGE_CURVE('',#216,#216,#252,.T.);
#235=EDGE_CURVE('',#217,#217,#253,.T.);
#236=CIRCLE('',#255,5.7751531373598);
#237=CIRCLE('',#256,5.05044450422656);
#238=CIRCLE('',#258,6.58604254191963);
#239=CIRCLE('',#260,8.5);
#240=CIRCLE('',#262,9.);
#241=CIRCLE('',#264,9.);
#242=CIRCLE('',#266,8.5);
#243=CIRCLE('',#268,8.5);
#244=CIRCLE('',#270,8.69577393481938);
#245=CIRCLE('',#272,8.89138534017059);
#246=CIRCLE('',#274,3.54244016514855);
#247=CIRCLE('',#276,4.);
#248=CIRCLE('',#278,5.);
#249=CIRCLE('',#280,5.);
#250=CIRCLE('',#282,5.25);
#251=CIRCLE('',#284,5.25);
#252=CIRCLE('',#287,4.);
#253=CIRCLE('',#288,4.);
#254=AXIS2_PLACEMENT_3D('',#360,#289,#290);
#255=AXIS2_PLACEMENT_3D('',#361,#291,#292);
#256=AXIS2_PLACEMENT_3D('',#363,#293,#294);
#257=AXIS2_PLACEMENT_3D('',#365,#295,#296);
#258=AXIS2_PLACEMENT_3D('',#366,#297,#298);
#259=AXIS2_PLACEMENT_3D('',#368,#299,#300);
#260=AXIS2_PLACEMENT_3D('',#369,#301,#302);
#261=AXIS2_PLACEMENT_3D('',#371,#303,#304);
#262=AXIS2_PLACEMENT_3D('',#372,#305,#306);
#263=AXIS2_PLACEMENT_3D('',#374,#307,#308);
#264=AXIS2_PLACEMENT_3D('',#375,#309,#310);
#265=AXIS2_PLACEMENT_3D('',#377,#311,#312);
#266=AXIS2_PLACEMENT_3D('',#378,#313,#314);
#267=AXIS2_PLACEMENT_3D('',#380,#315,#316);
#268=AXIS2_PLACEMENT_3D('',#381,#317,#318);
#269=AXIS2_PLACEMENT_3D('',#383,#319,#320);
#270=AXIS2_PLACEMENT_3D('',#384,#321,#322);
#271=AXIS2_PLACEMENT_3D('',#386,#323,#324);
#272=AXIS2_PLACEMENT_3D('',#387,#325,#326);
#273=AXIS2_PLACEMENT_3D('',#389,#327,#328);
#274=AXIS2_PLACEMENT_3D('',#390,#329,#330);
#275=AXIS2_PLACEMENT_3D('',#449,#332,#333);
#276=AXIS2_PLACEMENT_3D('',#450,#334,#335);
#277=AXIS2_PLACEMENT_3D('',#452,#336,#337);
#278=AXIS2_PLACEMENT_3D('',#453,#338,#339);
#279=AXIS2_PLACEMENT_3D('',#455,#340,#341);
#280=AXIS2_PLACEMENT_3D('',#456,#342,#343);
#281=AXIS2_PLACEMENT_3D('',#458,#344,#345);
#282=AXIS2_PLACEMENT_3D('',#459,#346,#347);
#283=AXIS2_PLACEMENT_3D('',#461,#348,#349);
#284=AXIS2_PLACEMENT_3D('',#462,#350,#351);
#285=AXIS2_PLACEMENT_3D('',#464,#352,#353);
#286=AXIS2_PLACEMENT_3D('',#465,#354,#355);
#287=AXIS2_PLACEMENT_3D('',#466,#356,#357);
#288=AXIS2_PLACEMENT_3D('',#468,#358,#359);
#289=DIRECTION('',(0.,0.,1.));
#290=DIRECTION('',(1.,0.,0.));
#291=DIRECTION('',(-1.,0.,0.));
#292=DIRECTION('',(0.,0.,1.));
#293=DIRECTION('',(-1.,0.,0.));
#294=DIRECTION('',(0.,0.,1.));
#295=DIRECTION('',(-1.,0.,0.));
#296=DIRECTION('',(0.,0.,1.));
#297=DIRECTION('',(-1.,0.,0.));
#298=DIRECTION('',(0.,0.,1.));
#299=DIRECTION('',(1.,0.,0.));
#300=DIRECTION('',(-1.12292245899532E-17,0.,-1.));
#301=DIRECTION('',(-1.,0.,0.));
#302=DIRECTION('',(0.,0.,1.));
#303=DIRECTION('',(-1.,0.,0.));
#304=DIRECTION('',(0.,0.,1.));
#305=DIRECTION('',(-1.,0.,0.));
#306=DIRECTION('',(0.,0.,1.));
#307=DIRECTION('',(-1.,0.,0.));
#308=DIRECTION('',(2.75216416615059E-17,0.,1.));
#309=DIRECTION('',(-1.,0.,0.));
#310=DIRECTION('',(0.,0.,1.));
#311=DIRECTION('',(-1.,0.,0.));
#312=DIRECTION('',(0.,0.,1.));
#313=DIRECTION('',(-1.,0.,0.));
#314=DIRECTION('',(0.,0.,1.));
#315=DIRECTION('',(1.,0.,0.));
#316=DIRECTION('',(-3.43850044792234E-17,0.,-1.));
#317=DIRECTION('',(-1.,0.,0.));
#318=DIRECTION('',(0.,0.,1.));
#319=DIRECTION('',(-1.,0.,0.));
#320=DIRECTION('',(0.,0.,1.));
#321=DIRECTION('',(-1.,0.,0.));
#322=DIRECTION('',(0.,0.,1.));
#323=DIRECTION('',(-1.,0.,0.));
#324=DIRECTION('',(0.,0.,1.));
#325=DIRECTION('',(-1.,0.,0.));
#326=DIRECTION('',(0.,0.,1.));
#327=DIRECTION('',(-1.,0.,0.));
#328=DIRECTION('',(-7.53966546845641E-17,0.,1.));
#329=DIRECTION('',(-1.,0.,0.));
#330=DIRECTION('',(0.,0.,1.));
#331=DIRECTION('',(-1.,0.,0.));
#332=DIRECTION('',(1.,0.,0.));
#333=DIRECTION('',(0.,0.,-1.));
#334=DIRECTION('',(-1.,0.,0.));
#335=DIRECTION('',(0.,0.,1.));
#336=DIRECTION('',(-1.,0.,0.));
#337=DIRECTION('',(0.,0.,1.));
#338=DIRECTION('',(-1.,0.,0.));
#339=DIRECTION('',(0.,0.,1.));
#340=DIRECTION('',(-1.,0.,0.));
#341=DIRECTION('',(4.14674934496445E-17,0.,1.));
#342=DIRECTION('',(-1.,0.,0.));
#343=DIRECTION('',(0.,0.,1.));
#344=DIRECTION('',(-1.,0.,0.));
#345=DIRECTION('',(0.,0.,1.));
#346=DIRECTION('',(-1.,0.,0.));
#347=DIRECTION('',(0.,0.,1.));
#348=DIRECTION('',(-1.,0.,0.));
#349=DIRECTION('',(8.34072892160619E-17,0.,1.));
#350=DIRECTION('',(-1.,0.,0.));
#351=DIRECTION('',(0.,0.,1.));
#352=DIRECTION('',(-1.,0.,0.));
#353=DIRECTION('',(0.,0.,1.));
#354=DIRECTION('',(1.,0.,0.));
#355=DIRECTION('',(1.52391971048523E-16,0.,-1.));
#356=DIRECTION('',(0.,0.984305913569501,0.176470588235294));
#357=DIRECTION('',(1.,0.,0.));
#358=DIRECTION('',(0.,0.,-1.));
#359=DIRECTION('',(1.,0.,0.));
#360=CARTESIAN_POINT('',(0.,0.,0.));
#361=CARTESIAN_POINT('',(29.7978225642344,0.,0.));
#362=CARTESIAN_POINT('',(29.7978225642344,0.,5.7751531373598));
#363=CARTESIAN_POINT('',(30.5352914270615,0.,0.));
#364=CARTESIAN_POINT('',(30.5352914270615,0.,5.05044450422656));
#365=CARTESIAN_POINT('',(30.38,0.,0.));
#366=CARTESIAN_POINT('',(30.,0.,0.));
#367=CARTESIAN_POINT('',(30.,0.,6.58604254191963));
#368=CARTESIAN_POINT('',(29.7978225642344,0.,0.));
#369=CARTESIAN_POINT('',(30.,0.,0.));
#370=CARTESIAN_POINT('',(30.,0.,8.5));
#371=CARTESIAN_POINT('',(30.,8.5,0.));
#372=CARTESIAN_POINT('',(29.5,0.,0.));
#373=CARTESIAN_POINT('',(29.5,0.,9.));
#374=CARTESIAN_POINT('',(30.,0.,0.));
#375=CARTESIAN_POINT('',(24.5,0.,0.));
#376=CARTESIAN_POINT('',(24.5,0.,9.));
#377=CARTESIAN_POINT('',(0.,0.,0.));
#378=CARTESIAN_POINT('',(24.,0.,0.));
#379=CARTESIAN_POINT('',(24.,0.,8.5));
#380=CARTESIAN_POINT('',(24.5,0.,0.));
#381=CARTESIAN_POINT('',(7.18624836226482,0.,0.));
#382=CARTESIAN_POINT('',(7.18624836226482,0.,8.5));
#383=CARTESIAN_POINT('',(0.,0.,0.));
#384=CARTESIAN_POINT('',(5.95018038476505,0.,0.));
#385=CARTESIAN_POINT('',(5.95018038476505,0.,8.69577393481938));
#386=CARTESIAN_POINT('',(7.18624836226482,0.,0.));
#387=CARTESIAN_POINT('',(5.34815038283188,0.,0.));
#388=CARTESIAN_POINT('',(5.34815038283188,0.,8.89138534017059));
#389=CARTESIAN_POINT('',(5.95018038476505,0.,0.));
#390=CARTESIAN_POINT('',(2.50000000003455,0.,0.));
#391=CARTESIAN_POINT('',(2.50000000003455,0.,3.54244016514855));
#392=CARTESIAN_POINT('',(3.5946609423009,3.21288229655743,0.));
#393=CARTESIAN_POINT('',(4.40533905769911,3.21288229655743,0.));
#394=CARTESIAN_POINT('',(4.8106750999563,3.27945804910153,0.));
#395=CARTESIAN_POINT('',(5.37839094965681,3.48109221305791,0.));
#396=CARTESIAN_POINT('',(5.5633611257549,3.56638540807291,0.));
#397=CARTESIAN_POINT('',(5.91136703491334,3.77114092922591,0.));
#398=CARTESIAN_POINT('',(6.07337973884188,3.88953399169415,0.));
#399=CARTESIAN_POINT('',(6.37206030388007,4.16017306274246,0.));
#400=CARTESIAN_POINT('',(6.50819588618043,4.31281871249304,0.));
#401=CARTESIAN_POINT('',(6.74121468096601,4.63900865504966,0.));
#402=CARTESIAN_POINT('',(6.84051456815054,4.81520655958428,0.));
#403=CARTESIAN_POINT('',(6.99982198604649,5.1879329619828,0.));
#404=CARTESIAN_POINT('',(7.05810570846588,5.37969274823107,0.));
#405=CARTESIAN_POINT('',(7.13401122989724,5.77348071877417,0.));
#406=CARTESIAN_POINT('',(7.15129162378439,5.97780230379908,0.));
#407=CARTESIAN_POINT('',(7.14343652260034,6.37940055742817,0.));
#408=CARTESIAN_POINT('',(7.1190263522091,6.57807316324521,0.));
#409=CARTESIAN_POINT('',(7.02973328174368,6.97121646563423,0.));
#410=CARTESIAN_POINT('',(6.96454489902404,7.16452930512452,0.));
#411=CARTESIAN_POINT('',(6.71756539096612,7.71200405933258,0.));
#412=CARTESIAN_POINT('',(6.47721662894421,8.0476864853187,0.));
#413=CARTESIAN_POINT('',(6.04085906125738,8.46024527759712,0.));
#414=CARTESIAN_POINT('',(5.8805018597249,8.58518224212218,0.));
#415=CARTESIAN_POINT('',(5.53958524017163,8.80160469621943,0.));
#416=CARTESIAN_POINT('',(5.36100832342092,8.892307196795,0.));
#417=CARTESIAN_POINT('',(4.98805375124186,9.03963605502378,0.));
#418=CARTESIAN_POINT('',(4.79156501716381,9.09646041751262,0.));
#419=CARTESIAN_POINT('',(4.39651090908307,9.1710790310872,0.));
#420=CARTESIAN_POINT('',(4.19717151106472,9.1896162736477,0.));
#421=CARTESIAN_POINT('',(3.79486506835768,9.18911598426922,0.));
#422=CARTESIAN_POINT('',(3.59140390696513,9.16951675170744,0.));
#423=CARTESIAN_POINT('',(3.19767420419313,9.09366447182623,0.));
#424=CARTESIAN_POINT('',(3.00523575813234,9.03756787559081,0.));
#425=CARTESIAN_POINT('',(2.44159908480641,8.81312697471018,0.));
#426=CARTESIAN_POINT('',(2.09879542260974,8.59421810585057,0.));
#427=CARTESIAN_POINT('',(1.65911352586002,8.17557356191813,0.));
#428=CARTESIAN_POINT('',(1.52790286220366,8.02385505407859,0.));
#429=CARTESIAN_POINT('',(1.29580761996612,7.69637379652022,0.));
#430=CARTESIAN_POINT('',(1.19428464897495,7.51864710741314,0.));
#431=CARTESIAN_POINT('',(1.03050573841129,7.15137649262475,0.));
#432=CARTESIAN_POINT('',(0.967217366195174,6.96107438384562,0.));
#433=CARTESIAN_POINT('',(0.879169408795474,6.56666109023294,0.));
#434=CARTESIAN_POINT('',(0.855319796515497,6.3647090116554,0.));
#435=CARTESIAN_POINT('',(0.849459228839051,5.96365038389865,0.));
#436=CARTESIAN_POINT('',(0.867486046729066,5.76056663257227,0.));
#437=CARTESIAN_POINT('',(0.945862555527578,5.36462907087963,0.));
#438=CARTESIAN_POINT('',(1.00538532980129,5.17323463574129,0.));
#439=CARTESIAN_POINT('',(1.16554131752092,4.80373716555644,0.));
#440=CARTESIAN_POINT('',(1.26687413508087,4.62591935565617,0.));
#441=CARTESIAN_POINT('',(1.50110902796408,4.30169624866461,0.));
#442=CARTESIAN_POINT('',(1.63494347488692,4.15277245047266,0.));
#443=CARTESIAN_POINT('',(2.08731268350099,3.74612826766642,0.));
#444=CARTESIAN_POINT('',(2.43466477819423,3.54668492716215,0.));
#445=CARTESIAN_POINT('',(3.19881964141305,3.27690212715317,0.));
#446=CARTESIAN_POINT('',(3.5946609423009,3.21288229655743,0.));
#447=CARTESIAN_POINT('',(4.40533905769911,3.21288229655743,0.));
#448=CARTESIAN_POINT('',(0.,0.,0.));
#449=CARTESIAN_POINT('',(2.50000000001728,3.542440165165,0.));
#450=CARTESIAN_POINT('',(50.,0.,0.));
#451=CARTESIAN_POINT('',(50.,0.,4.));
#452=CARTESIAN_POINT('',(50.,0.,0.));
#453=CARTESIAN_POINT('',(49.,0.,0.));
#454=CARTESIAN_POINT('',(49.,0.,5.));
#455=CARTESIAN_POINT('',(50.,0.,0.));
#456=CARTESIAN_POINT('',(36.4330127018922,0.,0.));
#457=CARTESIAN_POINT('',(36.4330127018922,0.,5.));
#458=CARTESIAN_POINT('',(0.,0.,0.));
#459=CARTESIAN_POINT('',(36.,0.,0.));
#460=CARTESIAN_POINT('',(36.,0.,5.25));
#461=CARTESIAN_POINT('',(36.4330127018922,0.,0.));
#462=CARTESIAN_POINT('',(31.2800426762176,0.,0.));
#463=CARTESIAN_POINT('',(31.2800426762176,0.,5.25));
#464=CARTESIAN_POINT('',(0.,0.,0.));
#465=CARTESIAN_POINT('',(31.2800426762176,0.,0.));
#466=CARTESIAN_POINT('',(4.,0.437651838589546,6.05889467408656));
#467=CARTESIAN_POINT('',(8.,0.437651838589546,6.05889467408656));
#468=CARTESIAN_POINT('',(4.,-5.88657318,1.5));
#469=CARTESIAN_POINT('',(8.,-5.88657318,1.5));
#470=CARTESIAN_POINT('',(8.,-5.88657318,1.5));
#471=CARTESIAN_POINT('',(7.99999999999999,-7.56234655569822,-5.07637507276218));
#472=CARTESIAN_POINT('',(7.99999999999999,-1.95298459850123,-8.8963206139313));
#473=CARTESIAN_POINT('',(8.,3.55226211146831,-4.92779643399786));
#474=CARTESIAN_POINT('',(7.99999999999999,9.05750882143783,-0.959272254064407));
#475=CARTESIAN_POINT('',(7.99999999999999,7.20654142591892,5.56995780813073));
#476=CARTESIAN_POINT('',(8.,0.437651838589544,6.05889467408656));
#477=CARTESIAN_POINT('',(7.99999999999999,2.11342682,1.5));
#478=CARTESIAN_POINT('',(8.,0.437653444301768,3.86108293096172));
#479=CARTESIAN_POINT('',(8.,-2.35363648579367,3.09190834757662));
#480=CARTESIAN_POINT('',(7.99999999999999,-2.58345779931066,0.205715149360122));
#481=CARTESIAN_POINT('',(8.,-2.81327911282764,-2.68047804885637));
#482=CARTESIAN_POINT('',(8.,-0.17888663354322,-3.88168797167067));
#483=CARTESIAN_POINT('',(7.99999999999999,1.8494165444719,-1.81555263446944));
#484=CARTESIAN_POINT('',(1.12355701329479E-16,2.11342682,1.5));
#485=CARTESIAN_POINT('',(1.12355701329479E-16,0.437653444301768,3.86108293096172));
#486=CARTESIAN_POINT('',(1.12355701329479E-16,-2.35363648579367,3.09190834757662));
#487=CARTESIAN_POINT('',(1.12355701329479E-16,-2.58345779931066,0.205715149360123));
#488=CARTESIAN_POINT('',(1.12355701329479E-16,-2.81327911282764,-2.68047804885637));
#489=CARTESIAN_POINT('',(1.12355701329479E-16,-0.17888663354322,-3.88168797167067));
#490=CARTESIAN_POINT('',(1.12355701329479E-16,1.8494165444719,-1.81555263446944));
#491=CARTESIAN_POINT('',(-8.67361737988404E-16,-5.88657318,1.5));
#492=CARTESIAN_POINT('',(-8.67361737988404E-16,-7.56234655569822,-5.07637507276218));
#493=CARTESIAN_POINT('',(-8.67361737988402E-16,-1.95298459850123,-8.8963206139313));
#494=CARTESIAN_POINT('',(-8.67361737988403E-16,3.55226211146831,-4.92779643399786));
#495=CARTESIAN_POINT('',(-8.67361737988402E-16,9.05750882143783,-0.959272254064409));
#496=CARTESIAN_POINT('',(-8.67361737988402E-16,7.20654142591893,5.56995780813073));
#497=CARTESIAN_POINT('',(-8.67361737988403E-16,0.437651838589545,6.05889467408656));
#498=CARTESIAN_POINT('',(-1.84707917730629E-15,-13.88657318,1.5));
#499=CARTESIAN_POINT('',(-1.84707917730629E-15,-15.5623465556982,-14.0138330764861));
#500=CARTESIAN_POINT('',(-1.84707917730629E-15,-1.55233271120879,-20.8845495754392));
#501=CARTESIAN_POINT('',(-1.84707917730628E-15,9.68798202224726,-10.0613080173558));
#502=CARTESIAN_POINT('',(-1.84707917730629E-15,20.9282967557034,0.761933540727556));
#503=CARTESIAN_POINT('',(-1.84707917730629E-15,14.5919694853811,15.0216035879321));
#504=CARTESIAN_POINT('',(-1.84707917730628E-15,-0.97411286729281,13.9333419826426));
#505=CARTESIAN_POINT('',(7.99999999999999,-13.88657318,1.5));
#506=CARTESIAN_POINT('',(8.,-15.5623465556982,-14.0138330764861));
#507=CARTESIAN_POINT('',(8.,-1.55233271120879,-20.8845495754392));
#508=CARTESIAN_POINT('',(7.99999999999999,9.68798202224726,-10.0613080173558));
#509=CARTESIAN_POINT('',(8.,20.9282967557034,0.761933540727556));
#510=CARTESIAN_POINT('',(8.,14.5919694853811,15.0216035879321));
#511=CARTESIAN_POINT('',(7.99999999999999,-0.97411286729281,13.9333419826426));
#512=CARTESIAN_POINT('',(8.,-5.88657318,1.5));
#513=CARTESIAN_POINT('',(7.99999999999999,-7.56234655569822,-5.07637507276218));
#514=CARTESIAN_POINT('',(7.99999999999999,-1.95298459850123,-8.8963206139313));
#515=CARTESIAN_POINT('',(8.,3.55226211146831,-4.92779643399786));
#516=CARTESIAN_POINT('',(7.99999999999999,9.05750882143783,-0.959272254064407));
#517=CARTESIAN_POINT('',(7.99999999999999,7.20654142591892,5.56995780813073));
#518=CARTESIAN_POINT('',(8.,0.437651838589544,6.05889467408656));
#519=CARTESIAN_POINT('',(8.,0.437651838589546,6.05889467408656));
#520=CARTESIAN_POINT('',(8.,-2.63104049560687,6.28055537531491));
#521=CARTESIAN_POINT('',(8.,-5.1268572996462,4.48141541714051));
#522=CARTESIAN_POINT('',(8.,-5.88657318,1.5));
#523=CARTESIAN_POINT('',(7.99999999999999,1.8494165444719,-1.81555263446944));
#524=CARTESIAN_POINT('',(8.,2.76895265648831,-0.878865222319877));
#525=CARTESIAN_POINT('',(8.,2.8731427003538,0.429597388586913));
#526=CARTESIAN_POINT('',(7.99999999999999,2.11342682,1.5));
#527=CARTESIAN_POINT('',(1.12355701329479E-16,1.8494165444719,-1.81555263446944));
#528=CARTESIAN_POINT('',(1.12355701329479E-16,2.76895265648831,-0.878865222319879));
#529=CARTESIAN_POINT('',(1.12355701329479E-16,2.87314270035381,0.429597388586912));
#530=CARTESIAN_POINT('',(1.12355701329479E-16,2.11342682,1.5));
#531=CARTESIAN_POINT('',(-8.67361737988404E-16,0.437651838589546,6.05889467408656));
#532=CARTESIAN_POINT('',(-8.67361737988403E-16,-2.63104049560687,6.28055537531491));
#533=CARTESIAN_POINT('',(-8.67361737988403E-16,-5.1268572996462,4.48141541714051));
#534=CARTESIAN_POINT('',(-8.67361737988404E-16,-5.88657318,1.5));
#535=CARTESIAN_POINT('',(-1.84707917730629E-15,-0.974112867292807,13.9333419826426));
#536=CARTESIAN_POINT('',(-1.84707917730629E-15,-8.03103364770204,13.4399759729497));
#537=CARTESIAN_POINT('',(-1.84707917730629E-15,-13.1268572996462,8.53323344569412));
#538=CARTESIAN_POINT('',(-1.84707917730629E-15,-13.88657318,1.5));
#539=CARTESIAN_POINT('',(7.99999999999999,-0.974112867292807,13.9333419826426));
#540=CARTESIAN_POINT('',(8.,-8.03103364770204,13.4399759729497));
#541=CARTESIAN_POINT('',(8.,-13.1268572996462,8.53323344569412));
#542=CARTESIAN_POINT('',(7.99999999999999,-13.88657318,1.5));
#543=CARTESIAN_POINT('',(8.,0.437651838589546,6.05889467408656));
#544=CARTESIAN_POINT('',(8.,-2.63104049560687,6.28055537531491));
#545=CARTESIAN_POINT('',(8.,-5.1268572996462,4.48141541714051));
#546=CARTESIAN_POINT('',(8.,-5.88657318,1.5));
#547=MECHANICAL_DESIGN_GEOMETRIC_PRESENTATION_REPRESENTATION('',(#35,#36),
#548);
#548=(
GEOMETRIC_REPRESENTATION_CONTEXT(3)
GLOBAL_UNCERTAINTY_ASSIGNED_CONTEXT((#549))
GLOBAL_UNIT_ASSIGNED_CONTEXT((#555,#551,#550))
REPRESENTATION_CONTEXT('AEMR-RD0803-D20-M10-L30-Z03-H',
'TOP_LEVEL_ASSEMBLY_PART')
);
#549=UNCERTAINTY_MEASURE_WITH_UNIT(LENGTH_MEASURE(2.E-5),#555,
'DISTANCE_ACCURACY_VALUE','Maximum Tolerance applied to model');
#550=(
NAMED_UNIT(*)
SI_UNIT($,.STERADIAN.)
SOLID_ANGLE_UNIT()
);
#551=(
CONVERSION_BASED_UNIT('DEGREE',#553)
NAMED_UNIT(#552)
PLANE_ANGLE_UNIT()
);
#552=DIMENSIONAL_EXPONENTS(0.,0.,0.,0.,0.,0.,0.);
#553=PLANE_ANGLE_MEASURE_WITH_UNIT(PLANE_ANGLE_MEASURE(0.0174532925),#554);
#554=(
NAMED_UNIT(*)
PLANE_ANGLE_UNIT()
SI_UNIT($,.RADIAN.)
);
#555=(
LENGTH_UNIT()
NAMED_UNIT(*)
SI_UNIT(.MILLI.,.METRE.)
);
ENDSEC;
END-ISO-10303-21;
