ISO-10303-21;
HEADER;
/* Generated by software containing ST-Developer
 * from STEP Tools, Inc. (www.steptools.com) 
 */
/* OPTION: using custom schema-name function */

FILE_DESCRIPTION(
/* description */ (''),
/* implementation_level */ '2;1');

FILE_NAME(
/* name */ 'AEMR-RD0803-D25-M12-L35-Z04-H.stp',
/* time_stamp */ '2023-10-19T19:59:24+03:00',
/* author */ (''),
/* organization */ (''),
/* preprocessor_version */ 'ST-DEVELOPER v19.4',
/* originating_system */ 'SIEMENS PLM Software NX2306.5001',
/* authorisation */ '');

FILE_SCHEMA (('AUTOMOTIVE_DESIGN { 1 0 10303 214 3 1 1 1 }'));
ENDSEC;

DATA;
#10=PROPERTY_DEFINITION_REPRESENTATION(#14,#12);
#11=PROPERTY_DEFINITION_REPRESENTATION(#15,#13);
#12=REPRESENTATION('',(#16),#572);
#13=REPRESENTATION('',(#17),#572);
#14=PROPERTY_DEFINITION('pmi validation property','',#21);
#15=PROPERTY_DEFINITION('pmi validation property','',#21);
#16=VALUE_REPRESENTATION_ITEM('number of annotations',COUNT_MEASURE(0.));
#17=VALUE_REPRESENTATION_ITEM('number of views',COUNT_MEASURE(0.));
#18=SHAPE_REPRESENTATION_RELATIONSHIP('None',
'relationship between AEMR-RD0803-D25-M12-L35-Z04-H-LIGHT_x_t_objects-
None and AEMR-RD0803-D25-M12-L35-Z04-H-LIGHT_x_t_objects-None',#30,#19);
#19=ADVANCED_BREP_SHAPE_REPRESENTATION(
'AEMR-RD0803-D25-M12-L35-Z04-H-LIGHT_x_t_objects-None',(#70,#71),#572);
#20=SHAPE_DEFINITION_REPRESENTATION(#21,#30);
#21=PRODUCT_DEFINITION_SHAPE('','',#22);
#22=PRODUCT_DEFINITION(' ','',#24,#23);
#23=PRODUCT_DEFINITION_CONTEXT('part definition',#29,'design');
#24=PRODUCT_DEFINITION_FORMATION_WITH_SPECIFIED_SOURCE(' ',' ',#26,
 .NOT_KNOWN.);
#25=PRODUCT_RELATED_PRODUCT_CATEGORY('part','',(#26));
#26=PRODUCT('AEMR-RD0803-D25-M12-L35-Z04-H-LIGHT_x_t_objects',
'AEMR-RD0803-D25-M12-L35-Z04-H-LIGHT_x_t_objects',' ',(#27));
#27=PRODUCT_CONTEXT(' ',#29,'mechanical');
#28=APPLICATION_PROTOCOL_DEFINITION('international standard',
'automotive_design',2010,#29);
#29=APPLICATION_CONTEXT(
'core data for automotive mechanical design processes');
#30=SHAPE_REPRESENTATION(
'AEMR-RD0803-D25-M12-L35-Z04-H-LIGHT_x_t_objects-None',(#265),#572);
#31=COLOUR_RGB('silver gray',0.6,0.6,0.6);
#32=FACE_OUTER_BOUND('',#156,.T.);
#33=FACE_OUTER_BOUND('',#157,.T.);
#34=SURFACE_OF_REVOLUTION('',#36,#35);
#35=AXIS1_PLACEMENT('',#550,#348);
#36=B_SPLINE_CURVE_WITH_KNOTS('',3,(#490,#491,#492,#493,#494,#495,#496,
#497,#498,#499,#500,#501,#502,#503,#504,#505,#506,#507,#508,#509,#510,#511,
#512,#513,#514,#515,#516,#517,#518,#519,#520,#521,#522,#523,#524,#525,#526,
#527,#528,#529,#530,#531,#532,#533,#534,#535,#536,#537,#538,#539,#540,#541,
#542,#543,#544,#545,#546,#547,#548,#549),.UNSPECIFIED.,.T.,.F.,(2,2,2,2,
2,2,2,2,2,2,2,2,2,2,2,2,2,2,2,2,2,2,2,2,2,2,2,2,2,2,2,2),(-0.03125,0.,0.0625,
0.09375,0.125,0.15625,0.1875,0.21875,0.25,0.28125,0.3125,0.34375,0.375,
0.4375,0.46875,0.5,0.53125,0.5625,0.59375,0.625,0.65625,0.6875,0.71875,
0.75,0.8125,0.84375,0.875,0.90625,0.9375,0.96875,1.,1.0625),
 .UNSPECIFIED.);
#37=CYLINDRICAL_SURFACE('',#278,10.5);
#38=CYLINDRICAL_SURFACE('',#282,10.3);
#39=CYLINDRICAL_SURFACE('',#294,5.875);
#40=CYLINDRICAL_SURFACE('',#298,6.25);
#41=CYLINDRICAL_SURFACE('',#301,6.05);
#42=PLANE('',#274);
#43=PLANE('',#288);
#44=PLANE('',#290);
#45=CONICAL_SURFACE('',#272,6.55352761804101,74.9999999999999);
#46=CONICAL_SURFACE('',#276,10.,45.0000000000001);
#47=CONICAL_SURFACE('',#280,10.5,44.9999999999998);
#48=CONICAL_SURFACE('',#286,10.5936609022291,17.9999999999997);
#49=CONICAL_SURFACE('',#292,4.675,45.0000000000001);
#50=CONICAL_SURFACE('',#296,5.875,30.);
#51=CONICAL_SURFACE('',#300,6.25,14.9999999999999);
#52=TOROIDAL_SURFACE('',#270,6.45,0.4);
#53=TOROIDAL_SURFACE('',#284,16.3,6.);
#54=PRESENTATION_LAYER_ASSIGNMENT('1','Layer 1',(#70,#71));
#55=STYLED_ITEM('',(#57),#70);
#56=STYLED_ITEM('',(#58),#71);
#57=PRESENTATION_STYLE_ASSIGNMENT((#59));
#58=PRESENTATION_STYLE_ASSIGNMENT((#60));
#59=SURFACE_STYLE_USAGE(.BOTH.,#61);
#60=SURFACE_STYLE_USAGE(.BOTH.,#62);
#61=SURFACE_SIDE_STYLE('',(#63));
#62=SURFACE_SIDE_STYLE('',(#64));
#63=SURFACE_STYLE_FILL_AREA(#65);
#64=SURFACE_STYLE_FILL_AREA(#66);
#65=FILL_AREA_STYLE('',(#67));
#66=FILL_AREA_STYLE('',(#68));
#67=FILL_AREA_STYLE_COLOUR('',#69);
#68=FILL_AREA_STYLE_COLOUR('',#31);
#69=DRAUGHTING_PRE_DEFINED_COLOUR('yellow');
#70=MANIFOLD_SOLID_BREP('',#72);
#71=MANIFOLD_SOLID_BREP('',#73);
#72=CLOSED_SHELL('',(#74,#75));
#73=CLOSED_SHELL('',(#76,#77,#78,#79,#80,#81,#82,#83,#84,#85,#86,#87,#88,
#89,#90,#91,#92,#93));
#74=ADVANCED_FACE('',(#96,#97),#94,.F.);
#75=ADVANCED_FACE('',(#98,#99),#95,.F.);
#76=ADVANCED_FACE('',(#100,#101),#52,.F.);
#77=ADVANCED_FACE('',(#102,#103),#45,.F.);
#78=ADVANCED_FACE('',(#104,#105),#42,.F.);
#79=ADVANCED_FACE('',(#106,#107),#46,.T.);
#80=ADVANCED_FACE('',(#108,#109),#37,.T.);
#81=ADVANCED_FACE('',(#110,#111),#47,.T.);
#82=ADVANCED_FACE('',(#112,#113),#38,.T.);
#83=ADVANCED_FACE('',(#114,#115),#53,.F.);
#84=ADVANCED_FACE('',(#116,#117),#48,.T.);
#85=ADVANCED_FACE('',(#118,#119),#34,.T.);
#86=ADVANCED_FACE('',(#32),#43,.F.);
#87=ADVANCED_FACE('',(#33),#44,.F.);
#88=ADVANCED_FACE('',(#120,#121),#49,.T.);
#89=ADVANCED_FACE('',(#122,#123),#39,.T.);
#90=ADVANCED_FACE('',(#124,#125),#50,.T.);
#91=ADVANCED_FACE('',(#126,#127),#40,.T.);
#92=ADVANCED_FACE('',(#128,#129),#51,.T.);
#93=ADVANCED_FACE('',(#130,#131),#41,.T.);
#94=(
BOUNDED_SURFACE()
B_SPLINE_SURFACE(3,3,((#382,#383,#384,#385,#386,#387,#388),(#389,#390,#391,
#392,#393,#394,#395),(#396,#397,#398,#399,#400,#401,#402),(#403,#404,#405,
#406,#407,#408,#409),(#410,#411,#412,#413,#414,#415,#416),(#417,#418,#419,
#420,#421,#422,#423),(#424,#425,#426,#427,#428,#429,#430)),
 .UNSPECIFIED.,.T.,.F.,.F.)
B_SPLINE_SURFACE_WITH_KNOTS((1,3,3,3,1),(4,3,4),(-0.5,0.,0.5,1.,1.5),(0.,
0.5,1.),.UNSPECIFIED.)
GEOMETRIC_REPRESENTATION_ITEM()
RATIONAL_B_SPLINE_SURFACE(((1.,0.56578606232847,0.56578606232847,1.,0.56578606232847,
0.56578606232847,1.),(0.333333333333334,0.18859535410949,0.18859535410949,
0.333333333333334,0.18859535410949,0.18859535410949,0.333333333333334),
(0.333333333333334,0.18859535410949,0.18859535410949,0.333333333333334,
0.18859535410949,0.18859535410949,0.333333333333334),(1.,0.56578606232847,
0.56578606232847,1.,0.56578606232847,0.56578606232847,1.),(0.333333333333334,
0.18859535410949,0.18859535410949,0.333333333333334,0.18859535410949,0.18859535410949,
0.333333333333334),(0.333333333333334,0.18859535410949,0.18859535410949,
0.333333333333334,0.18859535410949,0.18859535410949,0.333333333333334),
(1.,0.56578606232847,0.56578606232847,1.,0.56578606232847,0.56578606232847,
1.)))
REPRESENTATION_ITEM('')
SURFACE()
);
#95=(
BOUNDED_SURFACE()
B_SPLINE_SURFACE(3,3,((#431,#432,#433,#434),(#435,#436,#437,#438),(#439,
#440,#441,#442),(#443,#444,#445,#446),(#447,#448,#449,#450),(#451,#452,
#453,#454),(#455,#456,#457,#458)),.UNSPECIFIED.,.T.,.F.,.F.)
B_SPLINE_SURFACE_WITH_KNOTS((1,3,3,3,1),(4,4),(-0.5,0.,0.5,1.,1.5),(0.,
1.),.UNSPECIFIED.)
GEOMETRIC_REPRESENTATION_ITEM()
RATIONAL_B_SPLINE_SURFACE(((1.,0.83789718634814,0.83789718634814,1.),(0.333333333333334,
0.279299062116047,0.279299062116047,0.333333333333334),(0.333333333333334,
0.279299062116047,0.279299062116047,0.333333333333334),(1.,0.83789718634814,
0.83789718634814,1.),(0.333333333333334,0.279299062116047,0.279299062116047,
0.333333333333334),(0.333333333333334,0.279299062116047,0.279299062116047,
0.333333333333334),(1.,0.83789718634814,0.83789718634814,1.)))
REPRESENTATION_ITEM('')
SURFACE()
);
#96=FACE_BOUND('',#132,.T.);
#97=FACE_BOUND('',#133,.T.);
#98=FACE_BOUND('',#134,.T.);
#99=FACE_BOUND('',#135,.T.);
#100=FACE_BOUND('',#136,.T.);
#101=FACE_BOUND('',#137,.T.);
#102=FACE_BOUND('',#138,.T.);
#103=FACE_BOUND('',#139,.T.);
#104=FACE_BOUND('',#140,.T.);
#105=FACE_BOUND('',#141,.T.);
#106=FACE_BOUND('',#142,.T.);
#107=FACE_BOUND('',#143,.T.);
#108=FACE_BOUND('',#144,.T.);
#109=FACE_BOUND('',#145,.T.);
#110=FACE_BOUND('',#146,.T.);
#111=FACE_BOUND('',#147,.T.);
#112=FACE_BOUND('',#148,.T.);
#113=FACE_BOUND('',#149,.T.);
#114=FACE_BOUND('',#150,.T.);
#115=FACE_BOUND('',#151,.T.);
#116=FACE_BOUND('',#152,.T.);
#117=FACE_BOUND('',#153,.T.);
#118=FACE_BOUND('',#154,.T.);
#119=FACE_BOUND('',#155,.T.);
#120=FACE_BOUND('',#158,.T.);
#121=FACE_BOUND('',#159,.T.);
#122=FACE_BOUND('',#160,.T.);
#123=FACE_BOUND('',#161,.T.);
#124=FACE_BOUND('',#162,.T.);
#125=FACE_BOUND('',#163,.T.);
#126=FACE_BOUND('',#164,.T.);
#127=FACE_BOUND('',#165,.T.);
#128=FACE_BOUND('',#166,.T.);
#129=FACE_BOUND('',#167,.T.);
#130=FACE_BOUND('',#168,.T.);
#131=FACE_BOUND('',#169,.T.);
#132=EDGE_LOOP('',(#170));
#133=EDGE_LOOP('',(#171));
#134=EDGE_LOOP('',(#172));
#135=EDGE_LOOP('',(#173));
#136=EDGE_LOOP('',(#174));
#137=EDGE_LOOP('',(#175));
#138=EDGE_LOOP('',(#176));
#139=EDGE_LOOP('',(#177));
#140=EDGE_LOOP('',(#178));
#141=EDGE_LOOP('',(#179));
#142=EDGE_LOOP('',(#180));
#143=EDGE_LOOP('',(#181));
#144=EDGE_LOOP('',(#182));
#145=EDGE_LOOP('',(#183));
#146=EDGE_LOOP('',(#184));
#147=EDGE_LOOP('',(#185));
#148=EDGE_LOOP('',(#186));
#149=EDGE_LOOP('',(#187));
#150=EDGE_LOOP('',(#188));
#151=EDGE_LOOP('',(#189));
#152=EDGE_LOOP('',(#190));
#153=EDGE_LOOP('',(#191));
#154=EDGE_LOOP('',(#192));
#155=EDGE_LOOP('',(#193));
#156=EDGE_LOOP('',(#194));
#157=EDGE_LOOP('',(#195));
#158=EDGE_LOOP('',(#196));
#159=EDGE_LOOP('',(#197));
#160=EDGE_LOOP('',(#198));
#161=EDGE_LOOP('',(#199));
#162=EDGE_LOOP('',(#200));
#163=EDGE_LOOP('',(#201));
#164=EDGE_LOOP('',(#202));
#165=EDGE_LOOP('',(#203));
#166=EDGE_LOOP('',(#204));
#167=EDGE_LOOP('',(#205));
#168=EDGE_LOOP('',(#206));
#169=EDGE_LOOP('',(#207));
#170=ORIENTED_EDGE('',*,*,#227,.T.);
#171=ORIENTED_EDGE('',*,*,#228,.T.);
#172=ORIENTED_EDGE('',*,*,#228,.F.);
#173=ORIENTED_EDGE('',*,*,#227,.F.);
#174=ORIENTED_EDGE('',*,*,#229,.F.);
#175=ORIENTED_EDGE('',*,*,#230,.T.);
#176=ORIENTED_EDGE('',*,*,#231,.F.);
#177=ORIENTED_EDGE('',*,*,#229,.T.);
#178=ORIENTED_EDGE('',*,*,#232,.F.);
#179=ORIENTED_EDGE('',*,*,#231,.T.);
#180=ORIENTED_EDGE('',*,*,#233,.F.);
#181=ORIENTED_EDGE('',*,*,#232,.T.);
#182=ORIENTED_EDGE('',*,*,#234,.F.);
#183=ORIENTED_EDGE('',*,*,#233,.T.);
#184=ORIENTED_EDGE('',*,*,#235,.F.);
#185=ORIENTED_EDGE('',*,*,#234,.T.);
#186=ORIENTED_EDGE('',*,*,#236,.F.);
#187=ORIENTED_EDGE('',*,*,#235,.T.);
#188=ORIENTED_EDGE('',*,*,#237,.F.);
#189=ORIENTED_EDGE('',*,*,#236,.T.);
#190=ORIENTED_EDGE('',*,*,#238,.F.);
#191=ORIENTED_EDGE('',*,*,#237,.T.);
#192=ORIENTED_EDGE('',*,*,#239,.F.);
#193=ORIENTED_EDGE('',*,*,#238,.T.);
#194=ORIENTED_EDGE('',*,*,#239,.T.);
#195=ORIENTED_EDGE('',*,*,#240,.F.);
#196=ORIENTED_EDGE('',*,*,#241,.F.);
#197=ORIENTED_EDGE('',*,*,#240,.T.);
#198=ORIENTED_EDGE('',*,*,#242,.F.);
#199=ORIENTED_EDGE('',*,*,#241,.T.);
#200=ORIENTED_EDGE('',*,*,#243,.F.);
#201=ORIENTED_EDGE('',*,*,#242,.T.);
#202=ORIENTED_EDGE('',*,*,#244,.F.);
#203=ORIENTED_EDGE('',*,*,#243,.T.);
#204=ORIENTED_EDGE('',*,*,#245,.F.);
#205=ORIENTED_EDGE('',*,*,#244,.T.);
#206=ORIENTED_EDGE('',*,*,#230,.F.);
#207=ORIENTED_EDGE('',*,*,#245,.T.);
#208=VERTEX_POINT('',#379);
#209=VERTEX_POINT('',#381);
#210=VERTEX_POINT('',#460);
#211=VERTEX_POINT('',#462);
#212=VERTEX_POINT('',#465);
#213=VERTEX_POINT('',#468);
#214=VERTEX_POINT('',#471);
#215=VERTEX_POINT('',#474);
#216=VERTEX_POINT('',#477);
#217=VERTEX_POINT('',#480);
#218=VERTEX_POINT('',#483);
#219=VERTEX_POINT('',#486);
#220=VERTEX_POINT('',#489);
#221=VERTEX_POINT('',#553);
#222=VERTEX_POINT('',#556);
#223=VERTEX_POINT('',#559);
#224=VERTEX_POINT('',#562);
#225=VERTEX_POINT('',#565);
#226=VERTEX_POINT('',#568);
#227=EDGE_CURVE('',#208,#208,#246,.T.);
#228=EDGE_CURVE('',#209,#209,#247,.T.);
#229=EDGE_CURVE('',#210,#210,#248,.T.);
#230=EDGE_CURVE('',#211,#211,#249,.T.);
#231=EDGE_CURVE('',#212,#212,#250,.T.);
#232=EDGE_CURVE('',#213,#213,#251,.T.);
#233=EDGE_CURVE('',#214,#214,#252,.T.);
#234=EDGE_CURVE('',#215,#215,#253,.T.);
#235=EDGE_CURVE('',#216,#216,#254,.T.);
#236=EDGE_CURVE('',#217,#217,#255,.T.);
#237=EDGE_CURVE('',#218,#218,#256,.T.);
#238=EDGE_CURVE('',#219,#219,#257,.T.);
#239=EDGE_CURVE('',#220,#220,#258,.T.);
#240=EDGE_CURVE('',#221,#221,#259,.T.);
#241=EDGE_CURVE('',#222,#222,#260,.T.);
#242=EDGE_CURVE('',#223,#223,#261,.T.);
#243=EDGE_CURVE('',#224,#224,#262,.T.);
#244=EDGE_CURVE('',#225,#225,#263,.T.);
#245=EDGE_CURVE('',#226,#226,#264,.T.);
#246=CIRCLE('',#266,4.);
#247=CIRCLE('',#267,4.);
#248=CIRCLE('',#268,6.55352761804101);
#249=CIRCLE('',#269,6.05);
#250=CIRCLE('',#271,7.75);
#251=CIRCLE('',#273,10.);
#252=CIRCLE('',#275,10.5);
#253=CIRCLE('',#277,10.5);
#254=CIRCLE('',#279,10.3);
#255=CIRCLE('',#281,10.3);
#256=CIRCLE('',#283,10.5936609022291);
#257=CIRCLE('',#285,11.3819151909949);
#258=CIRCLE('',#287,5.88670561515475);
#259=CIRCLE('',#289,4.675);
#260=CIRCLE('',#291,5.875);
#261=CIRCLE('',#293,5.875);
#262=CIRCLE('',#295,6.25);
#263=CIRCLE('',#297,6.25);
#264=CIRCLE('',#299,6.05);
#265=AXIS2_PLACEMENT_3D('',#377,#302,#303);
#266=AXIS2_PLACEMENT_3D('',#378,#304,#305);
#267=AXIS2_PLACEMENT_3D('',#380,#306,#307);
#268=AXIS2_PLACEMENT_3D('',#459,#308,#309);
#269=AXIS2_PLACEMENT_3D('',#461,#310,#311);
#270=AXIS2_PLACEMENT_3D('',#463,#312,#313);
#271=AXIS2_PLACEMENT_3D('',#464,#314,#315);
#272=AXIS2_PLACEMENT_3D('',#466,#316,#317);
#273=AXIS2_PLACEMENT_3D('',#467,#318,#319);
#274=AXIS2_PLACEMENT_3D('',#469,#320,#321);
#275=AXIS2_PLACEMENT_3D('',#470,#322,#323);
#276=AXIS2_PLACEMENT_3D('',#472,#324,#325);
#277=AXIS2_PLACEMENT_3D('',#473,#326,#327);
#278=AXIS2_PLACEMENT_3D('',#475,#328,#329);
#279=AXIS2_PLACEMENT_3D('',#476,#330,#331);
#280=AXIS2_PLACEMENT_3D('',#478,#332,#333);
#281=AXIS2_PLACEMENT_3D('',#479,#334,#335);
#282=AXIS2_PLACEMENT_3D('',#481,#336,#337);
#283=AXIS2_PLACEMENT_3D('',#482,#338,#339);
#284=AXIS2_PLACEMENT_3D('',#484,#340,#341);
#285=AXIS2_PLACEMENT_3D('',#485,#342,#343);
#286=AXIS2_PLACEMENT_3D('',#487,#344,#345);
#287=AXIS2_PLACEMENT_3D('',#488,#346,#347);
#288=AXIS2_PLACEMENT_3D('',#551,#349,#350);
#289=AXIS2_PLACEMENT_3D('',#552,#351,#352);
#290=AXIS2_PLACEMENT_3D('',#554,#353,#354);
#291=AXIS2_PLACEMENT_3D('',#555,#355,#356);
#292=AXIS2_PLACEMENT_3D('',#557,#357,#358);
#293=AXIS2_PLACEMENT_3D('',#558,#359,#360);
#294=AXIS2_PLACEMENT_3D('',#560,#361,#362);
#295=AXIS2_PLACEMENT_3D('',#561,#363,#364);
#296=AXIS2_PLACEMENT_3D('',#563,#365,#366);
#297=AXIS2_PLACEMENT_3D('',#564,#367,#368);
#298=AXIS2_PLACEMENT_3D('',#566,#369,#370);
#299=AXIS2_PLACEMENT_3D('',#567,#371,#372);
#300=AXIS2_PLACEMENT_3D('',#569,#373,#374);
#301=AXIS2_PLACEMENT_3D('',#570,#375,#376);
#302=DIRECTION('',(0.,0.,1.));
#303=DIRECTION('',(1.,0.,0.));
#304=DIRECTION('',(0.,0.989338967212194,0.145631067961165));
#305=DIRECTION('',(1.,0.,0.));
#306=DIRECTION('',(0.,0.,-1.));
#307=DIRECTION('',(1.,0.,0.));
#308=DIRECTION('',(-1.,0.,0.));
#309=DIRECTION('',(0.,0.,1.));
#310=DIRECTION('',(-1.,0.,0.));
#311=DIRECTION('',(0.,0.,1.));
#312=DIRECTION('',(-1.,0.,0.));
#313=DIRECTION('',(0.,0.,1.));
#314=DIRECTION('',(-1.,0.,0.));
#315=DIRECTION('',(0.,0.,1.));
#316=DIRECTION('',(1.,0.,0.));
#317=DIRECTION('',(-1.11360710283246E-17,0.,-1.));
#318=DIRECTION('',(-1.,0.,0.));
#319=DIRECTION('',(0.,0.,1.));
#320=DIRECTION('',(-1.,0.,0.));
#321=DIRECTION('',(0.,0.,1.));
#322=DIRECTION('',(-1.,0.,0.));
#323=DIRECTION('',(0.,0.,1.));
#324=DIRECTION('',(-1.,0.,0.));
#325=DIRECTION('',(2.74807679362661E-17,0.,1.));
#326=DIRECTION('',(-1.,0.,0.));
#327=DIRECTION('',(0.,0.,1.));
#328=DIRECTION('',(-1.,0.,0.));
#329=DIRECTION('',(0.,0.,1.));
#330=DIRECTION('',(-1.,0.,0.));
#331=DIRECTION('',(0.,0.,1.));
#332=DIRECTION('',(1.,0.,0.));
#333=DIRECTION('',(-1.03001888726976E-16,0.,-1.));
#334=DIRECTION('',(-1.,0.,0.));
#335=DIRECTION('',(0.,0.,1.));
#336=DIRECTION('',(-1.,0.,0.));
#337=DIRECTION('',(0.,0.,1.));
#338=DIRECTION('',(-1.,0.,0.));
#339=DIRECTION('',(0.,0.,1.));
#340=DIRECTION('',(-1.,0.,0.));
#341=DIRECTION('',(0.,0.,1.));
#342=DIRECTION('',(-1.,0.,0.));
#343=DIRECTION('',(0.,0.,1.));
#344=DIRECTION('',(-1.,0.,0.));
#345=DIRECTION('',(3.61924915166552E-17,0.,1.));
#346=DIRECTION('',(-1.,0.,0.));
#347=DIRECTION('',(0.,0.,1.));
#348=DIRECTION('',(-1.,0.,0.));
#349=DIRECTION('',(1.,0.,0.));
#350=DIRECTION('',(0.,0.,-1.));
#351=DIRECTION('',(-1.,0.,0.));
#352=DIRECTION('',(0.,0.,1.));
#353=DIRECTION('',(-1.,0.,0.));
#354=DIRECTION('',(0.,0.,1.));
#355=DIRECTION('',(-1.,0.,0.));
#356=DIRECTION('',(0.,0.,1.));
#357=DIRECTION('',(-1.,0.,0.));
#358=DIRECTION('',(4.83462386616074E-17,0.,1.));
#359=DIRECTION('',(-1.,0.,0.));
#360=DIRECTION('',(0.,0.,1.));
#361=DIRECTION('',(-1.,0.,0.));
#362=DIRECTION('',(0.,0.,1.));
#363=DIRECTION('',(-1.,0.,0.));
#364=DIRECTION('',(0.,0.,1.));
#365=DIRECTION('',(-1.,0.,0.));
#366=DIRECTION('',(-7.13847043721059E-17,0.,1.));
#367=DIRECTION('',(-1.,0.,0.));
#368=DIRECTION('',(0.,0.,1.));
#369=DIRECTION('',(-1.,0.,0.));
#370=DIRECTION('',(0.,0.,1.));
#371=DIRECTION('',(-1.,0.,0.));
#372=DIRECTION('',(0.,0.,1.));
#373=DIRECTION('',(1.,0.,0.));
#374=DIRECTION('',(2.5306033334326E-17,0.,-1.));
#375=DIRECTION('',(-1.,0.,0.));
#376=DIRECTION('',(0.,0.,1.));
#377=CARTESIAN_POINT('',(0.,0.,0.));
#378=CARTESIAN_POINT('',(4.,0.259325250332853,8.53828404935707));
#379=CARTESIAN_POINT('',(8.,0.259325250332853,8.53828404935707));
#380=CARTESIAN_POINT('',(4.,-8.40949131,1.5));
#381=CARTESIAN_POINT('',(8.,-8.40949131,1.5));
#382=CARTESIAN_POINT('',(8.,-8.40949131,1.5));
#383=CARTESIAN_POINT('',(8.,-10.0660223467704,-7.78705557231065));
#384=CARTESIAN_POINT('',(8.,-1.93939994704355,-12.5778284380629));
#385=CARTESIAN_POINT('',(8.,5.3842977527154,-6.63165754567208));
#386=CARTESIAN_POINT('',(8.,12.7079954524744,-0.685486653281292));
#387=CARTESIAN_POINT('',(8.,9.68861360268062,8.25189716549399));
#388=CARTESIAN_POINT('',(8.,0.259325250332855,8.53828404935707));
#389=CARTESIAN_POINT('',(7.99999999999999,-0.409491309999999,1.5));
#390=CARTESIAN_POINT('',(8.,-2.0660223467704,1.04777662379816));
#391=CARTESIAN_POINT('',(8.,-2.21977726748386,-0.662474960654675));
#392=CARTESIAN_POINT('',(7.99999999999999,-0.670468483462285,-1.40290952867578));
#393=CARTESIAN_POINT('',(8.,0.87884030055929,-2.14334409669689));
#394=CARTESIAN_POINT('',(8.,2.11301838597861,-0.949440620180581));
#395=CARTESIAN_POINT('',(7.99999999999999,1.42437379402217,0.623572311659515));
#396=CARTESIAN_POINT('',(1.12355701329479E-16,-0.409491309999999,1.5));
#397=CARTESIAN_POINT('',(1.12355701329479E-16,-2.0660223467704,1.04777662379816));
#398=CARTESIAN_POINT('',(1.12355701329479E-16,-2.21977726748386,-0.662474960654675));
#399=CARTESIAN_POINT('',(1.12355701329479E-16,-0.670468483462285,-1.40290952867578));
#400=CARTESIAN_POINT('',(1.12355701329479E-16,0.87884030055929,-2.14334409669689));
#401=CARTESIAN_POINT('',(1.12355701329479E-16,2.11301838597861,-0.949440620180581));
#402=CARTESIAN_POINT('',(1.12355701329479E-16,1.42437379402217,0.623572311659515));
#403=CARTESIAN_POINT('',(-8.67361737988404E-16,-8.40949131,1.5));
#404=CARTESIAN_POINT('',(-8.67361737988404E-16,-10.0660223467704,-7.78705557231065));
#405=CARTESIAN_POINT('',(-8.67361737988404E-16,-1.93939994704355,-12.5778284380629));
#406=CARTESIAN_POINT('',(-8.67361737988404E-16,5.3842977527154,-6.63165754567208));
#407=CARTESIAN_POINT('',(-8.67361737988404E-16,12.7079954524744,-0.685486653281292));
#408=CARTESIAN_POINT('',(-8.67361737988404E-16,9.68861360268062,8.25189716549399));
#409=CARTESIAN_POINT('',(-8.67361737988404E-16,0.259325250332855,8.53828404935707));
#410=CARTESIAN_POINT('',(-1.84707917730629E-15,-16.40949131,1.5));
#411=CARTESIAN_POINT('',(-1.84707917730629E-15,-18.0660223467704,-16.6218877684195));
#412=CARTESIAN_POINT('',(-1.84707917730629E-15,-1.65902262660323,-24.4931819154711));
#413=CARTESIAN_POINT('',(-1.84707917730629E-15,11.4390639888931,-11.8604055626684));
#414=CARTESIAN_POINT('',(-1.84707917730629E-15,24.5371506043894,0.772370790134302));
#415=CARTESIAN_POINT('',(-1.84707917730629E-15,17.2642088193826,17.4532349511685));
#416=CARTESIAN_POINT('',(-1.84707917730629E-15,-0.905723293356465,16.4529957870546));
#417=CARTESIAN_POINT('',(7.99999999999999,-16.40949131,1.5));
#418=CARTESIAN_POINT('',(8.,-18.0660223467704,-16.6218877684195));
#419=CARTESIAN_POINT('',(8.,-1.65902262660323,-24.4931819154711));
#420=CARTESIAN_POINT('',(7.99999999999999,11.4390639888931,-11.8604055626684));
#421=CARTESIAN_POINT('',(8.,24.5371506043894,0.772370790134302));
#422=CARTESIAN_POINT('',(8.,17.2642088193826,17.4532349511685));
#423=CARTESIAN_POINT('',(7.99999999999999,-0.905723293356465,16.4529957870546));
#424=CARTESIAN_POINT('',(8.,-8.40949131,1.5));
#425=CARTESIAN_POINT('',(8.,-10.0660223467704,-7.78705557231065));
#426=CARTESIAN_POINT('',(8.,-1.93939994704355,-12.5778284380629));
#427=CARTESIAN_POINT('',(8.,5.3842977527154,-6.63165754567208));
#428=CARTESIAN_POINT('',(8.,12.7079954524744,-0.685486653281292));
#429=CARTESIAN_POINT('',(8.,9.68861360268062,8.25189716549399));
#430=CARTESIAN_POINT('',(8.,0.259325250332855,8.53828404935707));
#431=CARTESIAN_POINT('',(8.,0.259325250332853,8.53828404935707));
#432=CARTESIAN_POINT('',(8.,-4.18081137173928,8.67314013219231));
#433=CARTESIAN_POINT('',(8.,-7.62945109411966,5.87316094459752));
#434=CARTESIAN_POINT('',(8.,-8.40949131,1.5));
#435=CARTESIAN_POINT('',(7.99999999999999,1.42437379402217,0.623572311659515));
#436=CARTESIAN_POINT('',(8.,1.10009947361958,1.36428487284842));
#437=CARTESIAN_POINT('',(8.,0.370548905880346,1.71294645990235));
#438=CARTESIAN_POINT('',(7.99999999999999,-0.409491309999999,1.5));
#439=CARTESIAN_POINT('',(1.12355701329479E-16,1.42437379402217,0.623572311659515));
#440=CARTESIAN_POINT('',(1.12355701329479E-16,1.10009947361958,1.36428487284842));
#441=CARTESIAN_POINT('',(1.12355701329479E-16,0.370548905880346,1.71294645990235));
#442=CARTESIAN_POINT('',(1.12355701329479E-16,-0.409491309999999,1.5));
#443=CARTESIAN_POINT('',(-8.67361737988404E-16,0.259325250332853,8.53828404935707));
#444=CARTESIAN_POINT('',(-8.67361737988404E-16,-4.18081137173928,8.67314013219231));
#445=CARTESIAN_POINT('',(-8.67361737988404E-16,-7.62945109411966,5.87316094459752));
#446=CARTESIAN_POINT('',(-8.67361737988404E-16,-8.40949131,1.5));
#447=CARTESIAN_POINT('',(-1.84707917730629E-15,-0.905723293356469,16.4529957870546));
#448=CARTESIAN_POINT('',(-1.84707917730628E-15,-9.46172221709812,15.9819953915362));
#449=CARTESIAN_POINT('',(-1.84707917730628E-15,-15.6294510941197,10.0333754292927));
#450=CARTESIAN_POINT('',(-1.84707917730629E-15,-16.40949131,1.5));
#451=CARTESIAN_POINT('',(7.99999999999999,-0.905723293356469,16.4529957870546));
#452=CARTESIAN_POINT('',(8.,-9.46172221709812,15.9819953915362));
#453=CARTESIAN_POINT('',(8.,-15.6294510941197,10.0333754292927));
#454=CARTESIAN_POINT('',(7.99999999999999,-16.40949131,1.5));
#455=CARTESIAN_POINT('',(8.,0.259325250332853,8.53828404935707));
#456=CARTESIAN_POINT('',(8.,-4.18081137173928,8.67314013219231));
#457=CARTESIAN_POINT('',(8.,-7.62945109411966,5.87316094459752));
#458=CARTESIAN_POINT('',(8.,-8.40949131,1.5));
#459=CARTESIAN_POINT('',(34.6794061914879,0.,0.));
#460=CARTESIAN_POINT('',(34.6794061914879,0.,6.55352761804101));
#461=CARTESIAN_POINT('',(35.0657765220036,0.,0.));
#462=CARTESIAN_POINT('',(35.0657765220036,0.,6.05));
#463=CARTESIAN_POINT('',(35.0657765220036,0.,0.));
#464=CARTESIAN_POINT('',(35.,0.,0.));
#465=CARTESIAN_POINT('',(35.,0.,7.75));
#466=CARTESIAN_POINT('',(34.6794061914879,0.,0.));
#467=CARTESIAN_POINT('',(35.,0.,0.));
#468=CARTESIAN_POINT('',(35.,0.,10.));
#469=CARTESIAN_POINT('',(35.,10.,0.));
#470=CARTESIAN_POINT('',(34.5,0.,0.));
#471=CARTESIAN_POINT('',(34.5,0.,10.5));
#472=CARTESIAN_POINT('',(35.,0.,0.));
#473=CARTESIAN_POINT('',(31.2,0.,0.));
#474=CARTESIAN_POINT('',(31.2,0.,10.5));
#475=CARTESIAN_POINT('',(0.,0.,0.));
#476=CARTESIAN_POINT('',(31.,0.,0.));
#477=CARTESIAN_POINT('',(31.,0.,10.3));
#478=CARTESIAN_POINT('',(31.2,0.,0.));
#479=CARTESIAN_POINT('',(9.6214196356384,0.,0.));
#480=CARTESIAN_POINT('',(9.6214196356384,0.,10.3));
#481=CARTESIAN_POINT('',(0.,0.,0.));
#482=CARTESIAN_POINT('',(7.76731766938875,0.,0.));
#483=CARTESIAN_POINT('',(7.76731766938875,0.,10.5936609022291));
#484=CARTESIAN_POINT('',(9.6214196356384,0.,0.));
#485=CARTESIAN_POINT('',(5.34132042174636,0.,0.));
#486=CARTESIAN_POINT('',(5.34132042174636,0.,11.3819151909949));
#487=CARTESIAN_POINT('',(7.76731766938875,0.,0.));
#488=CARTESIAN_POINT('',(2.50000000000162,0.,0.));
#489=CARTESIAN_POINT('',(2.50000000000162,0.,5.88670561515475));
#490=CARTESIAN_POINT('',(3.79438863740441,5.52327042151691,0.));
#491=CARTESIAN_POINT('',(4.41122272519118,5.52327042151691,0.));
#492=CARTESIAN_POINT('',(4.82051996797053,5.60075725481474,0.));
#493=CARTESIAN_POINT('',(5.3872272204682,5.82386979714734,0.));
#494=CARTESIAN_POINT('',(5.5707935741125,5.91705415908929,0.));
#495=CARTESIAN_POINT('',(5.91565764361734,6.13731761570484,0.));
#496=CARTESIAN_POINT('',(6.07526150173592,6.26286006260102,0.));
#497=CARTESIAN_POINT('',(6.36864743874952,6.54496512273693,0.));
#498=CARTESIAN_POINT('',(6.50302281574503,6.70304327396783,0.));
#499=CARTESIAN_POINT('',(6.73352160199465,7.03789804270045,0.));
#500=CARTESIAN_POINT('',(6.83130655251462,7.21586127133718,0.));
#501=CARTESIAN_POINT('',(6.99086916213943,7.59350999158425,0.));
#502=CARTESIAN_POINT('',(7.0508377431509,7.78971729650973,0.));
#503=CARTESIAN_POINT('',(7.12978644750035,8.18759292230133,0.));
#504=CARTESIAN_POINT('',(7.14929914708754,8.39261407463065,0.));
#505=CARTESIAN_POINT('',(7.14639102094857,8.80174502812782,0.));
#506=CARTESIAN_POINT('',(7.12443383020489,9.00342051227896,0.));
#507=CARTESIAN_POINT('',(7.04068787976871,9.40115707183169,0.));
#508=CARTESIAN_POINT('',(6.97783630221792,9.59889447707346,0.));
#509=CARTESIAN_POINT('',(6.81681051161535,9.97231660394951,0.));
#510=CARTESIAN_POINT('',(6.71862231738013,10.1497648501095,0.));
#511=CARTESIAN_POINT('',(6.48673564705539,10.486052024786,0.));
#512=CARTESIAN_POINT('',(6.353340875809,10.6435640787717,0.));
#513=CARTESIAN_POINT('',(5.91704522427608,11.0676439869858,0.));
#514=CARTESIAN_POINT('',(5.56666236693505,11.2955426393935,0.));
#515=CARTESIAN_POINT('',(5.00252180943052,11.5235295903484,0.));
#516=CARTESIAN_POINT('',(4.80474893421954,11.5821536440607,0.));
#517=CARTESIAN_POINT('',(4.40360159028569,11.6597795352732,0.));
#518=CARTESIAN_POINT('',(4.20165719198823,11.6789822288142,0.));
#519=CARTESIAN_POINT('',(3.79506929497698,11.6787730227902,0.));
#520=CARTESIAN_POINT('',(3.58871127511778,11.6587286874539,0.));
#521=CARTESIAN_POINT('',(3.18955975978096,11.5806007514304,0.));
#522=CARTESIAN_POINT('',(2.99508031332032,11.5228317096587,0.));
#523=CARTESIAN_POINT('',(2.61647867181112,11.3692792381169,0.));
#524=CARTESIAN_POINT('',(2.43369903986848,11.2735286912538,0.));
#525=CARTESIAN_POINT('',(2.09400400852595,11.0514906355507,0.));
#526=CARTESIAN_POINT('',(1.93480856593965,10.9241952963764,0.));
#527=CARTESIAN_POINT('',(1.64062234959463,10.6371301397969,0.));
#528=CARTESIAN_POINT('',(1.50979655238875,10.4815326513681,0.));
#529=CARTESIAN_POINT('',(1.27975640577733,10.1468925410239,0.));
#530=CARTESIAN_POINT('',(1.1797544551177,9.96566883143152,0.));
#531=CARTESIAN_POINT('',(1.01923657468447,9.59073514317807,0.));
#532=CARTESIAN_POINT('',(0.958154500707288,9.39720707249986,0.));
#533=CARTESIAN_POINT('',(0.874738347509959,8.99790386367657,0.));
#534=CARTESIAN_POINT('',(0.853004655972001,8.79205277038043,0.));
#535=CARTESIAN_POINT('',(0.850314571221306,8.18298767534468,0.));
#536=CARTESIAN_POINT('',(0.932544151172441,7.77268765955671,0.));
#537=CARTESIAN_POINT('',(1.17063273159411,7.21233776524643,0.));
#538=CARTESIAN_POINT('',(1.27059997109749,7.03090292234278,0.));
#539=CARTESIAN_POINT('',(1.50266662565968,6.69582915156721,0.));
#540=CARTESIAN_POINT('',(1.63427563369624,6.54175806749689,0.));
#541=CARTESIAN_POINT('',(1.92807613220874,6.26005568319545,0.));
#542=CARTESIAN_POINT('',(2.09138454914812,6.13229192245535,0.));
#543=CARTESIAN_POINT('',(2.43393294199441,5.91458168667356,0.));
#544=CARTESIAN_POINT('',(2.61473575763291,5.82285250748795,0.));
#545=CARTESIAN_POINT('',(2.99532234190054,5.67350891749398,0.));
#546=CARTESIAN_POINT('',(3.19333133141946,5.6170160987141,0.));
#547=CARTESIAN_POINT('',(3.59197449210111,5.54226829471923,0.));
#548=CARTESIAN_POINT('',(3.79438863740441,5.52327042151691,0.));
#549=CARTESIAN_POINT('',(4.41122272519118,5.52327042151691,0.));
#550=CARTESIAN_POINT('',(0.,0.,0.));
#551=CARTESIAN_POINT('',(2.50000000000081,5.8867056151556,0.));
#552=CARTESIAN_POINT('',(57.,0.,0.));
#553=CARTESIAN_POINT('',(57.,0.,4.675));
#554=CARTESIAN_POINT('',(57.,0.,0.));
#555=CARTESIAN_POINT('',(55.8,0.,0.));
#556=CARTESIAN_POINT('',(55.8,0.,5.875));
#557=CARTESIAN_POINT('',(57.,0.,0.));
#558=CARTESIAN_POINT('',(41.6495190528384,0.,0.));
#559=CARTESIAN_POINT('',(41.6495190528384,0.,5.875));
#560=CARTESIAN_POINT('',(0.,0.,0.));
#561=CARTESIAN_POINT('',(41.,0.,0.));
#562=CARTESIAN_POINT('',(41.,0.,6.25));
#563=CARTESIAN_POINT('',(41.6495190528384,0.,0.));
#564=CARTESIAN_POINT('',(36.2,0.,0.));
#565=CARTESIAN_POINT('',(36.2,0.,6.25));
#566=CARTESIAN_POINT('',(0.,0.,0.));
#567=CARTESIAN_POINT('',(35.4535898384862,0.,0.));
#568=CARTESIAN_POINT('',(35.4535898384862,0.,6.05));
#569=CARTESIAN_POINT('',(36.2,0.,0.));
#570=CARTESIAN_POINT('',(0.,0.,0.));
#571=MECHANICAL_DESIGN_GEOMETRIC_PRESENTATION_REPRESENTATION('',(#55,#56),
#572);
#572=(
GEOMETRIC_REPRESENTATION_CONTEXT(3)
GLOBAL_UNCERTAINTY_ASSIGNED_CONTEXT((#573))
GLOBAL_UNIT_ASSIGNED_CONTEXT((#579,#575,#574))
REPRESENTATION_CONTEXT('AEMR-RD0803-D25-M12-L35-Z04-H',
'TOP_LEVEL_ASSEMBLY_PART')
);
#573=UNCERTAINTY_MEASURE_WITH_UNIT(LENGTH_MEASURE(2.E-5),#579,
'DISTANCE_ACCURACY_VALUE','Maximum Tolerance applied to model');
#574=(
NAMED_UNIT(*)
SI_UNIT($,.STERADIAN.)
SOLID_ANGLE_UNIT()
);
#575=(
CONVERSION_BASED_UNIT('DEGREE',#577)
NAMED_UNIT(#576)
PLANE_ANGLE_UNIT()
);
#576=DIMENSIONAL_EXPONENTS(0.,0.,0.,0.,0.,0.,0.);
#577=PLANE_ANGLE_MEASURE_WITH_UNIT(PLANE_ANGLE_MEASURE(0.0174532925),#578);
#578=(
NAMED_UNIT(*)
PLANE_ANGLE_UNIT()
SI_UNIT($,.RADIAN.)
);
#579=(
LENGTH_UNIT()
NAMED_UNIT(*)
SI_UNIT(.MILLI.,.METRE.)
);
ENDSEC;
END-ISO-10303-21;
