ISO-10303-21;
HEADER;
/* Generated by software containing ST-Developer
 * from STEP Tools, Inc. (www.steptools.com) 
 */
/* OPTION: using custom schema-name function */

FILE_DESCRIPTION(
/* description */ (''),
/* implementation_level */ '2;1');

FILE_NAME(
/* name */ 'model1.stp',
/* time_stamp */ '2023-11-06T19:50:43+03:00',
/* author */ (''),
/* organization */ (''),
/* preprocessor_version */ 'ST-DEVELOPER v19.4',
/* originating_system */ 'SIEMENS PLM Software NX2306.3001',
/* authorisation */ '');

FILE_SCHEMA (('AUTOMOTIVE_DESIGN { 1 0 10303 214 3 1 1 1 }'));
ENDSEC;

DATA;
#10=PROPERTY_DEFINITION_REPRESENTATION(#14,#12);
#11=PROPERTY_DEFINITION_REPRESENTATION(#15,#13);
#12=REPRESENTATION('',(#16),#536);
#13=REPRESENTATION('',(#17),#536);
#14=PROPERTY_DEFINITION('pmi validation property','',#21);
#15=PROPERTY_DEFINITION('pmi validation property','',#21);
#16=VALUE_REPRESENTATION_ITEM('number of annotations',COUNT_MEASURE(0.));
#17=VALUE_REPRESENTATION_ITEM('number of views',COUNT_MEASURE(0.));
#18=SHAPE_REPRESENTATION_RELATIONSHIP('None',
'relationship between model1_objects-None and model1_objects-None',#30,
#19);
#19=ADVANCED_BREP_SHAPE_REPRESENTATION('model1_objects-None',(#149,#150),
#536);
#20=SHAPE_DEFINITION_REPRESENTATION(#21,#30);
#21=PRODUCT_DEFINITION_SHAPE('','',#22);
#22=PRODUCT_DEFINITION(' ','',#24,#23);
#23=PRODUCT_DEFINITION_CONTEXT('part definition',#29,'design');
#24=PRODUCT_DEFINITION_FORMATION_WITH_SPECIFIED_SOURCE(' ',' ',#26,
 .NOT_KNOWN.);
#25=PRODUCT_RELATED_PRODUCT_CATEGORY('part','',(#26));
#26=PRODUCT('model1_objects','model1_objects',' ',(#27));
#27=PRODUCT_CONTEXT(' ',#29,'mechanical');
#28=APPLICATION_PROTOCOL_DEFINITION('international standard',
'automotive_design',2010,#29);
#29=APPLICATION_CONTEXT(
'core data for automotive mechanical design processes');
#30=SHAPE_REPRESENTATION('model1_objects-None',(#284),#536);
#31=OVER_RIDING_STYLED_ITEM('',(#66),#155,#63);
#32=OVER_RIDING_STYLED_ITEM('',(#67),#156,#63);
#33=OVER_RIDING_STYLED_ITEM('',(#68),#157,#63);
#34=OVER_RIDING_STYLED_ITEM('',(#69),#158,#63);
#35=OVER_RIDING_STYLED_ITEM('',(#70),#159,#63);
#36=OVER_RIDING_STYLED_ITEM('',(#71),#160,#63);
#37=OVER_RIDING_STYLED_ITEM('',(#72),#161,#63);
#38=OVER_RIDING_STYLED_ITEM('',(#73),#162,#63);
#39=OVER_RIDING_STYLED_ITEM('',(#74),#163,#63);
#40=OVER_RIDING_STYLED_ITEM('',(#75),#164,#63);
#41=OVER_RIDING_STYLED_ITEM('',(#76),#165,#63);
#42=OVER_RIDING_STYLED_ITEM('',(#77),#166,#63);
#43=COLOUR_RGB('Medium Steel',0.611764705882353,0.658823529411765,0.670588235294118);
#44=COLOUR_RGB('silver gray',0.6,0.6,0.6);
#45=CYLINDRICAL_SURFACE('',#299,7.);
#46=CYLINDRICAL_SURFACE('',#305,8.);
#47=CYLINDRICAL_SURFACE('',#308,7.75);
#48=CONICAL_SURFACE('',#295,7.04894348370485,17.9999999999997);
#49=CONICAL_SURFACE('',#301,7.75,1.44412553093582);
#50=CONICAL_SURFACE('',#303,8.,45.0000000000005);
#51=CONICAL_SURFACE('',#307,7.75,10.);
#52=SURFACE_OF_REVOLUTION('',#54,#53);
#53=AXIS1_PLACEMENT('',#513,#329);
#54=B_SPLINE_CURVE_WITH_KNOTS('',3,(#453,#454,#455,#456,#457,#458,#459,
#460,#461,#462,#463,#464,#465,#466,#467,#468,#469,#470,#471,#472,#473,#474,
#475,#476,#477,#478,#479,#480,#481,#482,#483,#484,#485,#486,#487,#488,#489,
#490,#491,#492,#493,#494,#495,#496,#497,#498,#499,#500,#501,#502,#503,#504,
#505,#506,#507,#508,#509,#510,#511,#512),.UNSPECIFIED.,.T.,.F.,(2,2,2,2,
2,2,2,2,2,2,2,2,2,2,2,2,2,2,2,2,2,2,2,2,2,2,2,2,2,2,2,2),(-0.0625,0.,0.03125,
0.0625,0.125,0.15625,0.171875,0.1875,0.21875,0.25,0.28125,0.3125,0.34375,
0.375,0.4375,0.46875,0.5,0.53125,0.5625,0.59375,0.625,0.65625,0.6875,0.71875,
0.75,0.78125,0.8125,0.84375,0.875,0.9375,1.,1.03125),.UNSPECIFIED.);
#55=PLANE('',#290);
#56=PLANE('',#292);
#57=FACE_OUTER_BOUND('',#199,.T.);
#58=FACE_OUTER_BOUND('',#200,.T.);
#59=TOROIDAL_SURFACE('',#289,6.75,1.);
#60=TOROIDAL_SURFACE('',#297,8.,1.);
#61=PRESENTATION_LAYER_ASSIGNMENT('1','Layer 1',(#149,#150));
#62=STYLED_ITEM('',(#64),#149);
#63=STYLED_ITEM('',(#65),#150);
#64=PRESENTATION_STYLE_ASSIGNMENT((#78));
#65=PRESENTATION_STYLE_ASSIGNMENT((#79));
#66=PRESENTATION_STYLE_ASSIGNMENT((#80));
#67=PRESENTATION_STYLE_ASSIGNMENT((#81));
#68=PRESENTATION_STYLE_ASSIGNMENT((#82));
#69=PRESENTATION_STYLE_ASSIGNMENT((#83));
#70=PRESENTATION_STYLE_ASSIGNMENT((#84));
#71=PRESENTATION_STYLE_ASSIGNMENT((#85));
#72=PRESENTATION_STYLE_ASSIGNMENT((#86));
#73=PRESENTATION_STYLE_ASSIGNMENT((#87));
#74=PRESENTATION_STYLE_ASSIGNMENT((#88));
#75=PRESENTATION_STYLE_ASSIGNMENT((#89));
#76=PRESENTATION_STYLE_ASSIGNMENT((#90));
#77=PRESENTATION_STYLE_ASSIGNMENT((#91));
#78=SURFACE_STYLE_USAGE(.BOTH.,#92);
#79=SURFACE_STYLE_USAGE(.BOTH.,#93);
#80=SURFACE_STYLE_USAGE(.BOTH.,#94);
#81=SURFACE_STYLE_USAGE(.BOTH.,#95);
#82=SURFACE_STYLE_USAGE(.BOTH.,#96);
#83=SURFACE_STYLE_USAGE(.BOTH.,#97);
#84=SURFACE_STYLE_USAGE(.BOTH.,#98);
#85=SURFACE_STYLE_USAGE(.BOTH.,#99);
#86=SURFACE_STYLE_USAGE(.BOTH.,#100);
#87=SURFACE_STYLE_USAGE(.BOTH.,#101);
#88=SURFACE_STYLE_USAGE(.BOTH.,#102);
#89=SURFACE_STYLE_USAGE(.BOTH.,#103);
#90=SURFACE_STYLE_USAGE(.BOTH.,#104);
#91=SURFACE_STYLE_USAGE(.BOTH.,#105);
#92=SURFACE_SIDE_STYLE('',(#106));
#93=SURFACE_SIDE_STYLE('',(#107));
#94=SURFACE_SIDE_STYLE('',(#108));
#95=SURFACE_SIDE_STYLE('',(#109));
#96=SURFACE_SIDE_STYLE('',(#110));
#97=SURFACE_SIDE_STYLE('',(#111));
#98=SURFACE_SIDE_STYLE('',(#112));
#99=SURFACE_SIDE_STYLE('',(#113));
#100=SURFACE_SIDE_STYLE('',(#114));
#101=SURFACE_SIDE_STYLE('',(#115));
#102=SURFACE_SIDE_STYLE('',(#116));
#103=SURFACE_SIDE_STYLE('',(#117));
#104=SURFACE_SIDE_STYLE('',(#118));
#105=SURFACE_SIDE_STYLE('',(#119));
#106=SURFACE_STYLE_FILL_AREA(#120);
#107=SURFACE_STYLE_FILL_AREA(#121);
#108=SURFACE_STYLE_FILL_AREA(#122);
#109=SURFACE_STYLE_FILL_AREA(#123);
#110=SURFACE_STYLE_FILL_AREA(#124);
#111=SURFACE_STYLE_FILL_AREA(#125);
#112=SURFACE_STYLE_FILL_AREA(#126);
#113=SURFACE_STYLE_FILL_AREA(#127);
#114=SURFACE_STYLE_FILL_AREA(#128);
#115=SURFACE_STYLE_FILL_AREA(#129);
#116=SURFACE_STYLE_FILL_AREA(#130);
#117=SURFACE_STYLE_FILL_AREA(#131);
#118=SURFACE_STYLE_FILL_AREA(#132);
#119=SURFACE_STYLE_FILL_AREA(#133);
#120=FILL_AREA_STYLE('',(#134));
#121=FILL_AREA_STYLE('',(#135));
#122=FILL_AREA_STYLE('',(#136));
#123=FILL_AREA_STYLE('',(#137));
#124=FILL_AREA_STYLE('',(#138));
#125=FILL_AREA_STYLE('',(#139));
#126=FILL_AREA_STYLE('',(#140));
#127=FILL_AREA_STYLE('',(#141));
#128=FILL_AREA_STYLE('',(#142));
#129=FILL_AREA_STYLE('',(#143));
#130=FILL_AREA_STYLE('',(#144));
#131=FILL_AREA_STYLE('',(#145));
#132=FILL_AREA_STYLE('',(#146));
#133=FILL_AREA_STYLE('',(#147));
#134=FILL_AREA_STYLE_COLOUR('',#148);
#135=FILL_AREA_STYLE_COLOUR('',#43);
#136=FILL_AREA_STYLE_COLOUR('',#44);
#137=FILL_AREA_STYLE_COLOUR('',#44);
#138=FILL_AREA_STYLE_COLOUR('',#44);
#139=FILL_AREA_STYLE_COLOUR('',#44);
#140=FILL_AREA_STYLE_COLOUR('',#44);
#141=FILL_AREA_STYLE_COLOUR('',#44);
#142=FILL_AREA_STYLE_COLOUR('',#44);
#143=FILL_AREA_STYLE_COLOUR('',#44);
#144=FILL_AREA_STYLE_COLOUR('',#44);
#145=FILL_AREA_STYLE_COLOUR('',#44);
#146=FILL_AREA_STYLE_COLOUR('',#44);
#147=FILL_AREA_STYLE_COLOUR('',#44);
#148=DRAUGHTING_PRE_DEFINED_COLOUR('yellow');
#149=MANIFOLD_SOLID_BREP('',#151);
#150=MANIFOLD_SOLID_BREP('',#152);
#151=CLOSED_SHELL('',(#153,#154));
#152=CLOSED_SHELL('',(#155,#156,#157,#158,#159,#160,#161,#162,#163,#164,
#165,#166));
#153=ADVANCED_FACE('',(#169,#170),#167,.F.);
#154=ADVANCED_FACE('',(#171,#172),#168,.F.);
#155=ADVANCED_FACE('',(#173,#174),#59,.T.);
#156=ADVANCED_FACE('',(#57),#55,.F.);
#157=ADVANCED_FACE('',(#58),#56,.F.);
#158=ADVANCED_FACE('',(#175,#176),#52,.T.);
#159=ADVANCED_FACE('',(#177,#178),#48,.T.);
#160=ADVANCED_FACE('',(#179,#180),#60,.F.);
#161=ADVANCED_FACE('',(#181,#182),#45,.T.);
#162=ADVANCED_FACE('',(#183,#184),#49,.T.);
#163=ADVANCED_FACE('',(#185,#186),#50,.T.);
#164=ADVANCED_FACE('',(#187,#188),#46,.T.);
#165=ADVANCED_FACE('',(#189,#190),#51,.T.);
#166=ADVANCED_FACE('',(#191,#192),#47,.T.);
#167=(
BOUNDED_SURFACE()
B_SPLINE_SURFACE(3,3,((#365,#366,#367,#368,#369,#370,#371),(#372,#373,#374,
#375,#376,#377,#378),(#379,#380,#381,#382,#383,#384,#385),(#386,#387,#388,
#389,#390,#391,#392),(#393,#394,#395,#396,#397,#398,#399),(#400,#401,#402,
#403,#404,#405,#406),(#407,#408,#409,#410,#411,#412,#413)),
 .UNSPECIFIED.,.T.,.F.,.F.)
B_SPLINE_SURFACE_WITH_KNOTS((1,3,3,3,1),(4,3,4),(-0.5,0.,0.5,1.,1.5),(0.,
0.5,1.),.UNSPECIFIED.)
GEOMETRIC_REPRESENTATION_ITEM()
RATIONAL_B_SPLINE_SURFACE(((1.,0.566380381038409,0.566380381038409,1.,0.566380381038409,
0.566380381038409,1.),(0.333333333333334,0.188793460346136,0.188793460346136,
0.333333333333334,0.188793460346136,0.188793460346136,0.333333333333334),
(0.333333333333334,0.188793460346136,0.188793460346136,0.333333333333334,
0.188793460346136,0.188793460346136,0.333333333333334),(1.,0.566380381038409,
0.566380381038409,1.,0.566380381038409,0.566380381038409,1.),(0.333333333333334,
0.188793460346136,0.188793460346136,0.333333333333334,0.188793460346136,
0.188793460346136,0.333333333333334),(0.333333333333334,0.188793460346136,
0.188793460346136,0.333333333333334,0.188793460346136,0.188793460346136,
0.333333333333334),(1.,0.566380381038409,0.566380381038409,1.,0.566380381038409,
0.566380381038409,1.)))
REPRESENTATION_ITEM('')
SURFACE()
);
#168=(
BOUNDED_SURFACE()
B_SPLINE_SURFACE(3,3,((#414,#415,#416,#417),(#418,#419,#420,#421),(#422,
#423,#424,#425),(#426,#427,#428,#429),(#430,#431,#432,#433),(#434,#435,
#436,#437),(#438,#439,#440,#441)),.UNSPECIFIED.,.T.,.F.,.F.)
B_SPLINE_SURFACE_WITH_KNOTS((1,3,3,3,1),(4,4),(-0.5,0.,0.5,1.,1.5),(0.,
1.),.UNSPECIFIED.)
GEOMETRIC_REPRESENTATION_ITEM()
RATIONAL_B_SPLINE_SURFACE(((1.,0.837067220667845,0.837067220667845,1.),
(0.333333333333334,0.279022406889282,0.279022406889282,0.333333333333334),
(0.333333333333334,0.279022406889282,0.279022406889282,0.333333333333334),
(1.,0.837067220667845,0.837067220667845,1.),(0.333333333333334,0.279022406889282,
0.279022406889282,0.333333333333334),(0.333333333333334,0.279022406889282,
0.279022406889282,0.333333333333334),(1.,0.837067220667845,0.837067220667845,
1.)))
REPRESENTATION_ITEM('')
SURFACE()
);
#169=FACE_BOUND('',#193,.T.);
#170=FACE_BOUND('',#194,.T.);
#171=FACE_BOUND('',#195,.T.);
#172=FACE_BOUND('',#196,.T.);
#173=FACE_BOUND('',#197,.T.);
#174=FACE_BOUND('',#198,.T.);
#175=FACE_BOUND('',#201,.T.);
#176=FACE_BOUND('',#202,.T.);
#177=FACE_BOUND('',#203,.T.);
#178=FACE_BOUND('',#204,.T.);
#179=FACE_BOUND('',#205,.T.);
#180=FACE_BOUND('',#206,.T.);
#181=FACE_BOUND('',#207,.T.);
#182=FACE_BOUND('',#208,.T.);
#183=FACE_BOUND('',#209,.T.);
#184=FACE_BOUND('',#210,.T.);
#185=FACE_BOUND('',#211,.T.);
#186=FACE_BOUND('',#212,.T.);
#187=FACE_BOUND('',#213,.T.);
#188=FACE_BOUND('',#214,.T.);
#189=FACE_BOUND('',#215,.T.);
#190=FACE_BOUND('',#216,.T.);
#191=FACE_BOUND('',#217,.T.);
#192=FACE_BOUND('',#218,.T.);
#193=EDGE_LOOP('',(#219));
#194=EDGE_LOOP('',(#220));
#195=EDGE_LOOP('',(#221));
#196=EDGE_LOOP('',(#222));
#197=EDGE_LOOP('',(#223));
#198=EDGE_LOOP('',(#224));
#199=EDGE_LOOP('',(#225));
#200=EDGE_LOOP('',(#226));
#201=EDGE_LOOP('',(#227));
#202=EDGE_LOOP('',(#228));
#203=EDGE_LOOP('',(#229));
#204=EDGE_LOOP('',(#230));
#205=EDGE_LOOP('',(#231));
#206=EDGE_LOOP('',(#232));
#207=EDGE_LOOP('',(#233));
#208=EDGE_LOOP('',(#234));
#209=EDGE_LOOP('',(#235));
#210=EDGE_LOOP('',(#236));
#211=EDGE_LOOP('',(#237));
#212=EDGE_LOOP('',(#238));
#213=EDGE_LOOP('',(#239));
#214=EDGE_LOOP('',(#240));
#215=EDGE_LOOP('',(#241));
#216=EDGE_LOOP('',(#242));
#217=EDGE_LOOP('',(#243));
#218=EDGE_LOOP('',(#244));
#219=ORIENTED_EDGE('',*,*,#258,.T.);
#220=ORIENTED_EDGE('',*,*,#259,.F.);
#221=ORIENTED_EDGE('',*,*,#259,.T.);
#222=ORIENTED_EDGE('',*,*,#258,.F.);
#223=ORIENTED_EDGE('',*,*,#260,.F.);
#224=ORIENTED_EDGE('',*,*,#261,.T.);
#225=ORIENTED_EDGE('',*,*,#261,.F.);
#226=ORIENTED_EDGE('',*,*,#262,.T.);
#227=ORIENTED_EDGE('',*,*,#262,.F.);
#228=ORIENTED_EDGE('',*,*,#263,.T.);
#229=ORIENTED_EDGE('',*,*,#263,.F.);
#230=ORIENTED_EDGE('',*,*,#264,.T.);
#231=ORIENTED_EDGE('',*,*,#264,.F.);
#232=ORIENTED_EDGE('',*,*,#265,.T.);
#233=ORIENTED_EDGE('',*,*,#265,.F.);
#234=ORIENTED_EDGE('',*,*,#266,.T.);
#235=ORIENTED_EDGE('',*,*,#266,.F.);
#236=ORIENTED_EDGE('',*,*,#267,.T.);
#237=ORIENTED_EDGE('',*,*,#267,.F.);
#238=ORIENTED_EDGE('',*,*,#268,.T.);
#239=ORIENTED_EDGE('',*,*,#268,.F.);
#240=ORIENTED_EDGE('',*,*,#269,.T.);
#241=ORIENTED_EDGE('',*,*,#269,.F.);
#242=ORIENTED_EDGE('',*,*,#270,.T.);
#243=ORIENTED_EDGE('',*,*,#270,.F.);
#244=ORIENTED_EDGE('',*,*,#260,.T.);
#245=VERTEX_POINT('',#362);
#246=VERTEX_POINT('',#364);
#247=VERTEX_POINT('',#443);
#248=VERTEX_POINT('',#445);
#249=VERTEX_POINT('',#449);
#250=VERTEX_POINT('',#452);
#251=VERTEX_POINT('',#515);
#252=VERTEX_POINT('',#518);
#253=VERTEX_POINT('',#521);
#254=VERTEX_POINT('',#524);
#255=VERTEX_POINT('',#527);
#256=VERTEX_POINT('',#530);
#257=VERTEX_POINT('',#533);
#258=EDGE_CURVE('',#245,#245,#271,.T.);
#259=EDGE_CURVE('',#246,#246,#272,.T.);
#260=EDGE_CURVE('',#247,#247,#273,.T.);
#261=EDGE_CURVE('',#248,#248,#274,.T.);
#262=EDGE_CURVE('',#249,#249,#275,.T.);
#263=EDGE_CURVE('',#250,#250,#276,.T.);
#264=EDGE_CURVE('',#251,#251,#277,.T.);
#265=EDGE_CURVE('',#252,#252,#278,.T.);
#266=EDGE_CURVE('',#253,#253,#279,.T.);
#267=EDGE_CURVE('',#254,#254,#280,.T.);
#268=EDGE_CURVE('',#255,#255,#281,.T.);
#269=EDGE_CURVE('',#256,#256,#282,.T.);
#270=EDGE_CURVE('',#257,#257,#283,.T.);
#271=CIRCLE('',#285,4.);
#272=CIRCLE('',#286,4.);
#273=CIRCLE('',#287,7.75);
#274=CIRCLE('',#288,6.75);
#275=CIRCLE('',#291,2.28530763676246);
#276=CIRCLE('',#293,7.19972817876489);
#277=CIRCLE('',#294,7.04894348370485);
#278=CIRCLE('',#296,7.);
#279=CIRCLE('',#298,7.);
#280=CIRCLE('',#300,7.75);
#281=CIRCLE('',#302,8.);
#282=CIRCLE('',#304,8.);
#283=CIRCLE('',#306,7.75);
#284=AXIS2_PLACEMENT_3D('',#360,#309,#310);
#285=AXIS2_PLACEMENT_3D('',#361,#311,#312);
#286=AXIS2_PLACEMENT_3D('',#363,#313,#314);
#287=AXIS2_PLACEMENT_3D('',#442,#315,#316);
#288=AXIS2_PLACEMENT_3D('',#444,#317,#318);
#289=AXIS2_PLACEMENT_3D('',#446,#319,#320);
#290=AXIS2_PLACEMENT_3D('',#447,#321,#322);
#291=AXIS2_PLACEMENT_3D('',#448,#323,#324);
#292=AXIS2_PLACEMENT_3D('',#450,#325,#326);
#293=AXIS2_PLACEMENT_3D('',#451,#327,#328);
#294=AXIS2_PLACEMENT_3D('',#514,#330,#331);
#295=AXIS2_PLACEMENT_3D('',#516,#332,#333);
#296=AXIS2_PLACEMENT_3D('',#517,#334,#335);
#297=AXIS2_PLACEMENT_3D('',#519,#336,#337);
#298=AXIS2_PLACEMENT_3D('',#520,#338,#339);
#299=AXIS2_PLACEMENT_3D('',#522,#340,#341);
#300=AXIS2_PLACEMENT_3D('',#523,#342,#343);
#301=AXIS2_PLACEMENT_3D('',#525,#344,#345);
#302=AXIS2_PLACEMENT_3D('',#526,#346,#347);
#303=AXIS2_PLACEMENT_3D('',#528,#348,#349);
#304=AXIS2_PLACEMENT_3D('',#529,#350,#351);
#305=AXIS2_PLACEMENT_3D('',#531,#352,#353);
#306=AXIS2_PLACEMENT_3D('',#532,#354,#355);
#307=AXIS2_PLACEMENT_3D('',#534,#356,#357);
#308=AXIS2_PLACEMENT_3D('',#535,#358,#359);
#309=DIRECTION('',(0.,0.,1.));
#310=DIRECTION('',(1.,0.,0.));
#311=DIRECTION('',(0.,0.989885981341834,0.141865231621124));
#312=DIRECTION('',(1.,0.,0.));
#313=DIRECTION('',(0.,0.,1.));
#314=DIRECTION('',(1.,0.,0.));
#315=DIRECTION('',(-1.,0.,0.));
#316=DIRECTION('',(0.,0.,1.));
#317=DIRECTION('',(-1.,0.,0.));
#318=DIRECTION('',(0.,0.,1.));
#319=DIRECTION('',(-1.,0.,0.));
#320=DIRECTION('',(0.,0.,1.));
#321=DIRECTION('',(-1.,0.,0.));
#322=DIRECTION('',(0.,0.,1.));
#323=DIRECTION('',(-1.,0.,0.));
#324=DIRECTION('',(0.,0.,1.));
#325=DIRECTION('',(1.,0.,0.));
#326=DIRECTION('',(0.,0.,-1.));
#327=DIRECTION('',(-1.,0.,0.));
#328=DIRECTION('',(0.,0.,1.));
#329=DIRECTION('',(-1.,0.,0.));
#330=DIRECTION('',(-1.,0.,0.));
#331=DIRECTION('',(0.,0.,1.));
#332=DIRECTION('',(-1.,0.,0.));
#333=DIRECTION('',(-8.09962468159476E-17,0.,1.));
#334=DIRECTION('',(-1.,0.,0.));
#335=DIRECTION('',(0.,0.,1.));
#336=DIRECTION('',(-1.,0.,0.));
#337=DIRECTION('',(0.,0.,1.));
#338=DIRECTION('',(-1.,0.,0.));
#339=DIRECTION('',(0.,0.,1.));
#340=DIRECTION('',(-1.,0.,0.));
#341=DIRECTION('',(0.,0.,1.));
#342=DIRECTION('',(-1.,0.,0.));
#343=DIRECTION('',(0.,0.,1.));
#344=DIRECTION('',(1.,0.,0.));
#345=DIRECTION('',(-8.42096627767195E-16,0.,-1.));
#346=DIRECTION('',(-1.,0.,0.));
#347=DIRECTION('',(0.,0.,1.));
#348=DIRECTION('',(1.,0.,0.));
#349=DIRECTION('',(5.50705865389453E-17,0.,-1.));
#350=DIRECTION('',(-1.,0.,0.));
#351=DIRECTION('',(0.,0.,1.));
#352=DIRECTION('',(-1.,0.,0.));
#353=DIRECTION('',(0.,0.,1.));
#354=DIRECTION('',(-1.,0.,0.));
#355=DIRECTION('',(0.,0.,1.));
#356=DIRECTION('',(-1.,0.,0.));
#357=DIRECTION('',(1.50782436287279E-16,0.,1.));
#358=DIRECTION('',(-1.,0.,0.));
#359=DIRECTION('',(0.,0.,1.));
#360=CARTESIAN_POINT('',(0.,0.,0.));
#361=CARTESIAN_POINT('',(4.,0.431326539050685,4.03929771279991));
#362=CARTESIAN_POINT('',(8.,0.431326539050685,4.03929771279991));
#363=CARTESIAN_POINT('',(4.,-3.937253941,1.));
#364=CARTESIAN_POINT('',(8.,-3.937253941,1.));
#365=CARTESIAN_POINT('',(8.,-3.937253941,1.));
#366=CARTESIAN_POINT('',(7.99999999999999,-5.04005818980069,-3.3420203747421));
#367=CARTESIAN_POINT('',(7.99999999999999,-1.35748363588901,-5.89309128726697));
#368=CARTESIAN_POINT('',(8.,2.31995999614055,-3.33462954647552));
#369=CARTESIAN_POINT('',(7.99999999999999,5.9974036281701,-0.776167805684074));
#370=CARTESIAN_POINT('',(7.99999999999999,4.88588121889737,3.56362897291431));
#371=CARTESIAN_POINT('',(8.,0.431326539050687,4.03929771279991));
#372=CARTESIAN_POINT('',(7.99999999999999,4.062746059,1.));
#373=CARTESIAN_POINT('',(8.00000000000001,2.9599418101993,5.48041361566351));
#374=CARTESIAN_POINT('',(8.00000000000001,-1.62331058318088,6.01340599569402));
#375=CARTESIAN_POINT('',(7.99999999999999,-3.72484665187359,1.90562928187676));
#376=CARTESIAN_POINT('',(8.00000000000001,-5.82638272056631,-2.2021474319405));
#377=CARTESIAN_POINT('',(8.00000000000001,-2.71240065654983,-5.60705551933133));
#378=CARTESIAN_POINT('',(7.99999999999999,1.56624839201967,-3.87979013793476));
#379=CARTESIAN_POINT('',(1.12355701329479E-16,4.062746059,1.));
#380=CARTESIAN_POINT('',(1.12355701329479E-16,2.95994181019931,5.48041361566351));
#381=CARTESIAN_POINT('',(1.12355701329479E-16,-1.62331058318088,6.01340599569402));
#382=CARTESIAN_POINT('',(1.12355701329479E-16,-3.72484665187359,1.90562928187676));
#383=CARTESIAN_POINT('',(1.12355701329479E-16,-5.82638272056631,-2.2021474319405));
#384=CARTESIAN_POINT('',(1.12355701329479E-16,-2.71240065654983,-5.60705551933133));
#385=CARTESIAN_POINT('',(1.12355701329479E-16,1.56624839201967,-3.87979013793476));
#386=CARTESIAN_POINT('',(-8.67361737988404E-16,-3.937253941,1.));
#387=CARTESIAN_POINT('',(-8.67361737988402E-16,-5.04005818980069,-3.3420203747421));
#388=CARTESIAN_POINT('',(-8.67361737988402E-16,-1.35748363588901,-5.89309128726697));
#389=CARTESIAN_POINT('',(-8.67361737988404E-16,2.31995999614055,-3.33462954647552));
#390=CARTESIAN_POINT('',(-8.67361737988402E-16,5.9974036281701,-0.776167805684074));
#391=CARTESIAN_POINT('',(-8.67361737988402E-16,4.88588121889737,3.56362897291431));
#392=CARTESIAN_POINT('',(-8.67361737988404E-16,0.431326539050687,4.03929771279991));
#393=CARTESIAN_POINT('',(-1.84707917730629E-15,-11.937253941,1.));
#394=CARTESIAN_POINT('',(-1.84707917730629E-15,-13.0400581898007,-12.1644543651477));
#395=CARTESIAN_POINT('',(-1.84707917730629E-15,-1.09165668859715,-17.799588570228));
#396=CARTESIAN_POINT('',(-1.84707917730629E-15,8.36476664415469,-8.57488837482781));
#397=CARTESIAN_POINT('',(-1.84707917730629E-15,17.8211899769065,0.649811820572353));
#398=CARTESIAN_POINT('',(-1.84707917730629E-15,12.4841630943446,12.7343134651599));
#399=CARTESIAN_POINT('',(-1.84707917730629E-15,-0.703595313918301,11.9583855635346));
#400=CARTESIAN_POINT('',(7.99999999999999,-11.937253941,1.));
#401=CARTESIAN_POINT('',(8.00000000000001,-13.0400581898007,-12.1644543651477));
#402=CARTESIAN_POINT('',(8.00000000000001,-1.09165668859715,-17.799588570228));
#403=CARTESIAN_POINT('',(7.99999999999999,8.36476664415469,-8.57488837482781));
#404=CARTESIAN_POINT('',(8.00000000000001,17.8211899769065,0.649811820572353));
#405=CARTESIAN_POINT('',(8.00000000000001,12.4841630943446,12.7343134651599));
#406=CARTESIAN_POINT('',(7.99999999999999,-0.703595313918301,11.9583855635346));
#407=CARTESIAN_POINT('',(8.,-3.937253941,1.));
#408=CARTESIAN_POINT('',(7.99999999999999,-5.04005818980069,-3.3420203747421));
#409=CARTESIAN_POINT('',(7.99999999999999,-1.35748363588901,-5.89309128726697));
#410=CARTESIAN_POINT('',(8.,2.31995999614055,-3.33462954647552));
#411=CARTESIAN_POINT('',(7.99999999999999,5.9974036281701,-0.776167805684074));
#412=CARTESIAN_POINT('',(7.99999999999999,4.88588121889737,3.56362897291431));
#413=CARTESIAN_POINT('',(8.,0.431326539050687,4.03929771279991));
#414=CARTESIAN_POINT('',(8.,0.431326539050685,4.03929771279991));
#415=CARTESIAN_POINT('',(8.,-1.67592810920356,4.26431575280468));
#416=CARTESIAN_POINT('',(8.,-3.41556556889099,3.05401959906008));
#417=CARTESIAN_POINT('',(8.,-3.937253941,1.));
#418=CARTESIAN_POINT('',(7.99999999999999,1.56624839201967,-3.87979013793476));
#419=CARTESIAN_POINT('',(7.99999999999999,3.59028979320346,-3.06269656398365));
#420=CARTESIAN_POINT('',(7.99999999999999,4.58443443110901,-1.11948737781202));
#421=CARTESIAN_POINT('',(7.99999999999999,4.06274605899999,1.));
#422=CARTESIAN_POINT('',(1.12355701329479E-16,1.56624839201968,-3.87979013793476));
#423=CARTESIAN_POINT('',(1.12355701329479E-16,3.59028979320346,-3.06269656398365));
#424=CARTESIAN_POINT('',(1.12355701329479E-16,4.58443443110901,-1.11948737781202));
#425=CARTESIAN_POINT('',(1.12355701329479E-16,4.062746059,1.));
#426=CARTESIAN_POINT('',(-8.67361737988404E-16,0.431326539050685,4.03929771279991));
#427=CARTESIAN_POINT('',(-8.67361737988404E-16,-1.67592810920356,4.26431575280468));
#428=CARTESIAN_POINT('',(-8.67361737988404E-16,-3.41556556889099,3.05401959906008));
#429=CARTESIAN_POINT('',(-8.67361737988404E-16,-3.937253941,1.));
#430=CARTESIAN_POINT('',(-1.84707917730629E-15,-0.703595313918306,11.9583855635346));
#431=CARTESIAN_POINT('',(-1.84707917730628E-15,-6.94214601161057,11.591328069593));
#432=CARTESIAN_POINT('',(-1.84707917730628E-15,-11.415565568891,7.22752657593217));
#433=CARTESIAN_POINT('',(-1.84707917730629E-15,-11.937253941,0.999999999999999));
#434=CARTESIAN_POINT('',(7.99999999999999,-0.703595313918306,11.9583855635346));
#435=CARTESIAN_POINT('',(7.99999999999999,-6.94214601161057,11.591328069593));
#436=CARTESIAN_POINT('',(7.99999999999999,-11.415565568891,7.22752657593217));
#437=CARTESIAN_POINT('',(7.99999999999999,-11.937253941,0.999999999999999));
#438=CARTESIAN_POINT('',(8.,0.431326539050685,4.03929771279991));
#439=CARTESIAN_POINT('',(8.,-1.67592810920356,4.26431575280468));
#440=CARTESIAN_POINT('',(8.,-3.41556556889099,3.05401959906008));
#441=CARTESIAN_POINT('',(8.,-3.937253941,1.));
#442=CARTESIAN_POINT('',(149.,0.,0.));
#443=CARTESIAN_POINT('',(149.,0.,7.75));
#444=CARTESIAN_POINT('',(150.,0.,0.));
#445=CARTESIAN_POINT('',(150.,0.,6.75));
#446=CARTESIAN_POINT('',(149.,0.,0.));
#447=CARTESIAN_POINT('',(150.,6.75,0.));
#448=CARTESIAN_POINT('',(1.99999999999967,0.,0.));
#449=CARTESIAN_POINT('',(1.99999999999967,0.,2.28530763676246));
#450=CARTESIAN_POINT('',(1.99999999999984,2.28530763676229,0.));
#451=CARTESIAN_POINT('',(5.01855043036669,0.,0.));
#452=CARTESIAN_POINT('',(5.01855043036669,0.,7.19972817876489));
#453=CARTESIAN_POINT('',(3.6060560885026,1.92469414978052,0.));
#454=CARTESIAN_POINT('',(4.1969719557487,1.92469414978052,0.));
#455=CARTESIAN_POINT('',(4.39507638374933,1.93139474038748,0.));
#456=CARTESIAN_POINT('',(4.78722054494458,1.96115684892251,0.));
#457=CARTESIAN_POINT('',(4.98211985740776,1.9842002790604,0.));
#458=CARTESIAN_POINT('',(5.5612425982606,2.09213350787918,0.));
#459=CARTESIAN_POINT('',(5.94558842482354,2.22014974789417,0.));
#460=CARTESIAN_POINT('',(6.43624138855641,2.5585265429265,0.));
#461=CARTESIAN_POINT('',(6.58062338134637,2.69125709822936,0.));
#462=CARTESIAN_POINT('',(6.76773492129649,2.92099673507428,0.));
#463=CARTESIAN_POINT('',(6.82531273026639,3.00315917991801,0.));
#464=CARTESIAN_POINT('',(6.92679642705735,3.17175053056491,0.));
#465=CARTESIAN_POINT('',(6.97130787365496,3.25881197018419,0.));
#466=CARTESIAN_POINT('',(7.0874470074749,3.52771826928654,0.));
#467=CARTESIAN_POINT('',(7.1422530950089,3.72024044212124,0.));
#468=CARTESIAN_POINT('',(7.20425823361966,4.10906868436435,0.));
#469=CARTESIAN_POINT('',(7.21215337142473,4.30414572453399,0.));
#470=CARTESIAN_POINT('',(7.18610800163315,4.69550000950124,0.));
#471=CARTESIAN_POINT('',(7.15125928038749,4.89286627899656,0.));
#472=CARTESIAN_POINT('',(7.04457013654831,5.26949619057031,0.));
#473=CARTESIAN_POINT('',(6.97276790006991,5.45128006418335,0.));
#474=CARTESIAN_POINT('',(6.79312449376038,5.8020957519908,0.));
#475=CARTESIAN_POINT('',(6.6856194415084,5.96945271290156,0.));
#476=CARTESIAN_POINT('',(6.4446022831195,6.27727532432646,0.));
#477=CARTESIAN_POINT('',(6.31017035422561,6.41960882200712,0.));
#478=CARTESIAN_POINT('',(5.86450584595518,6.81137807144058,0.));
#479=CARTESIAN_POINT('',(5.52654922383969,7.01299248347218,0.));
#480=CARTESIAN_POINT('',(4.96968347389095,7.22141427285093,0.));
#481=CARTESIAN_POINT('',(4.78060494573957,7.27316969993541,0.));
#482=CARTESIAN_POINT('',(4.39584619458396,7.34284043407092,0.));
#483=CARTESIAN_POINT('',(4.19888954257898,7.36073874102698,0.));
#484=CARTESIAN_POINT('',(3.80374273237454,7.36089618766774,0.));
#485=CARTESIAN_POINT('',(3.60869256988434,7.34339440293147,0.));
#486=CARTESIAN_POINT('',(3.22350300117401,7.27417549888941,0.));
#487=CARTESIAN_POINT('',(3.0315850234787,7.22172676563791,0.));
#488=CARTESIAN_POINT('',(2.66251620101678,7.08391545466401,0.));
#489=CARTESIAN_POINT('',(2.48604968461481,6.99924583492604,0.));
#490=CARTESIAN_POINT('',(2.14917526825382,6.79852945669279,0.));
#491=CARTESIAN_POINT('',(1.98755022192984,6.68115388787421,0.));
#492=CARTESIAN_POINT('',(1.69235910413568,6.42200203174202,0.));
#493=CARTESIAN_POINT('',(1.55759790180187,6.27989066011942,0.));
#494=CARTESIAN_POINT('',(1.31452695475828,5.9698325154344,0.));
#495=CARTESIAN_POINT('',(1.20698326991524,5.80215221075781,0.));
#496=CARTESIAN_POINT('',(1.02811432691384,5.45315605327657,0.));
#497=CARTESIAN_POINT('',(0.955150608179898,5.26913297579587,0.));
#498=CARTESIAN_POINT('',(0.847653611382831,4.8883980581125,0.));
#499=CARTESIAN_POINT('',(0.813747811756439,4.69497077933237,0.));
#500=CARTESIAN_POINT('',(0.78779113742007,4.30166203248806,0.));
#501=CARTESIAN_POINT('',(0.796325468978064,4.10213209477111,0.));
#502=CARTESIAN_POINT('',(0.859278823728557,3.7140230820881,0.));
#503=CARTESIAN_POINT('',(0.914632298280411,3.52113551445714,0.));
#504=CARTESIAN_POINT('',(1.07183116654821,3.16077207087853,0.));
#505=CARTESIAN_POINT('',(1.17551936693989,2.98931422286972,0.));
#506=CARTESIAN_POINT('',(1.42542235850359,2.6852551640473,0.));
#507=CARTESIAN_POINT('',(1.56991259528153,2.55345895286798,0.));
#508=CARTESIAN_POINT('',(2.06074831838195,2.21747458488198,0.));
#509=CARTESIAN_POINT('',(2.44359229353873,2.09082660226856,0.));
#510=CARTESIAN_POINT('',(3.21481831756057,1.94790662246422,0.));
#511=CARTESIAN_POINT('',(3.6060560885026,1.92469414978052,0.));
#512=CARTESIAN_POINT('',(4.1969719557487,1.92469414978052,0.));
#513=CARTESIAN_POINT('',(0.,0.,0.));
#514=CARTESIAN_POINT('',(5.48261800401098,0.,0.));
#515=CARTESIAN_POINT('',(5.48261800401098,0.,7.04894348370485));
#516=CARTESIAN_POINT('',(5.48261800401098,0.,0.));
#517=CARTESIAN_POINT('',(5.79163499838592,0.,0.));
#518=CARTESIAN_POINT('',(5.79163499838592,0.,7.));
#519=CARTESIAN_POINT('',(5.79163499838592,0.,0.));
#520=CARTESIAN_POINT('',(30.,0.,0.));
#521=CARTESIAN_POINT('',(30.,0.,7.));
#522=CARTESIAN_POINT('',(0.,0.,0.));
#523=CARTESIAN_POINT('',(59.75,0.,0.));
#524=CARTESIAN_POINT('',(59.75,0.,7.75));
#525=CARTESIAN_POINT('',(59.75,0.,0.));
#526=CARTESIAN_POINT('',(60.,0.,0.));
#527=CARTESIAN_POINT('',(60.,0.,8.));
#528=CARTESIAN_POINT('',(60.,0.,0.));
#529=CARTESIAN_POINT('',(144.582179545096,0.,0.));
#530=CARTESIAN_POINT('',(144.582179545096,0.,8.));
#531=CARTESIAN_POINT('',(0.,0.,0.));
#532=CARTESIAN_POINT('',(146.,0.,0.));
#533=CARTESIAN_POINT('',(146.,0.,7.75));
#534=CARTESIAN_POINT('',(146.,0.,0.));
#535=CARTESIAN_POINT('',(0.,0.,0.));
#536=(
GEOMETRIC_REPRESENTATION_CONTEXT(3)
GLOBAL_UNCERTAINTY_ASSIGNED_CONTEXT((#537))
GLOBAL_UNIT_ASSIGNED_CONTEXT((#543,#539,#538))
REPRESENTATION_CONTEXT('model1','TOP_LEVEL_ASSEMBLY_PART')
);
#537=UNCERTAINTY_MEASURE_WITH_UNIT(LENGTH_MEASURE(2.E-5),#543,
'DISTANCE_ACCURACY_VALUE','Maximum Tolerance applied to model');
#538=(
NAMED_UNIT(*)
SI_UNIT($,.STERADIAN.)
SOLID_ANGLE_UNIT()
);
#539=(
CONVERSION_BASED_UNIT('DEGREE',#541)
NAMED_UNIT(#540)
PLANE_ANGLE_UNIT()
);
#540=DIMENSIONAL_EXPONENTS(0.,0.,0.,0.,0.,0.,0.);
#541=PLANE_ANGLE_MEASURE_WITH_UNIT(PLANE_ANGLE_MEASURE(0.0174532925),#542);
#542=(
NAMED_UNIT(*)
PLANE_ANGLE_UNIT()
SI_UNIT($,.RADIAN.)
);
#543=(
LENGTH_UNIT()
NAMED_UNIT(*)
SI_UNIT(.MILLI.,.METRE.)
);
ENDSEC;
END-ISO-10303-21;
