ISO-10303-21;
HEADER;
/* Generated by software containing ST-Developer
 * from STEP Tools, Inc. (www.steptools.com) 
 */
/* OPTION: using custom schema-name function */

FILE_DESCRIPTION(
/* description */ (''),
/* implementation_level */ '2;1');

FILE_NAME(
/* name */ 'AEMR-RD08T2-D20-W20-L150-Z02.stp',
/* time_stamp */ '2024-01-02T15:52:30+03:00',
/* author */ (''),
/* organization */ (''),
/* preprocessor_version */ 'ST-DEVELOPER v19.4',
/* originating_system */ 'SIEMENS PLM Software NX2306.3001',
/* authorisation */ '');

FILE_SCHEMA (('AUTOMOTIVE_DESIGN { 1 0 10303 214 3 1 1 1 }'));
ENDSEC;

DATA;
#10=PROPERTY_DEFINITION_REPRESENTATION(#14,#12);
#11=PROPERTY_DEFINITION_REPRESENTATION(#15,#13);
#12=REPRESENTATION('',(#16),#478);
#13=REPRESENTATION('',(#17),#478);
#14=PROPERTY_DEFINITION('pmi validation property','',#21);
#15=PROPERTY_DEFINITION('pmi validation property','',#21);
#16=VALUE_REPRESENTATION_ITEM('number of annotations',COUNT_MEASURE(0.));
#17=VALUE_REPRESENTATION_ITEM('number of views',COUNT_MEASURE(0.));
#18=SHAPE_REPRESENTATION_RELATIONSHIP('None',
'relationship between AEMR-RD08T2-D20-W20-L150-Z02-5_objects-None and 
AEMR-RD08T2-D20-W20-L150-Z02-5_objects-None',#30,#19);
#19=ADVANCED_BREP_SHAPE_REPRESENTATION(
'AEMR-RD08T2-D20-W20-L150-Z02-5_objects-None',(#133,#134),#478);
#20=SHAPE_DEFINITION_REPRESENTATION(#21,#30);
#21=PRODUCT_DEFINITION_SHAPE('','',#22);
#22=PRODUCT_DEFINITION(' ','',#24,#23);
#23=PRODUCT_DEFINITION_CONTEXT('part definition',#29,'design');
#24=PRODUCT_DEFINITION_FORMATION_WITH_SPECIFIED_SOURCE(' ',' ',#26,
 .NOT_KNOWN.);
#25=PRODUCT_RELATED_PRODUCT_CATEGORY('part','',(#26));
#26=PRODUCT('AEMR-RD08T2-D20-W20-L150-Z02-5_objects',
'AEMR-RD08T2-D20-W20-L150-Z02-5_objects',' ',(#27));
#27=PRODUCT_CONTEXT(' ',#29,'mechanical');
#28=APPLICATION_PROTOCOL_DEFINITION('international standard',
'automotive_design',2010,#29);
#29=APPLICATION_CONTEXT(
'core data for automotive mechanical design processes');
#30=SHAPE_REPRESENTATION('AEMR-RD08T2-D20-W20-L150-Z02-5_objects-None',
(#248),#478);
#31=OVER_RIDING_STYLED_ITEM('',(#62),#139,#59);
#32=OVER_RIDING_STYLED_ITEM('',(#63),#140,#59);
#33=OVER_RIDING_STYLED_ITEM('',(#64),#141,#59);
#34=OVER_RIDING_STYLED_ITEM('',(#65),#142,#59);
#35=OVER_RIDING_STYLED_ITEM('',(#66),#143,#59);
#36=OVER_RIDING_STYLED_ITEM('',(#67),#144,#59);
#37=OVER_RIDING_STYLED_ITEM('',(#68),#145,#59);
#38=OVER_RIDING_STYLED_ITEM('',(#69),#146,#59);
#39=OVER_RIDING_STYLED_ITEM('',(#70),#147,#59);
#40=OVER_RIDING_STYLED_ITEM('',(#71),#148,#59);
#41=COLOUR_RGB('Medium Steel',0.611764705882353,0.658823529411765,0.670588235294118);
#42=COLOUR_RGB('silver gray',0.6,0.6,0.6);
#43=CONICAL_SURFACE('',#261,9.75,4.00000000000001);
#44=CONICAL_SURFACE('',#263,10.,44.9999999999988);
#45=CONICAL_SURFACE('',#267,9.75,10.);
#46=CYLINDRICAL_SURFACE('',#259,8.5);
#47=CYLINDRICAL_SURFACE('',#265,10.);
#48=CYLINDRICAL_SURFACE('',#268,9.75);
#49=SURFACE_OF_REVOLUTION('',#51,#50);
#50=AXIS1_PLACEMENT('',#461,#289);
#51=B_SPLINE_CURVE_WITH_KNOTS('',3,(#405,#406,#407,#408,#409,#410,#411,
#412,#413,#414,#415,#416,#417,#418,#419,#420,#421,#422,#423,#424,#425,#426,
#427,#428,#429,#430,#431,#432,#433,#434,#435,#436,#437,#438,#439,#440,#441,
#442,#443,#444,#445,#446,#447,#448,#449,#450,#451,#452,#453,#454,#455,#456,
#457,#458,#459,#460),.UNSPECIFIED.,.T.,.F.,(2,2,2,2,2,2,2,2,2,2,2,2,2,2,
2,2,2,2,2,2,2,2,2,2,2,2,2,2,2,2),(-0.0625,0.,0.0625,0.09375,0.125,0.15625,
0.1875,0.21875,0.25,0.28125,0.3125,0.375,0.40625,0.4375,0.46875,0.5,0.53125,
0.5625,0.625,0.65625,0.6875,0.71875,0.75,0.78125,0.8125,0.84375,0.875,0.9375,
1.,1.0625),.UNSPECIFIED.);
#52=PLANE('',#254);
#53=PLANE('',#256);
#54=FACE_OUTER_BOUND('',#177,.T.);
#55=FACE_OUTER_BOUND('',#178,.T.);
#56=TOROIDAL_SURFACE('',#253,8.25,1.5);
#57=PRESENTATION_LAYER_ASSIGNMENT('1','Layer 1',(#133,#134));
#58=STYLED_ITEM('',(#60),#133);
#59=STYLED_ITEM('',(#61),#134);
#60=PRESENTATION_STYLE_ASSIGNMENT((#72));
#61=PRESENTATION_STYLE_ASSIGNMENT((#73));
#62=PRESENTATION_STYLE_ASSIGNMENT((#74));
#63=PRESENTATION_STYLE_ASSIGNMENT((#75));
#64=PRESENTATION_STYLE_ASSIGNMENT((#76));
#65=PRESENTATION_STYLE_ASSIGNMENT((#77));
#66=PRESENTATION_STYLE_ASSIGNMENT((#78));
#67=PRESENTATION_STYLE_ASSIGNMENT((#79));
#68=PRESENTATION_STYLE_ASSIGNMENT((#80));
#69=PRESENTATION_STYLE_ASSIGNMENT((#81));
#70=PRESENTATION_STYLE_ASSIGNMENT((#82));
#71=PRESENTATION_STYLE_ASSIGNMENT((#83));
#72=SURFACE_STYLE_USAGE(.BOTH.,#84);
#73=SURFACE_STYLE_USAGE(.BOTH.,#85);
#74=SURFACE_STYLE_USAGE(.BOTH.,#86);
#75=SURFACE_STYLE_USAGE(.BOTH.,#87);
#76=SURFACE_STYLE_USAGE(.BOTH.,#88);
#77=SURFACE_STYLE_USAGE(.BOTH.,#89);
#78=SURFACE_STYLE_USAGE(.BOTH.,#90);
#79=SURFACE_STYLE_USAGE(.BOTH.,#91);
#80=SURFACE_STYLE_USAGE(.BOTH.,#92);
#81=SURFACE_STYLE_USAGE(.BOTH.,#93);
#82=SURFACE_STYLE_USAGE(.BOTH.,#94);
#83=SURFACE_STYLE_USAGE(.BOTH.,#95);
#84=SURFACE_SIDE_STYLE('',(#96));
#85=SURFACE_SIDE_STYLE('',(#97));
#86=SURFACE_SIDE_STYLE('',(#98));
#87=SURFACE_SIDE_STYLE('',(#99));
#88=SURFACE_SIDE_STYLE('',(#100));
#89=SURFACE_SIDE_STYLE('',(#101));
#90=SURFACE_SIDE_STYLE('',(#102));
#91=SURFACE_SIDE_STYLE('',(#103));
#92=SURFACE_SIDE_STYLE('',(#104));
#93=SURFACE_SIDE_STYLE('',(#105));
#94=SURFACE_SIDE_STYLE('',(#106));
#95=SURFACE_SIDE_STYLE('',(#107));
#96=SURFACE_STYLE_FILL_AREA(#108);
#97=SURFACE_STYLE_FILL_AREA(#109);
#98=SURFACE_STYLE_FILL_AREA(#110);
#99=SURFACE_STYLE_FILL_AREA(#111);
#100=SURFACE_STYLE_FILL_AREA(#112);
#101=SURFACE_STYLE_FILL_AREA(#113);
#102=SURFACE_STYLE_FILL_AREA(#114);
#103=SURFACE_STYLE_FILL_AREA(#115);
#104=SURFACE_STYLE_FILL_AREA(#116);
#105=SURFACE_STYLE_FILL_AREA(#117);
#106=SURFACE_STYLE_FILL_AREA(#118);
#107=SURFACE_STYLE_FILL_AREA(#119);
#108=FILL_AREA_STYLE('',(#120));
#109=FILL_AREA_STYLE('',(#121));
#110=FILL_AREA_STYLE('',(#122));
#111=FILL_AREA_STYLE('',(#123));
#112=FILL_AREA_STYLE('',(#124));
#113=FILL_AREA_STYLE('',(#125));
#114=FILL_AREA_STYLE('',(#126));
#115=FILL_AREA_STYLE('',(#127));
#116=FILL_AREA_STYLE('',(#128));
#117=FILL_AREA_STYLE('',(#129));
#118=FILL_AREA_STYLE('',(#130));
#119=FILL_AREA_STYLE('',(#131));
#120=FILL_AREA_STYLE_COLOUR('',#132);
#121=FILL_AREA_STYLE_COLOUR('',#41);
#122=FILL_AREA_STYLE_COLOUR('',#42);
#123=FILL_AREA_STYLE_COLOUR('',#42);
#124=FILL_AREA_STYLE_COLOUR('',#42);
#125=FILL_AREA_STYLE_COLOUR('',#42);
#126=FILL_AREA_STYLE_COLOUR('',#42);
#127=FILL_AREA_STYLE_COLOUR('',#42);
#128=FILL_AREA_STYLE_COLOUR('',#42);
#129=FILL_AREA_STYLE_COLOUR('',#42);
#130=FILL_AREA_STYLE_COLOUR('',#42);
#131=FILL_AREA_STYLE_COLOUR('',#42);
#132=DRAUGHTING_PRE_DEFINED_COLOUR('yellow');
#133=MANIFOLD_SOLID_BREP('',#135);
#134=MANIFOLD_SOLID_BREP('',#136);
#135=CLOSED_SHELL('',(#137,#138));
#136=CLOSED_SHELL('',(#139,#140,#141,#142,#143,#144,#145,#146,#147,#148));
#137=ADVANCED_FACE('',(#151,#152),#149,.F.);
#138=ADVANCED_FACE('',(#153,#154),#150,.F.);
#139=ADVANCED_FACE('',(#155,#156),#56,.T.);
#140=ADVANCED_FACE('',(#54),#52,.F.);
#141=ADVANCED_FACE('',(#55),#53,.F.);
#142=ADVANCED_FACE('',(#157,#158),#49,.T.);
#143=ADVANCED_FACE('',(#159,#160),#46,.T.);
#144=ADVANCED_FACE('',(#161,#162),#43,.T.);
#145=ADVANCED_FACE('',(#163,#164),#44,.T.);
#146=ADVANCED_FACE('',(#165,#166),#47,.T.);
#147=ADVANCED_FACE('',(#167,#168),#45,.T.);
#148=ADVANCED_FACE('',(#169,#170),#48,.T.);
#149=(
BOUNDED_SURFACE()
B_SPLINE_SURFACE(3,3,((#317,#318,#319,#320,#321,#322,#323),(#324,#325,#326,
#327,#328,#329,#330),(#331,#332,#333,#334,#335,#336,#337),(#338,#339,#340,
#341,#342,#343,#344),(#345,#346,#347,#348,#349,#350,#351),(#352,#353,#354,
#355,#356,#357,#358),(#359,#360,#361,#362,#363,#364,#365)),
 .UNSPECIFIED.,.T.,.F.,.F.)
B_SPLINE_SURFACE_WITH_KNOTS((1,3,3,3,1),(4,3,4),(-0.5,0.,0.5,1.,1.5),(0.,
0.5,1.),.UNSPECIFIED.)
GEOMETRIC_REPRESENTATION_ITEM()
RATIONAL_B_SPLINE_SURFACE(((1.,0.570190063776771,0.570190063776771,1.,0.570190063776771,
0.570190063776771,1.),(0.333333333333334,0.190063354592257,0.190063354592257,
0.333333333333334,0.190063354592257,0.190063354592257,0.333333333333334),
(0.333333333333334,0.190063354592257,0.190063354592257,0.333333333333334,
0.190063354592257,0.190063354592257,0.333333333333334),(1.,0.570190063776771,
0.570190063776771,1.,0.570190063776771,0.570190063776771,1.),(0.333333333333334,
0.190063354592257,0.190063354592257,0.333333333333334,0.190063354592257,
0.190063354592257,0.333333333333334),(0.333333333333334,0.190063354592257,
0.190063354592257,0.333333333333334,0.190063354592257,0.190063354592257,
0.333333333333334),(1.,0.570190063776771,0.570190063776771,1.,0.570190063776771,
0.570190063776771,1.)))
REPRESENTATION_ITEM('')
SURFACE()
);
#150=(
BOUNDED_SURFACE()
B_SPLINE_SURFACE(3,3,((#366,#367,#368,#369),(#370,#371,#372,#373),(#374,
#375,#376,#377),(#378,#379,#380,#381),(#382,#383,#384,#385),(#386,#387,
#388,#389),(#390,#391,#392,#393)),.UNSPECIFIED.,.T.,.F.,.F.)
B_SPLINE_SURFACE_WITH_KNOTS((1,3,3,3,1),(4,4),(-0.5,0.,0.5,1.,1.5),(0.,
1.),.UNSPECIFIED.)
GEOMETRIC_REPRESENTATION_ITEM()
RATIONAL_B_SPLINE_SURFACE(((1.,0.831696667730935,0.831696667730935,1.),
(0.333333333333334,0.277232222576978,0.277232222576978,0.333333333333334),
(0.333333333333334,0.277232222576978,0.277232222576978,0.333333333333334),
(1.,0.831696667730935,0.831696667730935,1.),(0.333333333333334,0.277232222576978,
0.277232222576978,0.333333333333334),(0.333333333333334,0.277232222576978,
0.277232222576978,0.333333333333334),(1.,0.831696667730935,0.831696667730935,
1.)))
REPRESENTATION_ITEM('')
SURFACE()
);
#151=FACE_BOUND('',#171,.T.);
#152=FACE_BOUND('',#172,.T.);
#153=FACE_BOUND('',#173,.T.);
#154=FACE_BOUND('',#174,.T.);
#155=FACE_BOUND('',#175,.T.);
#156=FACE_BOUND('',#176,.T.);
#157=FACE_BOUND('',#179,.T.);
#158=FACE_BOUND('',#180,.T.);
#159=FACE_BOUND('',#181,.T.);
#160=FACE_BOUND('',#182,.T.);
#161=FACE_BOUND('',#183,.T.);
#162=FACE_BOUND('',#184,.T.);
#163=FACE_BOUND('',#185,.T.);
#164=FACE_BOUND('',#186,.T.);
#165=FACE_BOUND('',#187,.T.);
#166=FACE_BOUND('',#188,.T.);
#167=FACE_BOUND('',#189,.T.);
#168=FACE_BOUND('',#190,.T.);
#169=FACE_BOUND('',#191,.T.);
#170=FACE_BOUND('',#192,.T.);
#171=EDGE_LOOP('',(#193));
#172=EDGE_LOOP('',(#194));
#173=EDGE_LOOP('',(#195));
#174=EDGE_LOOP('',(#196));
#175=EDGE_LOOP('',(#197));
#176=EDGE_LOOP('',(#198));
#177=EDGE_LOOP('',(#199));
#178=EDGE_LOOP('',(#200));
#179=EDGE_LOOP('',(#201));
#180=EDGE_LOOP('',(#202));
#181=EDGE_LOOP('',(#203));
#182=EDGE_LOOP('',(#204));
#183=EDGE_LOOP('',(#205));
#184=EDGE_LOOP('',(#206));
#185=EDGE_LOOP('',(#207));
#186=EDGE_LOOP('',(#208));
#187=EDGE_LOOP('',(#209));
#188=EDGE_LOOP('',(#210));
#189=EDGE_LOOP('',(#211));
#190=EDGE_LOOP('',(#212));
#191=EDGE_LOOP('',(#213));
#192=EDGE_LOOP('',(#214));
#193=ORIENTED_EDGE('',*,*,#226,.T.);
#194=ORIENTED_EDGE('',*,*,#227,.F.);
#195=ORIENTED_EDGE('',*,*,#227,.T.);
#196=ORIENTED_EDGE('',*,*,#226,.F.);
#197=ORIENTED_EDGE('',*,*,#228,.F.);
#198=ORIENTED_EDGE('',*,*,#229,.T.);
#199=ORIENTED_EDGE('',*,*,#229,.F.);
#200=ORIENTED_EDGE('',*,*,#230,.T.);
#201=ORIENTED_EDGE('',*,*,#230,.F.);
#202=ORIENTED_EDGE('',*,*,#231,.T.);
#203=ORIENTED_EDGE('',*,*,#231,.F.);
#204=ORIENTED_EDGE('',*,*,#232,.T.);
#205=ORIENTED_EDGE('',*,*,#232,.F.);
#206=ORIENTED_EDGE('',*,*,#233,.T.);
#207=ORIENTED_EDGE('',*,*,#233,.F.);
#208=ORIENTED_EDGE('',*,*,#234,.T.);
#209=ORIENTED_EDGE('',*,*,#234,.F.);
#210=ORIENTED_EDGE('',*,*,#235,.T.);
#211=ORIENTED_EDGE('',*,*,#235,.F.);
#212=ORIENTED_EDGE('',*,*,#236,.T.);
#213=ORIENTED_EDGE('',*,*,#236,.F.);
#214=ORIENTED_EDGE('',*,*,#228,.T.);
#215=VERTEX_POINT('',#314);
#216=VERTEX_POINT('',#316);
#217=VERTEX_POINT('',#395);
#218=VERTEX_POINT('',#397);
#219=VERTEX_POINT('',#401);
#220=VERTEX_POINT('',#404);
#221=VERTEX_POINT('',#463);
#222=VERTEX_POINT('',#466);
#223=VERTEX_POINT('',#469);
#224=VERTEX_POINT('',#472);
#225=VERTEX_POINT('',#475);
#226=EDGE_CURVE('',#215,#215,#237,.T.);
#227=EDGE_CURVE('',#216,#216,#238,.T.);
#228=EDGE_CURVE('',#217,#217,#239,.T.);
#229=EDGE_CURVE('',#218,#218,#240,.T.);
#230=EDGE_CURVE('',#219,#219,#241,.T.);
#231=EDGE_CURVE('',#220,#220,#242,.T.);
#232=EDGE_CURVE('',#221,#221,#243,.T.);
#233=EDGE_CURVE('',#222,#222,#244,.T.);
#234=EDGE_CURVE('',#223,#223,#245,.T.);
#235=EDGE_CURVE('',#224,#224,#246,.T.);
#236=EDGE_CURVE('',#225,#225,#247,.T.);
#237=CIRCLE('',#249,4.);
#238=CIRCLE('',#250,4.);
#239=CIRCLE('',#251,9.75);
#240=CIRCLE('',#252,8.25);
#241=CIRCLE('',#255,3.63875100413201);
#242=CIRCLE('',#257,8.5);
#243=CIRCLE('',#258,8.5);
#244=CIRCLE('',#260,9.75);
#245=CIRCLE('',#262,10.);
#246=CIRCLE('',#264,10.);
#247=CIRCLE('',#266,9.75);
#248=AXIS2_PLACEMENT_3D('',#312,#269,#270);
#249=AXIS2_PLACEMENT_3D('',#313,#271,#272);
#250=AXIS2_PLACEMENT_3D('',#315,#273,#274);
#251=AXIS2_PLACEMENT_3D('',#394,#275,#276);
#252=AXIS2_PLACEMENT_3D('',#396,#277,#278);
#253=AXIS2_PLACEMENT_3D('',#398,#279,#280);
#254=AXIS2_PLACEMENT_3D('',#399,#281,#282);
#255=AXIS2_PLACEMENT_3D('',#400,#283,#284);
#256=AXIS2_PLACEMENT_3D('',#402,#285,#286);
#257=AXIS2_PLACEMENT_3D('',#403,#287,#288);
#258=AXIS2_PLACEMENT_3D('',#462,#290,#291);
#259=AXIS2_PLACEMENT_3D('',#464,#292,#293);
#260=AXIS2_PLACEMENT_3D('',#465,#294,#295);
#261=AXIS2_PLACEMENT_3D('',#467,#296,#297);
#262=AXIS2_PLACEMENT_3D('',#468,#298,#299);
#263=AXIS2_PLACEMENT_3D('',#470,#300,#301);
#264=AXIS2_PLACEMENT_3D('',#471,#302,#303);
#265=AXIS2_PLACEMENT_3D('',#473,#304,#305);
#266=AXIS2_PLACEMENT_3D('',#474,#306,#307);
#267=AXIS2_PLACEMENT_3D('',#476,#308,#309);
#268=AXIS2_PLACEMENT_3D('',#477,#310,#311);
#269=DIRECTION('',(0.,0.,1.));
#270=DIRECTION('',(1.,0.,0.));
#271=DIRECTION('',(0.,0.993055471537302,0.11764705882353));
#272=DIRECTION('',(1.,0.,0.));
#273=DIRECTION('',(0.,0.,1.));
#274=DIRECTION('',(1.,0.,0.));
#275=DIRECTION('',(-1.,0.,0.));
#276=DIRECTION('',(0.,0.,1.));
#277=DIRECTION('',(-1.,0.,0.));
#278=DIRECTION('',(0.,0.,1.));
#279=DIRECTION('',(-1.,0.,0.));
#280=DIRECTION('',(0.,0.,1.));
#281=DIRECTION('',(-1.,0.,0.));
#282=DIRECTION('',(0.,0.,1.));
#283=DIRECTION('',(-1.,0.,0.));
#284=DIRECTION('',(0.,0.,1.));
#285=DIRECTION('',(1.,0.,0.));
#286=DIRECTION('',(0.,0.,-1.));
#287=DIRECTION('',(-1.,0.,0.));
#288=DIRECTION('',(0.,0.,1.));
#289=DIRECTION('',(-1.,0.,0.));
#290=DIRECTION('',(-1.,0.,0.));
#291=DIRECTION('',(0.,0.,1.));
#292=DIRECTION('',(-1.,0.,0.));
#293=DIRECTION('',(0.,0.,1.));
#294=DIRECTION('',(-1.,0.,0.));
#295=DIRECTION('',(0.,0.,1.));
#296=DIRECTION('',(1.,0.,0.));
#297=DIRECTION('',(-3.48351985208784E-16,0.,-1.));
#298=DIRECTION('',(-1.,0.,0.));
#299=DIRECTION('',(0.,0.,1.));
#300=DIRECTION('',(1.,0.,0.));
#301=DIRECTION('',(5.49615358725347E-17,0.,-1.));
#302=DIRECTION('',(-1.,0.,0.));
#303=DIRECTION('',(0.,0.,1.));
#304=DIRECTION('',(-1.,0.,0.));
#305=DIRECTION('',(0.,0.,1.));
#306=DIRECTION('',(-1.,0.,0.));
#307=DIRECTION('',(0.,0.,1.));
#308=DIRECTION('',(-1.,0.,0.));
#309=DIRECTION('',(1.49161790512469E-16,0.,1.));
#310=DIRECTION('',(-1.,0.,0.));
#311=DIRECTION('',(0.,0.,1.));
#312=CARTESIAN_POINT('',(0.,0.,0.));
#313=CARTESIAN_POINT('',(4.,0.293085105654948,6.02607697372775));
#314=CARTESIAN_POINT('',(8.,0.293085105654948,6.02607697372775));
#315=CARTESIAN_POINT('',(4.,-5.94974811,1.));
#316=CARTESIAN_POINT('',(8.,-5.94974811,1.));
#317=CARTESIAN_POINT('',(8.,-5.94974811,1.));
#318=CARTESIAN_POINT('',(8.,-7.04266788053587,-5.50259733912743));
#319=CARTESIAN_POINT('',(8.,-1.35261116403041,-8.83448874531199));
#320=CARTESIAN_POINT('',(8.,3.78349329623307,-4.69943412016894));
#321=CARTESIAN_POINT('',(8.,8.91959775649655,-0.564379495025885));
#322=CARTESIAN_POINT('',(8.,6.87910376901298,5.70575846730786));
#323=CARTESIAN_POINT('',(8.,0.293085105654949,6.02607697372775));
#324=CARTESIAN_POINT('',(7.99999999999999,2.05025189,1.));
#325=CARTESIAN_POINT('',(7.99999999999999,0.957332119464128,3.24076082515953));
#326=CARTESIAN_POINT('',(7.99999999999999,-1.52553507187583,3.0152542608084));
#327=CARTESIAN_POINT('',(7.99999999999999,-2.19686671653815,0.614255193071632));
#328=CARTESIAN_POINT('',(7.99999999999999,-2.86819836120046,-1.78674387466513));
#329=CARTESIAN_POINT('',(7.99999999999999,-0.862359425054301,-3.26731567725961));
#330=CARTESIAN_POINT('',(7.99999999999999,1.23426157624318,-1.91836679857066));
#331=CARTESIAN_POINT('',(1.12355701329479E-16,2.05025189,1.));
#332=CARTESIAN_POINT('',(1.12355701329479E-16,0.957332119464128,3.24076082515953));
#333=CARTESIAN_POINT('',(1.12355701329479E-16,-1.52553507187583,3.0152542608084));
#334=CARTESIAN_POINT('',(1.12355701329479E-16,-2.19686671653815,0.614255193071634));
#335=CARTESIAN_POINT('',(1.12355701329479E-16,-2.86819836120046,-1.78674387466513));
#336=CARTESIAN_POINT('',(1.12355701329479E-16,-0.862359425054301,-3.26731567725961));
#337=CARTESIAN_POINT('',(1.12355701329479E-16,1.23426157624318,-1.91836679857066));
#338=CARTESIAN_POINT('',(-8.67361737988404E-16,-5.94974811,1.));
#339=CARTESIAN_POINT('',(-8.67361737988402E-16,-7.04266788053587,-5.50259733912743));
#340=CARTESIAN_POINT('',(-8.67361737988402E-16,-1.35261116403041,-8.83448874531199));
#341=CARTESIAN_POINT('',(-8.67361737988404E-16,3.78349329623307,-4.69943412016894));
#342=CARTESIAN_POINT('',(-8.67361737988402E-16,8.91959775649655,-0.564379495025884));
#343=CARTESIAN_POINT('',(-8.67361737988402E-16,6.87910376901298,5.70575846730786));
#344=CARTESIAN_POINT('',(-8.67361737988404E-16,0.293085105654948,6.02607697372775));
#345=CARTESIAN_POINT('',(-1.84707917730629E-15,-13.94974811,1.));
#346=CARTESIAN_POINT('',(-1.84707917730629E-15,-15.0426678805359,-14.2459555034144));
#347=CARTESIAN_POINT('',(-1.84707917730629E-15,-1.17968725618499,-20.6842317514324));
#348=CARTESIAN_POINT('',(-1.84707917730629E-15,9.76385330900428,-10.0131234334095));
#349=CARTESIAN_POINT('',(-1.84707917730629E-15,20.7073938741936,0.657984884613365));
#350=CARTESIAN_POINT('',(-1.84707917730629E-15,14.6205669630803,14.6788326118753));
#351=CARTESIAN_POINT('',(-1.84707917730629E-15,-0.648091364933289,13.9705207460262));
#352=CARTESIAN_POINT('',(7.99999999999999,-13.94974811,1.));
#353=CARTESIAN_POINT('',(7.99999999999999,-15.0426678805359,-14.2459555034144));
#354=CARTESIAN_POINT('',(7.99999999999999,-1.17968725618499,-20.6842317514324));
#355=CARTESIAN_POINT('',(7.99999999999999,9.76385330900428,-10.0131234334095));
#356=CARTESIAN_POINT('',(7.99999999999999,20.7073938741936,0.657984884613365));
#357=CARTESIAN_POINT('',(7.99999999999999,14.6205669630803,14.6788326118753));
#358=CARTESIAN_POINT('',(7.99999999999999,-0.648091364933289,13.9705207460262));
#359=CARTESIAN_POINT('',(8.,-5.94974811,1.));
#360=CARTESIAN_POINT('',(8.,-7.04266788053587,-5.50259733912743));
#361=CARTESIAN_POINT('',(8.,-1.35261116403041,-8.83448874531199));
#362=CARTESIAN_POINT('',(8.,3.78349329623307,-4.69943412016894));
#363=CARTESIAN_POINT('',(8.,8.91959775649655,-0.564379495025885));
#364=CARTESIAN_POINT('',(8.,6.87910376901298,5.70575846730786));
#365=CARTESIAN_POINT('',(8.,0.293085105654949,6.02607697372775));
#366=CARTESIAN_POINT('',(8.,0.293085105654948,6.02607697372775));
#367=CARTESIAN_POINT('',(8.,-2.91528621312388,6.18211976094142));
#368=CARTESIAN_POINT('',(8.,-5.41733351709544,4.16773271787035));
#369=CARTESIAN_POINT('',(8.,-5.94974811,1.));
#370=CARTESIAN_POINT('',(7.99999999999999,1.23426157624318,-1.91836679857066));
#371=CARTESIAN_POINT('',(7.99999999999999,2.25562805434582,-1.2612279239174));
#372=CARTESIAN_POINT('',(7.99999999999999,2.58266648290456,-0.0915840253661612));
#373=CARTESIAN_POINT('',(7.99999999999999,2.05025189,1.));
#374=CARTESIAN_POINT('',(1.12355701329479E-16,1.23426157624318,-1.91836679857066));
#375=CARTESIAN_POINT('',(1.12355701329479E-16,2.25562805434582,-1.2612279239174));
#376=CARTESIAN_POINT('',(1.12355701329479E-16,2.58266648290456,-0.0915840253661616));
#377=CARTESIAN_POINT('',(1.12355701329479E-16,2.05025189,1.));
#378=CARTESIAN_POINT('',(-8.67361737988404E-16,0.293085105654948,6.02607697372775));
#379=CARTESIAN_POINT('',(-8.67361737988403E-16,-2.91528621312388,6.18211976094142));
#380=CARTESIAN_POINT('',(-8.67361737988403E-16,-5.41733351709544,4.16773271787035));
#381=CARTESIAN_POINT('',(-8.67361737988404E-16,-5.94974811,1.));
#382=CARTESIAN_POINT('',(-1.84707917730629E-15,-0.648091364933289,13.9705207460262));
#383=CARTESIAN_POINT('',(-1.84707917730628E-15,-8.08620048059356,13.6254674458002));
#384=CARTESIAN_POINT('',(-1.84707917730628E-15,-13.4173335170954,8.42704946110685));
#385=CARTESIAN_POINT('',(-1.84707917730629E-15,-13.94974811,0.999999999999999));
#386=CARTESIAN_POINT('',(7.99999999999999,-0.648091364933289,13.9705207460262));
#387=CARTESIAN_POINT('',(7.99999999999999,-8.08620048059356,13.6254674458002));
#388=CARTESIAN_POINT('',(7.99999999999999,-13.4173335170954,8.42704946110685));
#389=CARTESIAN_POINT('',(7.99999999999999,-13.94974811,0.999999999999999));
#390=CARTESIAN_POINT('',(8.,0.293085105654948,6.02607697372775));
#391=CARTESIAN_POINT('',(8.,-2.91528621312388,6.18211976094142));
#392=CARTESIAN_POINT('',(8.,-5.41733351709544,4.16773271787035));
#393=CARTESIAN_POINT('',(8.,-5.94974811,1.));
#394=CARTESIAN_POINT('',(148.5,0.,0.));
#395=CARTESIAN_POINT('',(148.5,0.,9.75));
#396=CARTESIAN_POINT('',(150.,0.,0.));
#397=CARTESIAN_POINT('',(150.,0.,8.25));
#398=CARTESIAN_POINT('',(148.5,0.,0.));
#399=CARTESIAN_POINT('',(150.,0.,0.));
#400=CARTESIAN_POINT('',(2.50000000004019,0.,0.));
#401=CARTESIAN_POINT('',(2.50000000004019,0.,3.63875100413201));
#402=CARTESIAN_POINT('',(2.5000000000201,3.63875100415091,0.));
#403=CARTESIAN_POINT('',(6.09200474218302,0.,0.));
#404=CARTESIAN_POINT('',(6.09200474218302,0.,8.5));
#405=CARTESIAN_POINT('',(3.59463174904208,3.31337457885801,0.));
#406=CARTESIAN_POINT('',(4.40536825095792,3.31337457885801,0.));
#407=CARTESIAN_POINT('',(4.81094379472214,3.37905956112757,0.));
#408=CARTESIAN_POINT('',(5.379651797655,3.5787309110294,0.));
#409=CARTESIAN_POINT('',(5.56506953340466,3.66327275742111,0.));
#410=CARTESIAN_POINT('',(5.91407799791542,3.86651795940242,0.));
#411=CARTESIAN_POINT('',(6.07672071964682,3.98420394020779,0.));
#412=CARTESIAN_POINT('',(6.37676572035407,4.2537576207366,0.));
#413=CARTESIAN_POINT('',(6.51346618988596,4.40585664746409,0.));
#414=CARTESIAN_POINT('',(6.7475750835419,4.73141440547362,0.));
#415=CARTESIAN_POINT('',(6.84750858434622,4.90781551482883,0.));
#416=CARTESIAN_POINT('',(7.00724492723535,5.28008608754167,0.));
#417=CARTESIAN_POINT('',(7.06566871113261,5.47180421628529,0.));
#418=CARTESIAN_POINT('',(7.1415815605224,5.86589743846848,0.));
#419=CARTESIAN_POINT('',(7.15867273919226,6.0703799357457,0.));
#420=CARTESIAN_POINT('',(7.15025447242493,6.47182048098804,0.));
#421=CARTESIAN_POINT('',(7.12548073351245,6.67053312051055,0.));
#422=CARTESIAN_POINT('',(7.03518025468511,7.06397986111159,0.));
#423=CARTESIAN_POINT('',(6.96956460943017,7.25686014676511,0.));
#424=CARTESIAN_POINT('',(6.72114064862905,7.80371196265695,0.));
#425=CARTESIAN_POINT('',(6.47979004345579,8.1388493534942,0.));
#426=CARTESIAN_POINT('',(6.04225822116063,8.55049084933784,0.));
#427=CARTESIAN_POINT('',(5.88132842796383,8.67525586238193,0.));
#428=CARTESIAN_POINT('',(5.5401371177137,8.89085917733382,0.));
#429=CARTESIAN_POINT('',(5.36139455791327,8.981264132845,0.));
#430=CARTESIAN_POINT('',(4.98801222285135,9.1281275168776,0.));
#431=CARTESIAN_POINT('',(4.79134785152206,9.1847408242083,0.));
#432=CARTESIAN_POINT('',(4.39628528768712,9.25902419888226,0.));
#433=CARTESIAN_POINT('',(4.19688085977615,9.27748566444144,0.));
#434=CARTESIAN_POINT('',(3.79431430412164,9.27693438559959,0.));
#435=CARTESIAN_POINT('',(3.59088030251419,9.25737669029042,0.));
#436=CARTESIAN_POINT('',(3.19705310566615,9.18174511653693,0.));
#437=CARTESIAN_POINT('',(3.00447885580195,9.12581032138543,0.));
#438=CARTESIAN_POINT('',(2.44019230690285,8.90190289922159,0.));
#439=CARTESIAN_POINT('',(2.09695153392824,8.68353864447151,0.));
#440=CARTESIAN_POINT('',(1.65637787586976,8.26587542941128,0.));
#441=CARTESIAN_POINT('',(1.52477025790678,8.11443608444932,0.));
#442=CARTESIAN_POINT('',(1.29177201547702,7.78734801782962,0.));
#443=CARTESIAN_POINT('',(1.18978061125428,7.60979223353713,0.));
#444=CARTESIAN_POINT('',(1.02513177585377,7.24286036009676,0.));
#445=CARTESIAN_POINT('',(0.961381992997735,7.05261078435461,0.));
#446=CARTESIAN_POINT('',(0.87252290406988,6.65799975135351,0.));
#447=CARTESIAN_POINT('',(0.848390602828761,6.45624732575159,0.));
#448=CARTESIAN_POINT('',(0.842115943225851,6.05501856913695,0.));
#449=CARTESIAN_POINT('',(0.860100777211332,5.85157713659857,0.));
#450=CARTESIAN_POINT('',(0.938562441438312,5.45586911711564,0.));
#451=CARTESIAN_POINT('',(0.99827159487047,5.26447128525116,0.));
#452=CARTESIAN_POINT('',(1.15935070207412,4.89480997630168,0.));
#453=CARTESIAN_POINT('',(1.2610822849909,4.71750523164326,0.));
#454=CARTESIAN_POINT('',(1.4963849732733,4.39418113826162,0.));
#455=CARTESIAN_POINT('',(1.6309259166332,4.24568271003221,0.));
#456=CARTESIAN_POINT('',(2.0861030652041,3.84036844858023,0.));
#457=CARTESIAN_POINT('',(2.43331922994846,3.64354410742514,0.));
#458=CARTESIAN_POINT('',(3.19913687057717,3.37638644930632,0.));
#459=CARTESIAN_POINT('',(3.59463174904208,3.31337457885801,0.));
#460=CARTESIAN_POINT('',(4.40536825095792,3.31337457885801,0.));
#461=CARTESIAN_POINT('',(0.,0.,0.));
#462=CARTESIAN_POINT('',(41.8741671791101,0.,0.));
#463=CARTESIAN_POINT('',(41.8741671791101,0.,8.5));
#464=CARTESIAN_POINT('',(0.,0.,0.));
#465=CARTESIAN_POINT('',(59.75,0.,0.));
#466=CARTESIAN_POINT('',(59.75,0.,9.75));
#467=CARTESIAN_POINT('',(59.75,0.,0.));
#468=CARTESIAN_POINT('',(60.,0.,0.));
#469=CARTESIAN_POINT('',(60.,0.,10.));
#470=CARTESIAN_POINT('',(60.,0.,0.));
#471=CARTESIAN_POINT('',(144.582179545095,0.,0.));
#472=CARTESIAN_POINT('',(144.582179545095,0.,10.));
#473=CARTESIAN_POINT('',(0.,0.,0.));
#474=CARTESIAN_POINT('',(146.,0.,0.));
#475=CARTESIAN_POINT('',(146.,0.,9.75));
#476=CARTESIAN_POINT('',(146.,0.,0.));
#477=CARTESIAN_POINT('',(0.,0.,0.));
#478=(
GEOMETRIC_REPRESENTATION_CONTEXT(3)
GLOBAL_UNCERTAINTY_ASSIGNED_CONTEXT((#479))
GLOBAL_UNIT_ASSIGNED_CONTEXT((#485,#481,#480))
REPRESENTATION_CONTEXT('AEMR-RD08T2-D20-W20-L150-Z02',
'TOP_LEVEL_ASSEMBLY_PART')
);
#479=UNCERTAINTY_MEASURE_WITH_UNIT(LENGTH_MEASURE(2.E-5),#485,
'DISTANCE_ACCURACY_VALUE','Maximum Tolerance applied to model');
#480=(
NAMED_UNIT(*)
SI_UNIT($,.STERADIAN.)
SOLID_ANGLE_UNIT()
);
#481=(
CONVERSION_BASED_UNIT('DEGREE',#483)
NAMED_UNIT(#482)
PLANE_ANGLE_UNIT()
);
#482=DIMENSIONAL_EXPONENTS(0.,0.,0.,0.,0.,0.,0.);
#483=PLANE_ANGLE_MEASURE_WITH_UNIT(PLANE_ANGLE_MEASURE(0.0174532925),#484);
#484=(
NAMED_UNIT(*)
PLANE_ANGLE_UNIT()
SI_UNIT($,.RADIAN.)
);
#485=(
LENGTH_UNIT()
NAMED_UNIT(*)
SI_UNIT(.MILLI.,.METRE.)
);
ENDSEC;
END-ISO-10303-21;
