ISO-10303-21;
HEADER;
/* Generated by software containing ST-Developer
 * from STEP Tools, Inc. (www.steptools.com) 
 */
/* OPTION: using custom schema-name function */

FILE_DESCRIPTION(
/* description */ (''),
/* implementation_level */ '2;1');

FILE_NAME(
/* name */ 'AEMR-RD1003-D30-M16-L43-Z04-H.stp',
/* time_stamp */ '2023-10-19T20:48:01+03:00',
/* author */ (''),
/* organization */ (''),
/* preprocessor_version */ 'ST-DEVELOPER v19.4',
/* originating_system */ 'SIEMENS PLM Software NX2306.5001',
/* authorisation */ '');

FILE_SCHEMA (('AUTOMOTIVE_DESIGN { 1 0 10303 214 3 1 1 1 }'));
ENDSEC;

DATA;
#10=PROPERTY_DEFINITION_REPRESENTATION(#14,#12);
#11=PROPERTY_DEFINITION_REPRESENTATION(#15,#13);
#12=REPRESENTATION('',(#16),#518);
#13=REPRESENTATION('',(#17),#518);
#14=PROPERTY_DEFINITION('pmi validation property','',#21);
#15=PROPERTY_DEFINITION('pmi validation property','',#21);
#16=VALUE_REPRESENTATION_ITEM('number of annotations',COUNT_MEASURE(0.));
#17=VALUE_REPRESENTATION_ITEM('number of views',COUNT_MEASURE(0.));
#18=SHAPE_REPRESENTATION_RELATIONSHIP('None',
'relationship between AEMR-RD1003-D30-M16-L43-Z04-H-LIGHT_x_t_objects-
None and AEMR-RD1003-D30-M16-L43-Z04-H-LIGHT_x_t_objects-None',#30,#19);
#19=ADVANCED_BREP_SHAPE_REPRESENTATION(
'AEMR-RD1003-D30-M16-L43-Z04-H-LIGHT_x_t_objects-None',(#67,#68),#518);
#20=SHAPE_DEFINITION_REPRESENTATION(#21,#30);
#21=PRODUCT_DEFINITION_SHAPE('','',#22);
#22=PRODUCT_DEFINITION(' ','',#24,#23);
#23=PRODUCT_DEFINITION_CONTEXT('part definition',#29,'design');
#24=PRODUCT_DEFINITION_FORMATION_WITH_SPECIFIED_SOURCE(' ',' ',#26,
 .NOT_KNOWN.);
#25=PRODUCT_RELATED_PRODUCT_CATEGORY('part','',(#26));
#26=PRODUCT('AEMR-RD1003-D30-M16-L43-Z04-H-LIGHT_x_t_objects',
'AEMR-RD1003-D30-M16-L43-Z04-H-LIGHT_x_t_objects',' ',(#27));
#27=PRODUCT_CONTEXT(' ',#29,'mechanical');
#28=APPLICATION_PROTOCOL_DEFINITION('international standard',
'automotive_design',2010,#29);
#29=APPLICATION_CONTEXT(
'core data for automotive mechanical design processes');
#30=SHAPE_REPRESENTATION(
'AEMR-RD1003-D30-M16-L43-Z04-H-LIGHT_x_t_objects-None',(#232),#518);
#31=COLOUR_RGB('silver gray',0.6,0.6,0.6);
#32=FACE_OUTER_BOUND('',#140,.T.);
#33=FACE_OUTER_BOUND('',#141,.T.);
#34=SURFACE_OF_REVOLUTION('',#36,#35);
#35=AXIS1_PLACEMENT('',#499,#301);
#36=B_SPLINE_CURVE_WITH_KNOTS('',3,(#433,#434,#435,#436,#437,#438,#439,
#440,#441,#442,#443,#444,#445,#446,#447,#448,#449,#450,#451,#452,#453,#454,
#455,#456,#457,#458,#459,#460,#461,#462,#463,#464,#465,#466,#467,#468,#469,
#470,#471,#472,#473,#474,#475,#476,#477,#478,#479,#480,#481,#482,#483,#484,
#485,#486,#487,#488,#489,#490,#491,#492,#493,#494,#495,#496,#497,#498),
 .UNSPECIFIED.,.T.,.F.,(2,2,2,2,2,2,2,2,2,2,2,2,2,2,2,2,2,2,2,2,2,2,2,2,
2,2,2,2,2,2,2,2,2,2,2),(-0.03125,0.,0.03125,0.0625,0.09375,0.125,0.15625,
0.1875,0.21875,0.25,0.28125,0.3125,0.34375,0.375,0.40625,0.4375,0.46875,
0.5,0.53125,0.5625,0.59375,0.625,0.65625,0.6875,0.71875,0.75,0.78125,0.8125,
0.84375,0.875,0.90625,0.9375,0.96875,1.,1.03125),.UNSPECIFIED.);
#37=CYLINDRICAL_SURFACE('',#245,14.5);
#38=CYLINDRICAL_SURFACE('',#249,13.25);
#39=CYLINDRICAL_SURFACE('',#257,7.875);
#40=CYLINDRICAL_SURFACE('',#261,8.5);
#41=PLANE('',#241);
#42=PLANE('',#251);
#43=PLANE('',#253);
#44=CONICAL_SURFACE('',#239,9.03529142706151,74.9999999999998);
#45=CONICAL_SURFACE('',#243,14.,44.9999999999999);
#46=CONICAL_SURFACE('',#247,14.5,44.9999999999996);
#47=CONICAL_SURFACE('',#255,5.875,45.0000000000002);
#48=CONICAL_SURFACE('',#259,7.875,30.0000000000004);
#49=CONICAL_SURFACE('',#262,8.5,14.9999999999999);
#50=TOROIDAL_SURFACE('',#237,8.88,0.6);
#51=PRESENTATION_LAYER_ASSIGNMENT('1','Layer 1',(#67,#68));
#52=STYLED_ITEM('',(#54),#67);
#53=STYLED_ITEM('',(#55),#68);
#54=PRESENTATION_STYLE_ASSIGNMENT((#56));
#55=PRESENTATION_STYLE_ASSIGNMENT((#57));
#56=SURFACE_STYLE_USAGE(.BOTH.,#58);
#57=SURFACE_STYLE_USAGE(.BOTH.,#59);
#58=SURFACE_SIDE_STYLE('',(#60));
#59=SURFACE_SIDE_STYLE('',(#61));
#60=SURFACE_STYLE_FILL_AREA(#62);
#61=SURFACE_STYLE_FILL_AREA(#63);
#62=FILL_AREA_STYLE('',(#64));
#63=FILL_AREA_STYLE('',(#65));
#64=FILL_AREA_STYLE_COLOUR('',#66);
#65=FILL_AREA_STYLE_COLOUR('',#31);
#66=DRAUGHTING_PRE_DEFINED_COLOUR('yellow');
#67=MANIFOLD_SOLID_BREP('',#69);
#68=MANIFOLD_SOLID_BREP('',#70);
#69=CLOSED_SHELL('',(#71,#72));
#70=CLOSED_SHELL('',(#73,#74,#75,#76,#77,#78,#79,#80,#81,#82,#83,#84,#85,
#86,#87));
#71=ADVANCED_FACE('',(#90,#91),#88,.F.);
#72=ADVANCED_FACE('',(#92,#93),#89,.F.);
#73=ADVANCED_FACE('',(#94,#95),#50,.F.);
#74=ADVANCED_FACE('',(#96,#97),#44,.F.);
#75=ADVANCED_FACE('',(#98,#99),#41,.F.);
#76=ADVANCED_FACE('',(#100,#101),#45,.T.);
#77=ADVANCED_FACE('',(#102,#103),#37,.T.);
#78=ADVANCED_FACE('',(#104,#105),#46,.T.);
#79=ADVANCED_FACE('',(#106,#107),#38,.T.);
#80=ADVANCED_FACE('',(#108,#109),#34,.T.);
#81=ADVANCED_FACE('',(#32),#42,.F.);
#82=ADVANCED_FACE('',(#33),#43,.F.);
#83=ADVANCED_FACE('',(#110,#111),#47,.T.);
#84=ADVANCED_FACE('',(#112,#113),#39,.T.);
#85=ADVANCED_FACE('',(#114,#115),#48,.T.);
#86=ADVANCED_FACE('',(#116,#117),#40,.T.);
#87=ADVANCED_FACE('',(#118,#119),#49,.T.);
#88=(
BOUNDED_SURFACE()
B_SPLINE_SURFACE(3,3,((#331,#332,#333,#334,#335,#336,#337),(#338,#339,#340,
#341,#342,#343,#344),(#345,#346,#347,#348,#349,#350,#351),(#352,#353,#354,
#355,#356,#357,#358),(#359,#360,#361,#362,#363,#364,#365),(#366,#367,#368,
#369,#370,#371,#372),(#373,#374,#375,#376,#377,#378,#379)),
 .UNSPECIFIED.,.T.,.F.,.F.)
B_SPLINE_SURFACE_WITH_KNOTS((1,3,3,3,1),(4,3,4),(-0.5,0.,0.5,1.,1.5),(0.,
0.5,1.),.UNSPECIFIED.)
GEOMETRIC_REPRESENTATION_ITEM()
RATIONAL_B_SPLINE_SURFACE(((1.,0.564946752072954,0.564946752072954,1.,0.564946752072954,
0.564946752072954,1.),(0.333333333333334,0.188315584024318,0.188315584024318,
0.333333333333334,0.188315584024318,0.188315584024318,0.333333333333334),
(0.333333333333334,0.188315584024318,0.188315584024318,0.333333333333334,
0.188315584024318,0.188315584024318,0.333333333333334),(1.,0.564946752072954,
0.564946752072954,1.,0.564946752072954,0.564946752072954,1.),(0.333333333333334,
0.188315584024318,0.188315584024318,0.333333333333334,0.188315584024318,
0.188315584024318,0.333333333333334),(0.333333333333334,0.188315584024318,
0.188315584024318,0.333333333333334,0.188315584024318,0.188315584024318,
0.333333333333334),(1.,0.564946752072954,0.564946752072954,1.,0.564946752072954,
0.564946752072954,1.)))
REPRESENTATION_ITEM('')
SURFACE()
);
#89=(
BOUNDED_SURFACE()
B_SPLINE_SURFACE(3,3,((#380,#381,#382,#383),(#384,#385,#386,#387),(#388,
#389,#390,#391),(#392,#393,#394,#395),(#396,#397,#398,#399),(#400,#401,
#402,#403),(#404,#405,#406,#407)),.UNSPECIFIED.,.T.,.F.,.F.)
B_SPLINE_SURFACE_WITH_KNOTS((1,3,3,3,1),(4,4),(-0.5,0.,0.5,1.,1.5),(0.,
1.),.UNSPECIFIED.)
GEOMETRIC_REPRESENTATION_ITEM()
RATIONAL_B_SPLINE_SURFACE(((1.,0.839065672779236,0.839065672779236,1.),
(0.333333333333334,0.279688557593078,0.279688557593078,0.333333333333334),
(0.333333333333334,0.279688557593078,0.279688557593078,0.333333333333334),
(1.,0.839065672779236,0.839065672779236,1.),(0.333333333333334,0.279688557593078,
0.279688557593078,0.333333333333334),(0.333333333333334,0.279688557593078,
0.279688557593078,0.333333333333334),(1.,0.839065672779236,0.839065672779236,
1.)))
REPRESENTATION_ITEM('')
SURFACE()
);
#90=FACE_BOUND('',#120,.T.);
#91=FACE_BOUND('',#121,.T.);
#92=FACE_BOUND('',#122,.T.);
#93=FACE_BOUND('',#123,.T.);
#94=FACE_BOUND('',#124,.T.);
#95=FACE_BOUND('',#125,.T.);
#96=FACE_BOUND('',#126,.T.);
#97=FACE_BOUND('',#127,.T.);
#98=FACE_BOUND('',#128,.T.);
#99=FACE_BOUND('',#129,.T.);
#100=FACE_BOUND('',#130,.T.);
#101=FACE_BOUND('',#131,.T.);
#102=FACE_BOUND('',#132,.T.);
#103=FACE_BOUND('',#133,.T.);
#104=FACE_BOUND('',#134,.T.);
#105=FACE_BOUND('',#135,.T.);
#106=FACE_BOUND('',#136,.T.);
#107=FACE_BOUND('',#137,.T.);
#108=FACE_BOUND('',#138,.T.);
#109=FACE_BOUND('',#139,.T.);
#110=FACE_BOUND('',#142,.T.);
#111=FACE_BOUND('',#143,.T.);
#112=FACE_BOUND('',#144,.T.);
#113=FACE_BOUND('',#145,.T.);
#114=FACE_BOUND('',#146,.T.);
#115=FACE_BOUND('',#147,.T.);
#116=FACE_BOUND('',#148,.T.);
#117=FACE_BOUND('',#149,.T.);
#118=FACE_BOUND('',#150,.T.);
#119=FACE_BOUND('',#151,.T.);
#120=EDGE_LOOP('',(#152));
#121=EDGE_LOOP('',(#153));
#122=EDGE_LOOP('',(#154));
#123=EDGE_LOOP('',(#155));
#124=EDGE_LOOP('',(#156));
#125=EDGE_LOOP('',(#157));
#126=EDGE_LOOP('',(#158));
#127=EDGE_LOOP('',(#159));
#128=EDGE_LOOP('',(#160));
#129=EDGE_LOOP('',(#161));
#130=EDGE_LOOP('',(#162));
#131=EDGE_LOOP('',(#163));
#132=EDGE_LOOP('',(#164));
#133=EDGE_LOOP('',(#165));
#134=EDGE_LOOP('',(#166));
#135=EDGE_LOOP('',(#167));
#136=EDGE_LOOP('',(#168));
#137=EDGE_LOOP('',(#169));
#138=EDGE_LOOP('',(#170));
#139=EDGE_LOOP('',(#171));
#140=EDGE_LOOP('',(#172));
#141=EDGE_LOOP('',(#173));
#142=EDGE_LOOP('',(#174));
#143=EDGE_LOOP('',(#175));
#144=EDGE_LOOP('',(#176));
#145=EDGE_LOOP('',(#177));
#146=EDGE_LOOP('',(#178));
#147=EDGE_LOOP('',(#179));
#148=EDGE_LOOP('',(#180));
#149=EDGE_LOOP('',(#181));
#150=EDGE_LOOP('',(#182));
#151=EDGE_LOOP('',(#183));
#152=ORIENTED_EDGE('',*,*,#200,.T.);
#153=ORIENTED_EDGE('',*,*,#201,.T.);
#154=ORIENTED_EDGE('',*,*,#201,.F.);
#155=ORIENTED_EDGE('',*,*,#200,.F.);
#156=ORIENTED_EDGE('',*,*,#202,.F.);
#157=ORIENTED_EDGE('',*,*,#203,.T.);
#158=ORIENTED_EDGE('',*,*,#204,.F.);
#159=ORIENTED_EDGE('',*,*,#202,.T.);
#160=ORIENTED_EDGE('',*,*,#205,.F.);
#161=ORIENTED_EDGE('',*,*,#204,.T.);
#162=ORIENTED_EDGE('',*,*,#206,.F.);
#163=ORIENTED_EDGE('',*,*,#205,.T.);
#164=ORIENTED_EDGE('',*,*,#207,.F.);
#165=ORIENTED_EDGE('',*,*,#206,.T.);
#166=ORIENTED_EDGE('',*,*,#208,.F.);
#167=ORIENTED_EDGE('',*,*,#207,.T.);
#168=ORIENTED_EDGE('',*,*,#209,.F.);
#169=ORIENTED_EDGE('',*,*,#208,.T.);
#170=ORIENTED_EDGE('',*,*,#210,.F.);
#171=ORIENTED_EDGE('',*,*,#209,.T.);
#172=ORIENTED_EDGE('',*,*,#210,.T.);
#173=ORIENTED_EDGE('',*,*,#211,.F.);
#174=ORIENTED_EDGE('',*,*,#212,.F.);
#175=ORIENTED_EDGE('',*,*,#211,.T.);
#176=ORIENTED_EDGE('',*,*,#213,.F.);
#177=ORIENTED_EDGE('',*,*,#212,.T.);
#178=ORIENTED_EDGE('',*,*,#214,.F.);
#179=ORIENTED_EDGE('',*,*,#213,.T.);
#180=ORIENTED_EDGE('',*,*,#215,.F.);
#181=ORIENTED_EDGE('',*,*,#214,.T.);
#182=ORIENTED_EDGE('',*,*,#203,.F.);
#183=ORIENTED_EDGE('',*,*,#215,.T.);
#184=VERTEX_POINT('',#328);
#185=VERTEX_POINT('',#330);
#186=VERTEX_POINT('',#409);
#187=VERTEX_POINT('',#411);
#188=VERTEX_POINT('',#414);
#189=VERTEX_POINT('',#417);
#190=VERTEX_POINT('',#420);
#191=VERTEX_POINT('',#423);
#192=VERTEX_POINT('',#426);
#193=VERTEX_POINT('',#429);
#194=VERTEX_POINT('',#432);
#195=VERTEX_POINT('',#502);
#196=VERTEX_POINT('',#505);
#197=VERTEX_POINT('',#508);
#198=VERTEX_POINT('',#511);
#199=VERTEX_POINT('',#514);
#200=EDGE_CURVE('',#184,#184,#216,.T.);
#201=EDGE_CURVE('',#185,#185,#217,.T.);
#202=EDGE_CURVE('',#186,#186,#218,.T.);
#203=EDGE_CURVE('',#187,#187,#219,.T.);
#204=EDGE_CURVE('',#188,#188,#220,.T.);
#205=EDGE_CURVE('',#189,#189,#221,.T.);
#206=EDGE_CURVE('',#190,#190,#222,.T.);
#207=EDGE_CURVE('',#191,#191,#223,.T.);
#208=EDGE_CURVE('',#192,#192,#224,.T.);
#209=EDGE_CURVE('',#193,#193,#225,.T.);
#210=EDGE_CURVE('',#194,#194,#226,.T.);
#211=EDGE_CURVE('',#195,#195,#227,.T.);
#212=EDGE_CURVE('',#196,#196,#228,.T.);
#213=EDGE_CURVE('',#197,#197,#229,.T.);
#214=EDGE_CURVE('',#198,#198,#230,.T.);
#215=EDGE_CURVE('',#199,#199,#231,.T.);
#216=CIRCLE('',#233,5.);
#217=CIRCLE('',#234,5.);
#218=CIRCLE('',#235,9.03529142706151);
#219=CIRCLE('',#236,8.30044450422656);
#220=CIRCLE('',#238,9.78004267621761);
#221=CIRCLE('',#240,14.);
#222=CIRCLE('',#242,14.5);
#223=CIRCLE('',#244,14.5);
#224=CIRCLE('',#246,13.25);
#225=CIRCLE('',#248,13.25);
#226=CIRCLE('',#250,6.45523712756852);
#227=CIRCLE('',#252,5.875);
#228=CIRCLE('',#254,7.875);
#229=CIRCLE('',#256,7.875);
#230=CIRCLE('',#258,8.5);
#231=CIRCLE('',#260,8.5);
#232=AXIS2_PLACEMENT_3D('',#326,#263,#264);
#233=AXIS2_PLACEMENT_3D('',#327,#265,#266);
#234=AXIS2_PLACEMENT_3D('',#329,#267,#268);
#235=AXIS2_PLACEMENT_3D('',#408,#269,#270);
#236=AXIS2_PLACEMENT_3D('',#410,#271,#272);
#237=AXIS2_PLACEMENT_3D('',#412,#273,#274);
#238=AXIS2_PLACEMENT_3D('',#413,#275,#276);
#239=AXIS2_PLACEMENT_3D('',#415,#277,#278);
#240=AXIS2_PLACEMENT_3D('',#416,#279,#280);
#241=AXIS2_PLACEMENT_3D('',#418,#281,#282);
#242=AXIS2_PLACEMENT_3D('',#419,#283,#284);
#243=AXIS2_PLACEMENT_3D('',#421,#285,#286);
#244=AXIS2_PLACEMENT_3D('',#422,#287,#288);
#245=AXIS2_PLACEMENT_3D('',#424,#289,#290);
#246=AXIS2_PLACEMENT_3D('',#425,#291,#292);
#247=AXIS2_PLACEMENT_3D('',#427,#293,#294);
#248=AXIS2_PLACEMENT_3D('',#428,#295,#296);
#249=AXIS2_PLACEMENT_3D('',#430,#297,#298);
#250=AXIS2_PLACEMENT_3D('',#431,#299,#300);
#251=AXIS2_PLACEMENT_3D('',#500,#302,#303);
#252=AXIS2_PLACEMENT_3D('',#501,#304,#305);
#253=AXIS2_PLACEMENT_3D('',#503,#306,#307);
#254=AXIS2_PLACEMENT_3D('',#504,#308,#309);
#255=AXIS2_PLACEMENT_3D('',#506,#310,#311);
#256=AXIS2_PLACEMENT_3D('',#507,#312,#313);
#257=AXIS2_PLACEMENT_3D('',#509,#314,#315);
#258=AXIS2_PLACEMENT_3D('',#510,#316,#317);
#259=AXIS2_PLACEMENT_3D('',#512,#318,#319);
#260=AXIS2_PLACEMENT_3D('',#513,#320,#321);
#261=AXIS2_PLACEMENT_3D('',#515,#322,#323);
#262=AXIS2_PLACEMENT_3D('',#516,#324,#325);
#263=DIRECTION('',(0.,0.,1.));
#264=DIRECTION('',(1.,0.,0.));
#265=DIRECTION('',(0.,0.988542407353188,0.150943396226415));
#266=DIRECTION('',(1.,0.,0.));
#267=DIRECTION('',(0.,0.,-1.));
#268=DIRECTION('',(1.,0.,0.));
#269=DIRECTION('',(-1.,0.,0.));
#270=DIRECTION('',(0.,0.,1.));
#271=DIRECTION('',(-1.,0.,0.));
#272=DIRECTION('',(0.,0.,1.));
#273=DIRECTION('',(-1.,0.,0.));
#274=DIRECTION('',(0.,0.,1.));
#275=DIRECTION('',(-1.,0.,0.));
#276=DIRECTION('',(0.,0.,1.));
#277=DIRECTION('',(1.,0.,0.));
#278=DIRECTION('',(-1.66930253628556E-17,0.,-1.));
#279=DIRECTION('',(-1.,0.,0.));
#280=DIRECTION('',(0.,0.,1.));
#281=DIRECTION('',(-1.,0.,0.));
#282=DIRECTION('',(0.,0.,1.));
#283=DIRECTION('',(-1.,0.,0.));
#284=DIRECTION('',(0.,0.,1.));
#285=DIRECTION('',(-1.,0.,0.));
#286=DIRECTION('',(4.10585438101021E-17,0.,1.));
#287=DIRECTION('',(-1.,0.,0.));
#288=DIRECTION('',(0.,0.,1.));
#289=DIRECTION('',(-1.,0.,0.));
#290=DIRECTION('',(0.,0.,1.));
#291=DIRECTION('',(-1.,0.,0.));
#292=DIRECTION('',(0.,0.,1.));
#293=DIRECTION('',(1.,0.,0.));
#294=DIRECTION('',(3.41985899650434E-17,0.,-1.));
#295=DIRECTION('',(-1.,0.,0.));
#296=DIRECTION('',(0.,0.,1.));
#297=DIRECTION('',(-1.,0.,0.));
#298=DIRECTION('',(0.,0.,1.));
#299=DIRECTION('',(-1.,0.,0.));
#300=DIRECTION('',(0.,0.,1.));
#301=DIRECTION('',(-1.,0.,0.));
#302=DIRECTION('',(1.,0.,0.));
#303=DIRECTION('',(0.,0.,-1.));
#304=DIRECTION('',(-1.,0.,0.));
#305=DIRECTION('',(0.,0.,1.));
#306=DIRECTION('',(-1.,0.,0.));
#307=DIRECTION('',(0.,0.,1.));
#308=DIRECTION('',(-1.,0.,0.));
#309=DIRECTION('',(0.,0.,1.));
#310=DIRECTION('',(-1.,0.,0.));
#311=DIRECTION('',(5.51869280290865E-17,0.,1.));
#312=DIRECTION('',(-1.,0.,0.));
#313=DIRECTION('',(0.,0.,1.));
#314=DIRECTION('',(-1.,0.,0.));
#315=DIRECTION('',(0.,0.,1.));
#316=DIRECTION('',(-1.,0.,0.));
#317=DIRECTION('',(0.,0.,1.));
#318=DIRECTION('',(-1.,0.,0.));
#319=DIRECTION('',(7.11407480423621E-17,0.,1.));
#320=DIRECTION('',(-1.,0.,0.));
#321=DIRECTION('',(0.,0.,1.));
#322=DIRECTION('',(-1.,0.,0.));
#323=DIRECTION('',(0.,0.,1.));
#324=DIRECTION('',(1.,0.,0.));
#325=DIRECTION('',(-2.00800554861772E-16,0.,-1.));
#326=CARTESIAN_POINT('',(0.,0.,0.));
#327=CARTESIAN_POINT('',(5.,0.487900944517697,10.0546911206374));
#328=CARTESIAN_POINT('',(10.,0.487900944517697,10.0546911206374));
#329=CARTESIAN_POINT('',(5.,-9.86584314,2.));
#330=CARTESIAN_POINT('',(10.,-9.86584314,2.));
#331=CARTESIAN_POINT('',(10.,-9.86584314,2.));
#332=CARTESIAN_POINT('',(10.,-12.0789356732426,-8.91701189363834));
#333=CARTESIAN_POINT('',(10.,-2.61082193772819,-14.7850396319759));
#334=CARTESIAN_POINT('',(10.,6.18109716940856,-7.94536963554337));
#335=CARTESIAN_POINT('',(10.,14.9730162765453,-1.10569963911086));
#336=CARTESIAN_POINT('',(10.,11.6138818660893,9.5148061520003));
#337=CARTESIAN_POINT('',(10.,0.487900944517698,10.0546911206374));
#338=CARTESIAN_POINT('',(10.,0.134156860000002,2.));
#339=CARTESIAN_POINT('',(10.,-2.07893567324259,2.14845077257464));
#340=CARTESIAN_POINT('',(10.,-2.9870122761158,0.124787491322939));
#341=CARTESIAN_POINT('',(10.,-1.40488792227998,-1.42978599409733));
#342=CARTESIAN_POINT('',(10.,0.177236431555838,-2.9843594795176));
#343=CARTESIAN_POINT('',(10.,2.18463672581843,-2.04087643718637));
#344=CARTESIAN_POINT('',(10.,1.99733490678185,0.169267047105484));
#345=CARTESIAN_POINT('',(-5.10076676829453E-16,0.134156860000002,2.));
#346=CARTESIAN_POINT('',(-5.10076676829453E-16,-2.07893567324259,2.14845077257464));
#347=CARTESIAN_POINT('',(-5.10076676829453E-16,-2.9870122761158,0.124787491322939));
#348=CARTESIAN_POINT('',(-5.10076676829453E-16,-1.40488792227998,-1.42978599409733));
#349=CARTESIAN_POINT('',(-5.10076676829453E-16,0.177236431555838,-2.9843594795176));
#350=CARTESIAN_POINT('',(-5.10076676829453E-16,2.18463672581843,-2.04087643718637));
#351=CARTESIAN_POINT('',(-5.10076676829453E-16,1.99733490678185,0.169267047105484));
#352=CARTESIAN_POINT('',(-1.7347234759768E-15,-9.86584314,2.));
#353=CARTESIAN_POINT('',(-1.73472347597681E-15,-12.0789356732426,-8.91701189363834));
#354=CARTESIAN_POINT('',(-1.73472347597681E-15,-2.61082193772819,-14.7850396319759));
#355=CARTESIAN_POINT('',(-1.7347234759768E-15,6.18109716940856,-7.94536963554337));
#356=CARTESIAN_POINT('',(-1.73472347597681E-15,14.9730162765453,-1.10569963911086));
#357=CARTESIAN_POINT('',(-1.73472347597681E-15,11.6138818660893,9.5148061520003));
#358=CARTESIAN_POINT('',(-1.7347234759768E-15,0.487900944517698,10.0546911206374));
#359=CARTESIAN_POINT('',(-2.95937027512416E-15,-19.86584314,2.));
#360=CARTESIAN_POINT('',(-2.95937027512416E-15,-22.0789356732426,-19.9824745598513));
#361=CARTESIAN_POINT('',(-2.95937027512416E-15,-2.23463159934057,-29.6948667552747));
#362=CARTESIAN_POINT('',(-2.95937027512416E-15,13.7670822610971,-14.4609532769894));
#363=CARTESIAN_POINT('',(-2.95937027512416E-15,29.7687961215348,0.772960201295882));
#364=CARTESIAN_POINT('',(-2.95937027512416E-15,21.0431270063602,21.070488741187));
#365=CARTESIAN_POINT('',(-2.95937027512416E-15,-1.02153301774645,19.9401151941692));
#366=CARTESIAN_POINT('',(10.,-19.86584314,2.));
#367=CARTESIAN_POINT('',(10.,-22.0789356732426,-19.9824745598513));
#368=CARTESIAN_POINT('',(10.,-2.23463159934057,-29.6948667552747));
#369=CARTESIAN_POINT('',(10.,13.7670822610971,-14.4609532769894));
#370=CARTESIAN_POINT('',(10.,29.7687961215348,0.772960201295882));
#371=CARTESIAN_POINT('',(10.,21.0431270063602,21.070488741187));
#372=CARTESIAN_POINT('',(10.,-1.02153301774645,19.9401151941692));
#373=CARTESIAN_POINT('',(10.,-9.86584314,2.));
#374=CARTESIAN_POINT('',(10.,-12.0789356732426,-8.91701189363834));
#375=CARTESIAN_POINT('',(10.,-2.61082193772819,-14.7850396319759));
#376=CARTESIAN_POINT('',(10.,6.18109716940856,-7.94536963554337));
#377=CARTESIAN_POINT('',(10.,14.9730162765453,-1.10569963911086));
#378=CARTESIAN_POINT('',(10.,11.6138818660893,9.5148061520003));
#379=CARTESIAN_POINT('',(10.,0.487900944517698,10.0546911206374));
#380=CARTESIAN_POINT('',(10.,0.487900944517697,10.0546911206374));
#381=CARTESIAN_POINT('',(10.,-4.71726817877009,10.3072704292562));
#382=CARTESIAN_POINT('',(10.,-8.83047187680841,7.10740523715595));
#383=CARTESIAN_POINT('',(10.,-9.86584314,2.));
#384=CARTESIAN_POINT('',(10.,1.99733490678185,0.169267047105484));
#385=CARTESIAN_POINT('',(10.,1.90970778859269,1.20325862983117));
#386=CARTESIAN_POINT('',(10.,1.16952812319159,1.93054892119799));
#387=CARTESIAN_POINT('',(10.,0.134156860000002,2.));
#388=CARTESIAN_POINT('',(-5.10076676829453E-16,1.99733490678185,0.169267047105484));
#389=CARTESIAN_POINT('',(-5.10076676829455E-16,1.90970778859269,1.20325862983117));
#390=CARTESIAN_POINT('',(-5.10076676829455E-16,1.16952812319159,1.93054892119799));
#391=CARTESIAN_POINT('',(-5.10076676829453E-16,0.134156860000002,2.));
#392=CARTESIAN_POINT('',(-1.7347234759768E-15,0.487900944517697,10.0546911206374));
#393=CARTESIAN_POINT('',(-1.73472347597681E-15,-4.71726817877009,10.3072704292562));
#394=CARTESIAN_POINT('',(-1.73472347597681E-15,-8.83047187680841,7.10740523715595));
#395=CARTESIAN_POINT('',(-1.7347234759768E-15,-9.86584314,2.));
#396=CARTESIAN_POINT('',(-2.95937027512416E-15,-1.02153301774645,19.9401151941692));
#397=CARTESIAN_POINT('',(-2.95937027512416E-15,-11.3442441461329,19.4112822286812));
#398=CARTESIAN_POINT('',(-2.95937027512416E-15,-18.8304718768084,12.2842615531139));
#399=CARTESIAN_POINT('',(-2.95937027512416E-15,-19.86584314,2.));
#400=CARTESIAN_POINT('',(10.,-1.02153301774645,19.9401151941692));
#401=CARTESIAN_POINT('',(10.,-11.3442441461329,19.4112822286812));
#402=CARTESIAN_POINT('',(10.,-18.8304718768084,12.2842615531139));
#403=CARTESIAN_POINT('',(10.,-19.86584314,2.));
#404=CARTESIAN_POINT('',(10.,0.487900944517697,10.0546911206374));
#405=CARTESIAN_POINT('',(10.,-4.71726817877009,10.3072704292562));
#406=CARTESIAN_POINT('',(10.,-8.83047187680841,7.10740523715595));
#407=CARTESIAN_POINT('',(10.,-9.86584314,2.));
#408=CARTESIAN_POINT('',(42.8004445042265,0.,0.));
#409=CARTESIAN_POINT('',(42.8004445042265,0.,9.03529142706151));
#410=CARTESIAN_POINT('',(43.5352914270615,0.,0.));
#411=CARTESIAN_POINT('',(43.5352914270615,0.,8.30044450422656));
#412=CARTESIAN_POINT('',(43.38,0.,0.));
#413=CARTESIAN_POINT('',(43.,0.,0.));
#414=CARTESIAN_POINT('',(43.,0.,9.78004267621761));
#415=CARTESIAN_POINT('',(42.8004445042265,0.,0.));
#416=CARTESIAN_POINT('',(43.,0.,0.));
#417=CARTESIAN_POINT('',(43.,0.,14.));
#418=CARTESIAN_POINT('',(43.,14.,0.));
#419=CARTESIAN_POINT('',(42.5,0.,0.));
#420=CARTESIAN_POINT('',(42.5,0.,14.5));
#421=CARTESIAN_POINT('',(43.,0.,0.));
#422=CARTESIAN_POINT('',(38.,0.,0.));
#423=CARTESIAN_POINT('',(38.,0.,14.5));
#424=CARTESIAN_POINT('',(0.,0.,0.));
#425=CARTESIAN_POINT('',(36.75,0.,0.));
#426=CARTESIAN_POINT('',(36.75,0.,13.25));
#427=CARTESIAN_POINT('',(38.,0.,0.));
#428=CARTESIAN_POINT('',(7.29929549955534,0.,0.));
#429=CARTESIAN_POINT('',(7.29929549955534,0.,13.25));
#430=CARTESIAN_POINT('',(0.,0.,0.));
#431=CARTESIAN_POINT('',(3.00000000000811,0.,0.));
#432=CARTESIAN_POINT('',(3.00000000000811,0.,6.45523712756852));
#433=CARTESIAN_POINT('',(4.73371916043247,5.93638032955603,0.));
#434=CARTESIAN_POINT('',(5.26628083956753,5.93638032955603,0.));
#435=CARTESIAN_POINT('',(5.52990485669021,5.96187879431953,0.));
#436=CARTESIAN_POINT('',(6.05177160708636,6.06381714458964,0.));
#437=CARTESIAN_POINT('',(6.30536083960307,6.13956360693675,0.));
#438=CARTESIAN_POINT('',(6.79203672020146,6.33745647561121,0.));
#439=CARTESIAN_POINT('',(7.02824260874446,6.46123554746142,0.));
#440=CARTESIAN_POINT('',(7.4706462043874,6.75218801800992,0.));
#441=CARTESIAN_POINT('',(7.67491716336557,6.91744077010124,0.));
#442=CARTESIAN_POINT('',(8.04986020371367,7.28719233729383,0.));
#443=CARTESIAN_POINT('',(8.22142874216563,7.49379712796947,0.));
#444=CARTESIAN_POINT('',(8.51570012036456,7.93021298400768,0.));
#445=CARTESIAN_POINT('',(8.64042063026673,8.16144610439044,0.));
#446=CARTESIAN_POINT('',(8.84409831211973,8.65050487313775,0.));
#447=CARTESIAN_POINT('',(8.9213092715746,8.90552381823295,0.));
#448=CARTESIAN_POINT('',(9.02318882335572,9.42067097795518,0.));
#449=CARTESIAN_POINT('',(9.04882781512647,9.6847067782191,0.));
#450=CARTESIAN_POINT('',(9.04696625069995,10.2155999345958,0.));
#451=CARTESIAN_POINT('',(9.01982770495216,10.4770391572423,0.));
#452=CARTESIAN_POINT('',(8.91483724096386,10.9921631631292,0.));
#453=CARTESIAN_POINT('',(8.83559673955569,11.248487783774,0.));
#454=CARTESIAN_POINT('',(8.63083024667032,11.7344074691286,0.));
#455=CARTESIAN_POINT('',(8.50569531497505,11.9652035994874,0.));
#456=CARTESIAN_POINT('',(8.20991082821992,12.4024624194623,0.));
#457=CARTESIAN_POINT('',(8.03863713529435,12.608486616083,0.));
#458=CARTESIAN_POINT('',(7.66493178028633,12.9778764496367,0.));
#459=CARTESIAN_POINT('',(7.46094585324033,13.1438505777521,0.));
#460=CARTESIAN_POINT('',(7.01756689845921,13.4371109687596,0.));
#461=CARTESIAN_POINT('',(6.78368886132145,13.5605100814771,0.));
#462=CARTESIAN_POINT('',(6.29782174373156,13.7597510692554,0.));
#463=CARTESIAN_POINT('',(6.04247794642258,13.836582691665,0.));
#464=CARTESIAN_POINT('',(5.52294942765114,13.9386017681232,0.));
#465=CARTESIAN_POINT('',(5.26148920734362,13.9638174697422,0.));
#466=CARTESIAN_POINT('',(4.73523893660678,13.9636055515464,0.));
#467=CARTESIAN_POINT('',(4.46806966262981,13.9373359952278,0.));
#468=CARTESIAN_POINT('',(3.95150240034842,13.8348881596929,0.));
#469=CARTESIAN_POINT('',(3.70003234819434,13.7591563354599,0.));
#470=CARTESIAN_POINT('',(3.21090644847417,13.5580040821347,0.));
#471=CARTESIAN_POINT('',(2.97497859873858,13.4326075306982,0.));
#472=CARTESIAN_POINT('',(2.53724722189398,13.1422191785098,0.));
#473=CARTESIAN_POINT('',(2.33246313133593,12.9759039783607,0.));
#474=CARTESIAN_POINT('',(1.95459698608773,12.6011812177373,0.));
#475=CARTESIAN_POINT('',(1.78699267938086,12.3983413464205,0.));
#476=CARTESIAN_POINT('',(1.49297246984499,11.9627707820951,0.));
#477=CARTESIAN_POINT('',(1.36554344084715,11.7272084642397,0.));
#478=CARTESIAN_POINT('',(1.16148402826258,11.2401081991439,0.));
#479=CARTESIAN_POINT('',(1.08426377932788,10.9890885538115,0.));
#480=CARTESIAN_POINT('',(0.979444157519508,10.4721096470649,0.));
#481=CARTESIAN_POINT('',(0.952491215723161,10.2052358463644,0.));
#482=CARTESIAN_POINT('',(0.951675260240082,9.67946986250473,0.));
#483=CARTESIAN_POINT('',(0.976986148070198,9.4177013050507,0.));
#484=CARTESIAN_POINT('',(1.08090253907723,8.89647352048817,0.));
#485=CARTESIAN_POINT('',(1.15847506906121,8.64343698729686,0.));
#486=CARTESIAN_POINT('',(1.36102781150197,8.15887488127188,0.));
#487=CARTESIAN_POINT('',(1.48784966257515,7.92394341477543,0.));
#488=CARTESIAN_POINT('',(1.78463920701094,7.48583638947127,0.));
#489=CARTESIAN_POINT('',(1.95281544407258,7.2842002877224,0.));
#490=CARTESIAN_POINT('',(2.32789460110609,6.91502659788353,0.));
#491=CARTESIAN_POINT('',(2.53702350455448,6.74653449938767,0.));
#492=CARTESIAN_POINT('',(2.97733534650384,6.45819519630084,0.));
#493=CARTESIAN_POINT('',(3.20990096717972,6.3363975054611,0.));
#494=CARTESIAN_POINT('',(3.69992998322177,6.13768733860486,0.));
#495=CARTESIAN_POINT('',(3.95614254937376,6.0619570465708,0.));
#496=CARTESIAN_POINT('',(4.47175565904139,5.96187452258648,0.));
#497=CARTESIAN_POINT('',(4.73371916043247,5.93638032955603,0.));
#498=CARTESIAN_POINT('',(5.26628083956753,5.93638032955603,0.));
#499=CARTESIAN_POINT('',(0.,0.,0.));
#500=CARTESIAN_POINT('',(3.00000000000405,6.45523712757305,0.));
#501=CARTESIAN_POINT('',(68.,0.,0.));
#502=CARTESIAN_POINT('',(68.,0.,5.875));
#503=CARTESIAN_POINT('',(68.,0.,0.));
#504=CARTESIAN_POINT('',(66.,0.,0.));
#505=CARTESIAN_POINT('',(66.,0.,7.875));
#506=CARTESIAN_POINT('',(68.,0.,0.));
#507=CARTESIAN_POINT('',(50.0825317547305,0.,0.));
#508=CARTESIAN_POINT('',(50.0825317547305,0.,7.875));
#509=CARTESIAN_POINT('',(0.,0.,0.));
#510=CARTESIAN_POINT('',(49.,0.,0.));
#511=CARTESIAN_POINT('',(49.,0.,8.5));
#512=CARTESIAN_POINT('',(50.0825317547305,0.,0.));
#513=CARTESIAN_POINT('',(44.2800426762176,0.,0.));
#514=CARTESIAN_POINT('',(44.2800426762176,0.,8.5));
#515=CARTESIAN_POINT('',(0.,0.,0.));
#516=CARTESIAN_POINT('',(44.2800426762176,0.,0.));
#517=MECHANICAL_DESIGN_GEOMETRIC_PRESENTATION_REPRESENTATION('',(#52,#53),
#518);
#518=(
GEOMETRIC_REPRESENTATION_CONTEXT(3)
GLOBAL_UNCERTAINTY_ASSIGNED_CONTEXT((#519))
GLOBAL_UNIT_ASSIGNED_CONTEXT((#525,#521,#520))
REPRESENTATION_CONTEXT('AEMR-RD1003-D30-M16-L43-Z04-H',
'TOP_LEVEL_ASSEMBLY_PART')
);
#519=UNCERTAINTY_MEASURE_WITH_UNIT(LENGTH_MEASURE(2.E-5),#525,
'DISTANCE_ACCURACY_VALUE','Maximum Tolerance applied to model');
#520=(
NAMED_UNIT(*)
SI_UNIT($,.STERADIAN.)
SOLID_ANGLE_UNIT()
);
#521=(
CONVERSION_BASED_UNIT('DEGREE',#523)
NAMED_UNIT(#522)
PLANE_ANGLE_UNIT()
);
#522=DIMENSIONAL_EXPONENTS(0.,0.,0.,0.,0.,0.,0.);
#523=PLANE_ANGLE_MEASURE_WITH_UNIT(PLANE_ANGLE_MEASURE(0.0174532925),#524);
#524=(
NAMED_UNIT(*)
PLANE_ANGLE_UNIT()
SI_UNIT($,.RADIAN.)
);
#525=(
LENGTH_UNIT()
NAMED_UNIT(*)
SI_UNIT(.MILLI.,.METRE.)
);
ENDSEC;
END-ISO-10303-21;
