ISO-10303-21;
HEADER;
/* Generated by software containing ST-Developer
 * from STEP Tools, Inc. (www.steptools.com) 
 */
/* OPTION: using custom schema-name function */

FILE_DESCRIPTION(
/* description */ (''),
/* implementation_level */ '2;1');

FILE_NAME(
/* name */ 'AEMR-RD1003-D35-M16-L43-Z04-H.stp',
/* time_stamp */ '2023-10-19T20:56:03+03:00',
/* author */ (''),
/* organization */ (''),
/* preprocessor_version */ 'ST-DEVELOPER v19.4',
/* originating_system */ 'SIEMENS PLM Software NX2306.5001',
/* authorisation */ '');

FILE_SCHEMA (('AUTOMOTIVE_DESIGN { 1 0 10303 214 3 1 1 1 }'));
ENDSEC;

DATA;
#10=PROPERTY_DEFINITION_REPRESENTATION(#14,#12);
#11=PROPERTY_DEFINITION_REPRESENTATION(#15,#13);
#12=REPRESENTATION('',(#16),#558);
#13=REPRESENTATION('',(#17),#558);
#14=PROPERTY_DEFINITION('pmi validation property','',#21);
#15=PROPERTY_DEFINITION('pmi validation property','',#21);
#16=VALUE_REPRESENTATION_ITEM('number of annotations',COUNT_MEASURE(0.));
#17=VALUE_REPRESENTATION_ITEM('number of views',COUNT_MEASURE(0.));
#18=SHAPE_REPRESENTATION_RELATIONSHIP('None',
'relationship between AEMR-RD1003-D35-M16-L43-Z04-H-LIGHT_x_t_objects-
None and AEMR-RD1003-D35-M16-L43-Z04-H-LIGHT_x_t_objects-None',#30,#19);
#19=ADVANCED_BREP_SHAPE_REPRESENTATION(
'AEMR-RD1003-D35-M16-L43-Z04-H-LIGHT_x_t_objects-None',(#50,#51),#558);
#20=SHAPE_DEFINITION_REPRESENTATION(#21,#30);
#21=PRODUCT_DEFINITION_SHAPE('','',#22);
#22=PRODUCT_DEFINITION(' ','',#24,#23);
#23=PRODUCT_DEFINITION_CONTEXT('part definition',#29,'design');
#24=PRODUCT_DEFINITION_FORMATION_WITH_SPECIFIED_SOURCE(' ',' ',#26,
 .NOT_KNOWN.);
#25=PRODUCT_RELATED_PRODUCT_CATEGORY('part','',(#26));
#26=PRODUCT('AEMR-RD1003-D35-M16-L43-Z04-H-LIGHT_x_t_objects',
'AEMR-RD1003-D35-M16-L43-Z04-H-LIGHT_x_t_objects',' ',(#27));
#27=PRODUCT_CONTEXT(' ',#29,'mechanical');
#28=APPLICATION_PROTOCOL_DEFINITION('international standard',
'automotive_design',2010,#29);
#29=APPLICATION_CONTEXT(
'core data for automotive mechanical design processes');
#30=SHAPE_REPRESENTATION(
'AEMR-RD1003-D35-M16-L43-Z04-H-LIGHT_x_t_objects-None',(#254),#558);
#31=DRAUGHTING_PRE_DEFINED_COLOUR('yellow');
#32=(
BOUNDED_SURFACE()
B_SPLINE_SURFACE(3,3,((#480,#481,#482,#483,#484,#485,#486),(#487,#488,#489,
#490,#491,#492,#493),(#494,#495,#496,#497,#498,#499,#500),(#501,#502,#503,
#504,#505,#506,#507),(#508,#509,#510,#511,#512,#513,#514),(#515,#516,#517,
#518,#519,#520,#521),(#522,#523,#524,#525,#526,#527,#528)),
 .UNSPECIFIED.,.T.,.F.,.F.)
B_SPLINE_SURFACE_WITH_KNOTS((1,3,3,3,1),(4,3,4),(-0.5,0.,0.5,1.,1.5),(0.,
0.5,1.),.UNSPECIFIED.)
GEOMETRIC_REPRESENTATION_ITEM()
RATIONAL_B_SPLINE_SURFACE(((1.,0.572187935090702,0.572187935090702,1.,0.572187935090702,
0.572187935090702,1.),(0.333333333333334,0.190729311696901,0.190729311696901,
0.333333333333334,0.190729311696901,0.190729311696901,0.333333333333334),
(0.333333333333334,0.190729311696901,0.190729311696901,0.333333333333334,
0.190729311696901,0.190729311696901,0.333333333333334),(1.,0.572187935090702,
0.572187935090702,1.,0.572187935090702,0.572187935090702,1.),(0.333333333333334,
0.190729311696901,0.190729311696901,0.333333333333334,0.190729311696901,
0.190729311696901,0.333333333333334),(0.333333333333334,0.190729311696901,
0.190729311696901,0.333333333333334,0.190729311696901,0.190729311696901,
0.333333333333334),(1.,0.572187935090702,0.572187935090702,1.,0.572187935090702,
0.572187935090702,1.)))
REPRESENTATION_ITEM('')
SURFACE()
);
#33=(
BOUNDED_SURFACE()
B_SPLINE_SURFACE(3,3,((#529,#530,#531,#532),(#533,#534,#535,#536),(#537,
#538,#539,#540),(#541,#542,#543,#544),(#545,#546,#547,#548),(#549,#550,
#551,#552),(#553,#554,#555,#556)),.UNSPECIFIED.,.T.,.F.,.F.)
B_SPLINE_SURFACE_WITH_KNOTS((1,3,3,3,1),(4,4),(-0.5,0.,0.5,1.,1.5),(0.,
1.),.UNSPECIFIED.)
GEOMETRIC_REPRESENTATION_ITEM()
RATIONAL_B_SPLINE_SURFACE(((1.,0.828845437657986,0.828845437657986,1.),
(0.333333333333334,0.276281812552662,0.276281812552662,0.333333333333334),
(0.333333333333334,0.276281812552662,0.276281812552662,0.333333333333334),
(1.,0.828845437657986,0.828845437657986,1.),(0.333333333333334,0.276281812552662,
0.276281812552662,0.333333333333334),(0.333333333333334,0.276281812552662,
0.276281812552662,0.333333333333334),(1.,0.828845437657986,0.828845437657986,
1.)))
REPRESENTATION_ITEM('')
SURFACE()
);
#34=PRESENTATION_LAYER_ASSIGNMENT('1','Layer 1',(#50,#51));
#35=STYLED_ITEM('',(#37),#50);
#36=STYLED_ITEM('',(#38),#51);
#37=PRESENTATION_STYLE_ASSIGNMENT((#39));
#38=PRESENTATION_STYLE_ASSIGNMENT((#40));
#39=SURFACE_STYLE_USAGE(.BOTH.,#41);
#40=SURFACE_STYLE_USAGE(.BOTH.,#42);
#41=SURFACE_SIDE_STYLE('',(#43));
#42=SURFACE_SIDE_STYLE('',(#44));
#43=SURFACE_STYLE_FILL_AREA(#45);
#44=SURFACE_STYLE_FILL_AREA(#46);
#45=FILL_AREA_STYLE('',(#47));
#46=FILL_AREA_STYLE('',(#48));
#47=FILL_AREA_STYLE_COLOUR('',#49);
#48=FILL_AREA_STYLE_COLOUR('',#31);
#49=COLOUR_RGB('silver gray',0.6,0.6,0.6);
#50=MANIFOLD_SOLID_BREP('',#52);
#51=MANIFOLD_SOLID_BREP('',#53);
#52=CLOSED_SHELL('',(#72,#73,#74,#75,#76,#77,#78,#79,#80,#81,#82,#83,#84,
#85,#86,#87,#88));
#53=CLOSED_SHELL('',(#89,#90));
#54=TOROIDAL_SURFACE('',#271,8.88,0.6);
#55=TOROIDAL_SURFACE('',#285,29.3,15.);
#56=CYLINDRICAL_SURFACE('',#263,7.875);
#57=CYLINDRICAL_SURFACE('',#267,8.5);
#58=CYLINDRICAL_SURFACE('',#279,14.5);
#59=CYLINDRICAL_SURFACE('',#283,14.3);
#60=CONICAL_SURFACE('',#261,5.875,45.0000000000002);
#61=CONICAL_SURFACE('',#265,7.875,30.);
#62=CONICAL_SURFACE('',#269,8.5,15.);
#63=CONICAL_SURFACE('',#273,9.03529142706152,75.);
#64=CONICAL_SURFACE('',#277,14.,44.9999999999999);
#65=CONICAL_SURFACE('',#281,14.5,44.9999999999992);
#66=CONICAL_SURFACE('',#286,15.2046106882114,20.);
#67=PLANE('',#257);
#68=PLANE('',#259);
#69=PLANE('',#275);
#70=FACE_OUTER_BOUND('',#130,.T.);
#71=FACE_OUTER_BOUND('',#131,.T.);
#72=ADVANCED_FACE('',(#94,#95),#91,.T.);
#73=ADVANCED_FACE('',(#70),#67,.F.);
#74=ADVANCED_FACE('',(#71),#68,.F.);
#75=ADVANCED_FACE('',(#96,#97),#60,.T.);
#76=ADVANCED_FACE('',(#98,#99),#56,.T.);
#77=ADVANCED_FACE('',(#100,#101),#61,.T.);
#78=ADVANCED_FACE('',(#102,#103),#57,.T.);
#79=ADVANCED_FACE('',(#104,#105),#62,.T.);
#80=ADVANCED_FACE('',(#106,#107),#54,.F.);
#81=ADVANCED_FACE('',(#108,#109),#63,.F.);
#82=ADVANCED_FACE('',(#110,#111),#69,.F.);
#83=ADVANCED_FACE('',(#112,#113),#64,.T.);
#84=ADVANCED_FACE('',(#114,#115),#58,.T.);
#85=ADVANCED_FACE('',(#116,#117),#65,.T.);
#86=ADVANCED_FACE('',(#118,#119),#59,.T.);
#87=ADVANCED_FACE('',(#120,#121),#55,.F.);
#88=ADVANCED_FACE('',(#122,#123),#66,.T.);
#89=ADVANCED_FACE('',(#124,#125),#32,.F.);
#90=ADVANCED_FACE('',(#126,#127),#33,.F.);
#91=SURFACE_OF_REVOLUTION('',#93,#92);
#92=AXIS1_PLACEMENT('',#431,#295);
#93=B_SPLINE_CURVE_WITH_KNOTS('',3,(#365,#366,#367,#368,#369,#370,#371,
#372,#373,#374,#375,#376,#377,#378,#379,#380,#381,#382,#383,#384,#385,#386,
#387,#388,#389,#390,#391,#392,#393,#394,#395,#396,#397,#398,#399,#400,#401,
#402,#403,#404,#405,#406,#407,#408,#409,#410,#411,#412,#413,#414,#415,#416,
#417,#418,#419,#420,#421,#422,#423,#424,#425,#426,#427,#428,#429,#430),
 .UNSPECIFIED.,.T.,.F.,(2,2,2,2,2,2,2,2,2,2,2,2,2,2,2,2,2,2,2,2,2,2,2,2,
2,2,2,2,2,2,2,2,2,2,2),(-0.03125,0.,0.03125,0.0625,0.09375,0.125,0.15625,
0.1875,0.21875,0.25,0.28125,0.3125,0.34375,0.375,0.40625,0.4375,0.46875,
0.5,0.53125,0.5625,0.59375,0.625,0.65625,0.6875,0.71875,0.75,0.78125,0.8125,
0.84375,0.875,0.90625,0.9375,0.96875,1.,1.03125),.UNSPECIFIED.);
#94=FACE_BOUND('',#128,.T.);
#95=FACE_BOUND('',#129,.T.);
#96=FACE_BOUND('',#132,.T.);
#97=FACE_BOUND('',#133,.T.);
#98=FACE_BOUND('',#134,.T.);
#99=FACE_BOUND('',#135,.T.);
#100=FACE_BOUND('',#136,.T.);
#101=FACE_BOUND('',#137,.T.);
#102=FACE_BOUND('',#138,.T.);
#103=FACE_BOUND('',#139,.T.);
#104=FACE_BOUND('',#140,.T.);
#105=FACE_BOUND('',#141,.T.);
#106=FACE_BOUND('',#142,.T.);
#107=FACE_BOUND('',#143,.T.);
#108=FACE_BOUND('',#144,.T.);
#109=FACE_BOUND('',#145,.T.);
#110=FACE_BOUND('',#146,.T.);
#111=FACE_BOUND('',#147,.T.);
#112=FACE_BOUND('',#148,.T.);
#113=FACE_BOUND('',#149,.T.);
#114=FACE_BOUND('',#150,.T.);
#115=FACE_BOUND('',#151,.T.);
#116=FACE_BOUND('',#152,.T.);
#117=FACE_BOUND('',#153,.T.);
#118=FACE_BOUND('',#154,.T.);
#119=FACE_BOUND('',#155,.T.);
#120=FACE_BOUND('',#156,.T.);
#121=FACE_BOUND('',#157,.T.);
#122=FACE_BOUND('',#158,.T.);
#123=FACE_BOUND('',#159,.T.);
#124=FACE_BOUND('',#160,.T.);
#125=FACE_BOUND('',#161,.T.);
#126=FACE_BOUND('',#162,.T.);
#127=FACE_BOUND('',#163,.T.);
#128=EDGE_LOOP('',(#164));
#129=EDGE_LOOP('',(#165));
#130=EDGE_LOOP('',(#166));
#131=EDGE_LOOP('',(#167));
#132=EDGE_LOOP('',(#168));
#133=EDGE_LOOP('',(#169));
#134=EDGE_LOOP('',(#170));
#135=EDGE_LOOP('',(#171));
#136=EDGE_LOOP('',(#172));
#137=EDGE_LOOP('',(#173));
#138=EDGE_LOOP('',(#174));
#139=EDGE_LOOP('',(#175));
#140=EDGE_LOOP('',(#176));
#141=EDGE_LOOP('',(#177));
#142=EDGE_LOOP('',(#178));
#143=EDGE_LOOP('',(#179));
#144=EDGE_LOOP('',(#180));
#145=EDGE_LOOP('',(#181));
#146=EDGE_LOOP('',(#182));
#147=EDGE_LOOP('',(#183));
#148=EDGE_LOOP('',(#184));
#149=EDGE_LOOP('',(#185));
#150=EDGE_LOOP('',(#186));
#151=EDGE_LOOP('',(#187));
#152=EDGE_LOOP('',(#188));
#153=EDGE_LOOP('',(#189));
#154=EDGE_LOOP('',(#190));
#155=EDGE_LOOP('',(#191));
#156=EDGE_LOOP('',(#192));
#157=EDGE_LOOP('',(#193));
#158=EDGE_LOOP('',(#194));
#159=EDGE_LOOP('',(#195));
#160=EDGE_LOOP('',(#196));
#161=EDGE_LOOP('',(#197));
#162=EDGE_LOOP('',(#198));
#163=EDGE_LOOP('',(#199));
#164=ORIENTED_EDGE('',*,*,#218,.F.);
#165=ORIENTED_EDGE('',*,*,#219,.T.);
#166=ORIENTED_EDGE('',*,*,#218,.T.);
#167=ORIENTED_EDGE('',*,*,#220,.F.);
#168=ORIENTED_EDGE('',*,*,#221,.F.);
#169=ORIENTED_EDGE('',*,*,#220,.T.);
#170=ORIENTED_EDGE('',*,*,#222,.F.);
#171=ORIENTED_EDGE('',*,*,#221,.T.);
#172=ORIENTED_EDGE('',*,*,#223,.F.);
#173=ORIENTED_EDGE('',*,*,#222,.T.);
#174=ORIENTED_EDGE('',*,*,#224,.F.);
#175=ORIENTED_EDGE('',*,*,#223,.T.);
#176=ORIENTED_EDGE('',*,*,#225,.F.);
#177=ORIENTED_EDGE('',*,*,#224,.T.);
#178=ORIENTED_EDGE('',*,*,#226,.F.);
#179=ORIENTED_EDGE('',*,*,#225,.T.);
#180=ORIENTED_EDGE('',*,*,#227,.F.);
#181=ORIENTED_EDGE('',*,*,#226,.T.);
#182=ORIENTED_EDGE('',*,*,#228,.F.);
#183=ORIENTED_EDGE('',*,*,#227,.T.);
#184=ORIENTED_EDGE('',*,*,#229,.F.);
#185=ORIENTED_EDGE('',*,*,#228,.T.);
#186=ORIENTED_EDGE('',*,*,#230,.F.);
#187=ORIENTED_EDGE('',*,*,#229,.T.);
#188=ORIENTED_EDGE('',*,*,#231,.F.);
#189=ORIENTED_EDGE('',*,*,#230,.T.);
#190=ORIENTED_EDGE('',*,*,#232,.F.);
#191=ORIENTED_EDGE('',*,*,#231,.T.);
#192=ORIENTED_EDGE('',*,*,#233,.F.);
#193=ORIENTED_EDGE('',*,*,#232,.T.);
#194=ORIENTED_EDGE('',*,*,#219,.F.);
#195=ORIENTED_EDGE('',*,*,#233,.T.);
#196=ORIENTED_EDGE('',*,*,#234,.F.);
#197=ORIENTED_EDGE('',*,*,#235,.F.);
#198=ORIENTED_EDGE('',*,*,#235,.T.);
#199=ORIENTED_EDGE('',*,*,#234,.T.);
#200=VERTEX_POINT('',#362);
#201=VERTEX_POINT('',#364);
#202=VERTEX_POINT('',#434);
#203=VERTEX_POINT('',#437);
#204=VERTEX_POINT('',#440);
#205=VERTEX_POINT('',#443);
#206=VERTEX_POINT('',#446);
#207=VERTEX_POINT('',#449);
#208=VERTEX_POINT('',#452);
#209=VERTEX_POINT('',#455);
#210=VERTEX_POINT('',#458);
#211=VERTEX_POINT('',#461);
#212=VERTEX_POINT('',#464);
#213=VERTEX_POINT('',#467);
#214=VERTEX_POINT('',#470);
#215=VERTEX_POINT('',#473);
#216=VERTEX_POINT('',#477);
#217=VERTEX_POINT('',#479);
#218=EDGE_CURVE('',#200,#200,#236,.T.);
#219=EDGE_CURVE('',#201,#201,#237,.T.);
#220=EDGE_CURVE('',#202,#202,#238,.T.);
#221=EDGE_CURVE('',#203,#203,#239,.T.);
#222=EDGE_CURVE('',#204,#204,#240,.T.);
#223=EDGE_CURVE('',#205,#205,#241,.T.);
#224=EDGE_CURVE('',#206,#206,#242,.T.);
#225=EDGE_CURVE('',#207,#207,#243,.T.);
#226=EDGE_CURVE('',#208,#208,#244,.T.);
#227=EDGE_CURVE('',#209,#209,#245,.T.);
#228=EDGE_CURVE('',#210,#210,#246,.T.);
#229=EDGE_CURVE('',#211,#211,#247,.T.);
#230=EDGE_CURVE('',#212,#212,#248,.T.);
#231=EDGE_CURVE('',#213,#213,#249,.T.);
#232=EDGE_CURVE('',#214,#214,#250,.T.);
#233=EDGE_CURVE('',#215,#215,#251,.T.);
#234=EDGE_CURVE('',#216,#216,#252,.T.);
#235=EDGE_CURVE('',#217,#217,#253,.T.);
#236=CIRCLE('',#255,9.07302521330513);
#237=CIRCLE('',#256,16.1527156113929);
#238=CIRCLE('',#258,5.875);
#239=CIRCLE('',#260,7.875);
#240=CIRCLE('',#262,7.875);
#241=CIRCLE('',#264,8.5);
#242=CIRCLE('',#266,8.5);
#243=CIRCLE('',#268,8.30044450422656);
#244=CIRCLE('',#270,9.03529142706152);
#245=CIRCLE('',#272,9.78004267621759);
#246=CIRCLE('',#274,14.);
#247=CIRCLE('',#276,14.5);
#248=CIRCLE('',#278,14.5);
#249=CIRCLE('',#280,14.3);
#250=CIRCLE('',#282,14.3);
#251=CIRCLE('',#284,15.2046106882114);
#252=CIRCLE('',#287,5.);
#253=CIRCLE('',#288,5.);
#254=AXIS2_PLACEMENT_3D('',#360,#289,#290);
#255=AXIS2_PLACEMENT_3D('',#361,#291,#292);
#256=AXIS2_PLACEMENT_3D('',#363,#293,#294);
#257=AXIS2_PLACEMENT_3D('',#432,#296,#297);
#258=AXIS2_PLACEMENT_3D('',#433,#298,#299);
#259=AXIS2_PLACEMENT_3D('',#435,#300,#301);
#260=AXIS2_PLACEMENT_3D('',#436,#302,#303);
#261=AXIS2_PLACEMENT_3D('',#438,#304,#305);
#262=AXIS2_PLACEMENT_3D('',#439,#306,#307);
#263=AXIS2_PLACEMENT_3D('',#441,#308,#309);
#264=AXIS2_PLACEMENT_3D('',#442,#310,#311);
#265=AXIS2_PLACEMENT_3D('',#444,#312,#313);
#266=AXIS2_PLACEMENT_3D('',#445,#314,#315);
#267=AXIS2_PLACEMENT_3D('',#447,#316,#317);
#268=AXIS2_PLACEMENT_3D('',#448,#318,#319);
#269=AXIS2_PLACEMENT_3D('',#450,#320,#321);
#270=AXIS2_PLACEMENT_3D('',#451,#322,#323);
#271=AXIS2_PLACEMENT_3D('',#453,#324,#325);
#272=AXIS2_PLACEMENT_3D('',#454,#326,#327);
#273=AXIS2_PLACEMENT_3D('',#456,#328,#329);
#274=AXIS2_PLACEMENT_3D('',#457,#330,#331);
#275=AXIS2_PLACEMENT_3D('',#459,#332,#333);
#276=AXIS2_PLACEMENT_3D('',#460,#334,#335);
#277=AXIS2_PLACEMENT_3D('',#462,#336,#337);
#278=AXIS2_PLACEMENT_3D('',#463,#338,#339);
#279=AXIS2_PLACEMENT_3D('',#465,#340,#341);
#280=AXIS2_PLACEMENT_3D('',#466,#342,#343);
#281=AXIS2_PLACEMENT_3D('',#468,#344,#345);
#282=AXIS2_PLACEMENT_3D('',#469,#346,#347);
#283=AXIS2_PLACEMENT_3D('',#471,#348,#349);
#284=AXIS2_PLACEMENT_3D('',#472,#350,#351);
#285=AXIS2_PLACEMENT_3D('',#474,#352,#353);
#286=AXIS2_PLACEMENT_3D('',#475,#354,#355);
#287=AXIS2_PLACEMENT_3D('',#476,#356,#357);
#288=AXIS2_PLACEMENT_3D('',#478,#358,#359);
#289=DIRECTION('',(0.,0.,1.));
#290=DIRECTION('',(1.,0.,0.));
#291=DIRECTION('',(-1.,0.,0.));
#292=DIRECTION('',(0.,0.,1.));
#293=DIRECTION('',(-1.,0.,0.));
#294=DIRECTION('',(0.,0.,1.));
#295=DIRECTION('',(-1.,0.,0.));
#296=DIRECTION('',(1.,0.,0.));
#297=DIRECTION('',(0.,0.,-1.));
#298=DIRECTION('',(-1.,0.,0.));
#299=DIRECTION('',(0.,0.,1.));
#300=DIRECTION('',(-1.,0.,0.));
#301=DIRECTION('',(0.,0.,1.));
#302=DIRECTION('',(-1.,0.,0.));
#303=DIRECTION('',(0.,0.,1.));
#304=DIRECTION('',(-1.,0.,0.));
#305=DIRECTION('',(5.51869280290865E-17,0.,1.));
#306=DIRECTION('',(-1.,0.,0.));
#307=DIRECTION('',(0.,0.,1.));
#308=DIRECTION('',(-1.,0.,0.));
#309=DIRECTION('',(0.,0.,1.));
#310=DIRECTION('',(-1.,0.,0.));
#311=DIRECTION('',(0.,0.,1.));
#312=DIRECTION('',(-1.,0.,0.));
#313=DIRECTION('',(7.11407480423632E-17,0.,1.));
#314=DIRECTION('',(-1.,0.,0.));
#315=DIRECTION('',(0.,0.,1.));
#316=DIRECTION('',(-1.,0.,0.));
#317=DIRECTION('',(0.,0.,1.));
#318=DIRECTION('',(-1.,0.,0.));
#319=DIRECTION('',(0.,0.,1.));
#320=DIRECTION('',(1.,0.,0.));
#321=DIRECTION('',(-2.0080055486177E-16,0.,-1.));
#322=DIRECTION('',(-1.,0.,0.));
#323=DIRECTION('',(0.,0.,1.));
#324=DIRECTION('',(-1.,0.,0.));
#325=DIRECTION('',(0.,0.,1.));
#326=DIRECTION('',(-1.,0.,0.));
#327=DIRECTION('',(0.,0.,1.));
#328=DIRECTION('',(1.,0.,0.));
#329=DIRECTION('',(-1.66930253628555E-17,0.,-1.));
#330=DIRECTION('',(-1.,0.,0.));
#331=DIRECTION('',(0.,0.,1.));
#332=DIRECTION('',(-1.,0.,0.));
#333=DIRECTION('',(0.,0.,1.));
#334=DIRECTION('',(-1.,0.,0.));
#335=DIRECTION('',(0.,0.,1.));
#336=DIRECTION('',(-1.,0.,0.));
#337=DIRECTION('',(4.10585438101021E-17,0.,1.));
#338=DIRECTION('',(-1.,0.,0.));
#339=DIRECTION('',(0.,0.,1.));
#340=DIRECTION('',(-1.,0.,0.));
#341=DIRECTION('',(0.,0.,1.));
#342=DIRECTION('',(-1.,0.,0.));
#343=DIRECTION('',(0.,0.,1.));
#344=DIRECTION('',(1.,0.,0.));
#345=DIRECTION('',(1.36794359860176E-17,0.,-1.));
#346=DIRECTION('',(-1.,0.,0.));
#347=DIRECTION('',(0.,0.,1.));
#348=DIRECTION('',(-1.,0.,0.));
#349=DIRECTION('',(0.,0.,1.));
#350=DIRECTION('',(-1.,0.,0.));
#351=DIRECTION('',(0.,0.,1.));
#352=DIRECTION('',(-1.,0.,0.));
#353=DIRECTION('',(0.,0.,1.));
#354=DIRECTION('',(-1.,0.,0.));
#355=DIRECTION('',(-6.40499468433752E-17,0.,1.));
#356=DIRECTION('',(0.,-0.994483291447898,-0.104895104895105));
#357=DIRECTION('',(1.,0.,0.));
#358=DIRECTION('',(0.,0.,1.));
#359=DIRECTION('',(1.,0.,0.));
#360=CARTESIAN_POINT('',(0.,0.,0.));
#361=CARTESIAN_POINT('',(3.,0.,0.));
#362=CARTESIAN_POINT('',(3.,0.,9.07302521330513));
#363=CARTESIAN_POINT('',(6.79212042397054,0.,0.));
#364=CARTESIAN_POINT('',(6.79212042397054,0.,16.1527156113929));
#365=CARTESIAN_POINT('',(4.73394378743587,8.55417602563647,0.));
#366=CARTESIAN_POINT('',(5.26605621256413,8.55417602563647,0.));
#367=CARTESIAN_POINT('',(5.52945785180298,8.57964630797074,0.));
#368=CARTESIAN_POINT('',(6.05088796812294,8.68144315029517,0.));
#369=CARTESIAN_POINT('',(6.30428680535432,8.75708073248157,0.));
#370=CARTESIAN_POINT('',(6.79061830309567,8.95462555692992,0.));
#371=CARTESIAN_POINT('',(7.02664803068745,9.07814147868364,0.));
#372=CARTESIAN_POINT('',(7.46895407059938,9.36853073903845,0.));
#373=CARTESIAN_POINT('',(7.6732331875897,9.53345249541593,0.));
#374=CARTESIAN_POINT('',(8.0482899878693,9.90246222904163,0.));
#375=CARTESIAN_POINT('',(8.21998027838338,10.1086635212855,0.));
#376=CARTESIAN_POINT('',(8.51459216274322,10.5443625919823,0.));
#377=CARTESIAN_POINT('',(8.63951298597671,10.775256659276,0.));
#378=CARTESIAN_POINT('',(8.8435782448577,11.2637201736833,0.));
#379=CARTESIAN_POINT('',(8.92095327215344,11.5184275399655,0.));
#380=CARTESIAN_POINT('',(9.02308964162467,12.0330868481896,0.));
#381=CARTESIAN_POINT('',(9.04881303228855,12.2970202168973,0.));
#382=CARTESIAN_POINT('',(9.04698275477842,12.827362842223,0.));
#383=CARTESIAN_POINT('',(9.01981215458744,13.0885542487486,0.));
#384=CARTESIAN_POINT('',(8.91464122294024,13.6032320911633,0.));
#385=CARTESIAN_POINT('',(8.83524465094743,13.8593316945884,0.));
#386=CARTESIAN_POINT('',(8.63021840838443,14.3445509035892,0.));
#387=CARTESIAN_POINT('',(8.5049337104911,14.5750069779225,0.));
#388=CARTESIAN_POINT('',(8.20880731841822,15.0116046780058,0.));
#389=CARTESIAN_POINT('',(8.03743916997711,15.2171798196397,0.));
#390=CARTESIAN_POINT('',(7.66360675422591,15.5857390584467,0.));
#391=CARTESIAN_POINT('',(7.45957626342597,15.7513242890863,0.));
#392=CARTESIAN_POINT('',(7.01615201838675,16.043866512325,0.));
#393=CARTESIAN_POINT('',(6.78243561460843,16.1668598351443,0.));
#394=CARTESIAN_POINT('',(6.29681567668452,16.365507231801,0.));
#395=CARTESIAN_POINT('',(6.04162359456393,16.4421009889015,0.));
#396=CARTESIAN_POINT('',(5.5225069513682,16.5437894315089,0.));
#397=CARTESIAN_POINT('',(5.26126382590381,16.5689221564656,0.));
#398=CARTESIAN_POINT('',(4.73546998944077,16.5687111235844,0.));
#399=CARTESIAN_POINT('',(4.46853348581211,16.5425311804745,0.));
#400=CARTESIAN_POINT('',(3.95232861724823,16.4404048340913,0.));
#401=CARTESIAN_POINT('',(3.70101837134825,16.3649061080682,0.));
#402=CARTESIAN_POINT('',(3.21216955872319,16.1643637118693,0.));
#403=CARTESIAN_POINT('',(2.97627821578343,16.0393064513054,0.));
#404=CARTESIAN_POINT('',(2.53855734920403,15.7496495424655,0.));
#405=CARTESIAN_POINT('',(2.33376868081008,15.5837589392948,0.));
#406=CARTESIAN_POINT('',(1.95571207510332,15.2098048457916,0.));
#407=CARTESIAN_POINT('',(1.78797715420305,15.007338020841,0.));
#408=CARTESIAN_POINT('',(1.49366731867828,14.572462703182,0.));
#409=CARTESIAN_POINT('',(1.36607742530184,14.3372221907474,0.));
#410=CARTESIAN_POINT('',(1.16174802174197,13.850728967722,0.));
#411=CARTESIAN_POINT('',(1.08440467198372,13.599968361544,0.));
#412=CARTESIAN_POINT('',(0.979426364665737,13.0833992745403,0.));
#413=CARTESIAN_POINT('',(0.952456563153175,12.816776528887,0.));
#414=CARTESIAN_POINT('',(0.951708366111419,12.2914917876834,0.));
#415=CARTESIAN_POINT('',(0.977105587108294,12.0299311076889,0.));
#416=CARTESIAN_POINT('',(1.08134865567563,11.5090531282646,0.));
#417=CARTESIAN_POINT('',(1.15906311377038,11.256484267005,0.));
#418=CARTESIAN_POINT('',(1.3619952904178,10.7725786380782,0.));
#419=CARTESIAN_POINT('',(1.48906832365425,10.5379324556078,0.));
#420=CARTESIAN_POINT('',(1.78612921552353,10.1006789672591,0.));
#421=CARTESIAN_POINT('',(1.95441303142284,9.89944618645052,0.));
#422=CARTESIAN_POINT('',(2.32962133250228,9.53100592720476,0.));
#423=CARTESIAN_POINT('',(2.53873834679028,9.3628740421492,0.));
#424=CARTESIAN_POINT('',(2.97888366721189,9.07513459326947,0.));
#425=CARTESIAN_POINT('',(3.21132533959547,8.9535639351985,0.));
#426=CARTESIAN_POINT('',(3.70104193605829,8.7551924292874,0.));
#427=CARTESIAN_POINT('',(3.95702568741422,8.67958431101398,0.));
#428=CARTESIAN_POINT('',(4.4722027854437,8.57964188288942,0.));
#429=CARTESIAN_POINT('',(4.73394378743587,8.55417602563647,0.));
#430=CARTESIAN_POINT('',(5.26605621256413,8.55417602563647,0.));
#431=CARTESIAN_POINT('',(0.,0.,0.));
#432=CARTESIAN_POINT('',(3.,9.07302521330513,0.));
#433=CARTESIAN_POINT('',(68.,0.,0.));
#434=CARTESIAN_POINT('',(68.,0.,5.875));
#435=CARTESIAN_POINT('',(68.,0.,0.));
#436=CARTESIAN_POINT('',(66.,0.,0.));
#437=CARTESIAN_POINT('',(66.,0.,7.875));
#438=CARTESIAN_POINT('',(68.,0.,0.));
#439=CARTESIAN_POINT('',(50.0825317547305,0.,0.));
#440=CARTESIAN_POINT('',(50.0825317547305,0.,7.875));
#441=CARTESIAN_POINT('',(0.,0.,0.));
#442=CARTESIAN_POINT('',(49.,0.,0.));
#443=CARTESIAN_POINT('',(49.,0.,8.5));
#444=CARTESIAN_POINT('',(50.0825317547305,0.,0.));
#445=CARTESIAN_POINT('',(44.2800426762176,0.,0.));
#446=CARTESIAN_POINT('',(44.2800426762176,0.,8.5));
#447=CARTESIAN_POINT('',(0.,0.,0.));
#448=CARTESIAN_POINT('',(43.5352914270615,0.,0.));
#449=CARTESIAN_POINT('',(43.5352914270615,0.,8.30044450422656));
#450=CARTESIAN_POINT('',(44.2800426762176,0.,0.));
#451=CARTESIAN_POINT('',(42.8004445042265,0.,0.));
#452=CARTESIAN_POINT('',(42.8004445042265,0.,9.03529142706152));
#453=CARTESIAN_POINT('',(43.38,0.,0.));
#454=CARTESIAN_POINT('',(43.,0.,0.));
#455=CARTESIAN_POINT('',(43.,0.,9.78004267621759));
#456=CARTESIAN_POINT('',(42.8004445042265,0.,0.));
#457=CARTESIAN_POINT('',(43.,0.,0.));
#458=CARTESIAN_POINT('',(43.,0.,14.));
#459=CARTESIAN_POINT('',(43.,14.,0.));
#460=CARTESIAN_POINT('',(42.5,0.,0.));
#461=CARTESIAN_POINT('',(42.5,0.,14.5));
#462=CARTESIAN_POINT('',(43.,0.,0.));
#463=CARTESIAN_POINT('',(38.2,0.,0.));
#464=CARTESIAN_POINT('',(38.2,0.,14.5));
#465=CARTESIAN_POINT('',(0.,0.,0.));
#466=CARTESIAN_POINT('',(38.,0.,0.));
#467=CARTESIAN_POINT('',(38.,0.,14.3));
#468=CARTESIAN_POINT('',(38.2,0.,0.));
#469=CARTESIAN_POINT('',(14.5273194415706,0.,0.));
#470=CARTESIAN_POINT('',(14.5273194415706,0.,14.3));
#471=CARTESIAN_POINT('',(0.,0.,0.));
#472=CARTESIAN_POINT('',(9.39701729168554,0.,0.));
#473=CARTESIAN_POINT('',(9.39701729168554,0.,15.2046106882114));
#474=CARTESIAN_POINT('',(14.5273194415706,0.,0.));
#475=CARTESIAN_POINT('',(9.39701729168554,0.,0.));
#476=CARTESIAN_POINT('',(5.,0.187301513045974,12.5242429198827));
#477=CARTESIAN_POINT('',(10.,0.187301513045974,12.5242429198827));
#478=CARTESIAN_POINT('',(5.,-12.43550331,1.5));
#479=CARTESIAN_POINT('',(10.,-12.43550331,1.5));
#480=CARTESIAN_POINT('',(10.,-12.43550331,1.5));
#481=CARTESIAN_POINT('',(10.,-14.0671585669628,-12.0269695658264));
#482=CARTESIAN_POINT('',(10.,-2.02279036188719,-18.3967732561241));
#483=CARTESIAN_POINT('',(10.,8.23942320820292,-9.43417446145385));
#484=CARTESIAN_POINT('',(10.,18.501636778293,-0.471575666783575));
#485=CARTESIAN_POINT('',(10.,13.8107993795163,12.3205019209503));
#486=CARTESIAN_POINT('',(10.,0.187301513045971,12.5242429198827));
#487=CARTESIAN_POINT('',(10.,-2.43550331,1.5));
#488=CARTESIAN_POINT('',(10.,-4.06715856696277,-1.14926785274116));
#489=CARTESIAN_POINT('',(10.,-2.17835901091064,-3.62178787696731));
#490=CARTESIAN_POINT('',(10.,0.806741643333125,-2.74423838139713));
#491=CARTESIAN_POINT('',(10.,3.79184229757689,-1.86668888582693));
#492=CARTESIAN_POINT('',(10.,4.04205782544992,1.23465134425961));
#493=CARTESIAN_POINT('',(10.,1.23625256199702,2.57941000540371));
#494=CARTESIAN_POINT('',(-5.10076676829453E-16,-2.43550331,1.5));
#495=CARTESIAN_POINT('',(-5.10076676829453E-16,-4.06715856696277,-1.14926785274116));
#496=CARTESIAN_POINT('',(-5.10076676829453E-16,-2.17835901091064,-3.62178787696731));
#497=CARTESIAN_POINT('',(-5.10076676829453E-16,0.806741643333125,-2.74423838139713));
#498=CARTESIAN_POINT('',(-5.10076676829453E-16,3.79184229757689,-1.86668888582693));
#499=CARTESIAN_POINT('',(-5.10076676829453E-16,4.04205782544992,1.23465134425961));
#500=CARTESIAN_POINT('',(-5.10076676829453E-16,1.23625256199702,2.57941000540371));
#501=CARTESIAN_POINT('',(-1.7347234759768E-15,-12.43550331,1.5));
#502=CARTESIAN_POINT('',(-1.73472347597681E-15,-14.0671585669628,-12.0269695658264));
#503=CARTESIAN_POINT('',(-1.73472347597681E-15,-2.02279036188719,-18.3967732561241));
#504=CARTESIAN_POINT('',(-1.7347234759768E-15,8.23942320820292,-9.43417446145385));
#505=CARTESIAN_POINT('',(-1.73472347597681E-15,18.501636778293,-0.471575666783575));
#506=CARTESIAN_POINT('',(-1.73472347597681E-15,13.8107993795163,12.3205019209503));
#507=CARTESIAN_POINT('',(-1.7347234759768E-15,0.187301513045971,12.5242429198827));
#508=CARTESIAN_POINT('',(-2.95937027512416E-15,-22.43550331,1.5));
#509=CARTESIAN_POINT('',(-2.95937027512416E-15,-24.0671585669628,-22.9046712789115));
#510=CARTESIAN_POINT('',(-2.95937027512416E-15,-1.86722171286375,-33.1717586352809));
#511=CARTESIAN_POINT('',(-2.95937027512416E-15,15.6721047730727,-16.1241105415106));
#512=CARTESIAN_POINT('',(-2.95937027512416E-15,33.2114312590092,0.92353755225978));
#513=CARTESIAN_POINT('',(-2.95937027512416E-15,23.5795409335826,23.406352497641));
#514=CARTESIAN_POINT('',(-2.95937027512416E-15,-0.861649535905077,22.4690758343617));
#515=CARTESIAN_POINT('',(10.,-22.43550331,1.5));
#516=CARTESIAN_POINT('',(10.,-24.0671585669628,-22.9046712789115));
#517=CARTESIAN_POINT('',(10.,-1.86722171286375,-33.1717586352809));
#518=CARTESIAN_POINT('',(10.,15.6721047730727,-16.1241105415106));
#519=CARTESIAN_POINT('',(10.,33.2114312590092,0.92353755225978));
#520=CARTESIAN_POINT('',(10.,23.5795409335826,23.406352497641));
#521=CARTESIAN_POINT('',(10.,-0.861649535905077,22.4690758343617));
#522=CARTESIAN_POINT('',(10.,-12.43550331,1.5));
#523=CARTESIAN_POINT('',(10.,-14.0671585669628,-12.0269695658264));
#524=CARTESIAN_POINT('',(10.,-2.02279036188719,-18.3967732561241));
#525=CARTESIAN_POINT('',(10.,8.23942320820292,-9.43417446145385));
#526=CARTESIAN_POINT('',(10.,18.501636778293,-0.471575666783575));
#527=CARTESIAN_POINT('',(10.,13.8107993795163,12.3205019209503));
#528=CARTESIAN_POINT('',(10.,0.187301513045971,12.5242429198827));
#529=CARTESIAN_POINT('',(10.,0.187301513045974,12.5242429198827));
#530=CARTESIAN_POINT('',(10.,-6.55190307028928,12.6250285101383));
#531=CARTESIAN_POINT('',(10.,-11.6283641527936,8.19145444071423));
#532=CARTESIAN_POINT('',(10.,-12.43550331,1.5));
#533=CARTESIAN_POINT('',(10.,1.23625256199702,2.57941000540371));
#534=CARTESIAN_POINT('',(10.,-0.151709316570587,3.24462857272676));
#535=CARTESIAN_POINT('',(10.,-1.62836415279356,2.8105267260046));
#536=CARTESIAN_POINT('',(10.,-2.43550331,1.5));
#537=CARTESIAN_POINT('',(-5.10076676829453E-16,1.23625256199702,2.57941000540371));
#538=CARTESIAN_POINT('',(-5.10076676829454E-16,-0.151709316570587,3.24462857272676));
#539=CARTESIAN_POINT('',(-5.10076676829454E-16,-1.62836415279356,2.8105267260046));
#540=CARTESIAN_POINT('',(-5.10076676829453E-16,-2.43550331,1.5));
#541=CARTESIAN_POINT('',(-1.7347234759768E-15,0.187301513045974,12.5242429198827));
#542=CARTESIAN_POINT('',(-1.73472347597681E-15,-6.55190307028928,12.6250285101383));
#543=CARTESIAN_POINT('',(-1.73472347597681E-15,-11.6283641527936,8.19145444071423));
#544=CARTESIAN_POINT('',(-1.7347234759768E-15,-12.43550331,1.5));
#545=CARTESIAN_POINT('',(-2.95937027512416E-15,-0.861649535905073,22.4690758343616));
#546=CARTESIAN_POINT('',(-2.95937027512416E-15,-12.952096824008,22.0054284475498));
#547=CARTESIAN_POINT('',(-2.95937027512416E-15,-21.6283641527936,13.5723821554239));
#548=CARTESIAN_POINT('',(-2.95937027512416E-15,-22.43550331,1.5));
#549=CARTESIAN_POINT('',(10.,-0.861649535905073,22.4690758343616));
#550=CARTESIAN_POINT('',(10.,-12.952096824008,22.0054284475498));
#551=CARTESIAN_POINT('',(10.,-21.6283641527936,13.5723821554239));
#552=CARTESIAN_POINT('',(10.,-22.43550331,1.5));
#553=CARTESIAN_POINT('',(10.,0.187301513045974,12.5242429198827));
#554=CARTESIAN_POINT('',(10.,-6.55190307028928,12.6250285101383));
#555=CARTESIAN_POINT('',(10.,-11.6283641527936,8.19145444071423));
#556=CARTESIAN_POINT('',(10.,-12.43550331,1.5));
#557=MECHANICAL_DESIGN_GEOMETRIC_PRESENTATION_REPRESENTATION('',(#35,#36),
#558);
#558=(
GEOMETRIC_REPRESENTATION_CONTEXT(3)
GLOBAL_UNCERTAINTY_ASSIGNED_CONTEXT((#559))
GLOBAL_UNIT_ASSIGNED_CONTEXT((#565,#561,#560))
REPRESENTATION_CONTEXT('AEMR-RD1003-D35-M16-L43-Z04-H',
'TOP_LEVEL_ASSEMBLY_PART')
);
#559=UNCERTAINTY_MEASURE_WITH_UNIT(LENGTH_MEASURE(2.E-5),#565,
'DISTANCE_ACCURACY_VALUE','Maximum Tolerance applied to model');
#560=(
NAMED_UNIT(*)
SI_UNIT($,.STERADIAN.)
SOLID_ANGLE_UNIT()
);
#561=(
CONVERSION_BASED_UNIT('DEGREE',#563)
NAMED_UNIT(#562)
PLANE_ANGLE_UNIT()
);
#562=DIMENSIONAL_EXPONENTS(0.,0.,0.,0.,0.,0.,0.);
#563=PLANE_ANGLE_MEASURE_WITH_UNIT(PLANE_ANGLE_MEASURE(0.0174532925),#564);
#564=(
NAMED_UNIT(*)
PLANE_ANGLE_UNIT()
SI_UNIT($,.RADIAN.)
);
#565=(
LENGTH_UNIT()
NAMED_UNIT(*)
SI_UNIT(.MILLI.,.METRE.)
);
ENDSEC;
END-ISO-10303-21;
