ISO-10303-21;
HEADER;
/* Generated by software containing ST-Developer
 * from STEP Tools, Inc. (www.steptools.com) 
 */
/* OPTION: using custom schema-name function */

FILE_DESCRIPTION(
/* description */ (''),
/* implementation_level */ '2;1');

FILE_NAME(
/* name */ 'AEMR-RD1003-D42-M16-L43-Z05-H.stp',
/* time_stamp */ '2023-10-20T17:35:16+03:00',
/* author */ (''),
/* organization */ (''),
/* preprocessor_version */ 'ST-DEVELOPER v19.4',
/* originating_system */ 'SIEMENS PLM Software NX2306.5001',
/* authorisation */ '');

FILE_SCHEMA (('AUTOMOTIVE_DESIGN { 1 0 10303 214 3 1 1 1 }'));
ENDSEC;

DATA;
#10=PROPERTY_DEFINITION_REPRESENTATION(#14,#12);
#11=PROPERTY_DEFINITION_REPRESENTATION(#15,#13);
#12=REPRESENTATION('',(#16),#492);
#13=REPRESENTATION('',(#17),#492);
#14=PROPERTY_DEFINITION('pmi validation property','',#21);
#15=PROPERTY_DEFINITION('pmi validation property','',#21);
#16=VALUE_REPRESENTATION_ITEM('number of annotations',COUNT_MEASURE(0.));
#17=VALUE_REPRESENTATION_ITEM('number of views',COUNT_MEASURE(0.));
#18=SHAPE_REPRESENTATION_RELATIONSHIP('None',
'relationship between AEMR-RD1003-D42-M16-L43-Z05-H-LIGHT_x_t_objects-
None and AEMR-RD1003-D42-M16-L43-Z05-H-LIGHT_x_t_objects-None',#30,#19);
#19=ADVANCED_BREP_SHAPE_REPRESENTATION(
'AEMR-RD1003-D42-M16-L43-Z05-H-LIGHT_x_t_objects-None',(#67,#68),#492);
#20=SHAPE_DEFINITION_REPRESENTATION(#21,#30);
#21=PRODUCT_DEFINITION_SHAPE('','',#22);
#22=PRODUCT_DEFINITION(' ','',#24,#23);
#23=PRODUCT_DEFINITION_CONTEXT('part definition',#29,'design');
#24=PRODUCT_DEFINITION_FORMATION_WITH_SPECIFIED_SOURCE(' ',' ',#26,
 .NOT_KNOWN.);
#25=PRODUCT_RELATED_PRODUCT_CATEGORY('part','',(#26));
#26=PRODUCT('AEMR-RD1003-D42-M16-L43-Z05-H-LIGHT_x_t_objects',
'AEMR-RD1003-D42-M16-L43-Z05-H-LIGHT_x_t_objects',' ',(#27));
#27=PRODUCT_CONTEXT(' ',#29,'mechanical');
#28=APPLICATION_PROTOCOL_DEFINITION('international standard',
'automotive_design',2010,#29);
#29=APPLICATION_CONTEXT(
'core data for automotive mechanical design processes');
#30=SHAPE_REPRESENTATION(
'AEMR-RD1003-D42-M16-L43-Z05-H-LIGHT_x_t_objects-None',(#252),#492);
#31=COLOUR_RGB('silver gray',0.6,0.6,0.6);
#32=CYLINDRICAL_SURFACE('',#264,7.875);
#33=CYLINDRICAL_SURFACE('',#268,8.5);
#34=CYLINDRICAL_SURFACE('',#280,14.5);
#35=CYLINDRICAL_SURFACE('',#284,14.3);
#36=CONICAL_SURFACE('',#262,5.875,45.0000000000002);
#37=CONICAL_SURFACE('',#266,7.875,30.0000000000004);
#38=CONICAL_SURFACE('',#270,8.5,15.0000000000002);
#39=CONICAL_SURFACE('',#274,9.03529142706151,75.);
#40=CONICAL_SURFACE('',#278,14.,44.9999999999999);
#41=CONICAL_SURFACE('',#282,14.5,44.9999999999992);
#42=CONICAL_SURFACE('',#287,15.2046106882113,19.9999999999996);
#43=PLANE('',#258);
#44=PLANE('',#260);
#45=PLANE('',#276);
#46=FACE_OUTER_BOUND('',#132,.T.);
#47=FACE_OUTER_BOUND('',#133,.T.);
#48=TOROIDAL_SURFACE('',#257,15.955047503098,4.03750021529243);
#49=TOROIDAL_SURFACE('',#272,8.88,0.6);
#50=TOROIDAL_SURFACE('',#286,29.3,15.);
#51=PRESENTATION_LAYER_ASSIGNMENT('1','Layer 1',(#67,#68));
#52=STYLED_ITEM('',(#54),#67);
#53=STYLED_ITEM('',(#55),#68);
#54=PRESENTATION_STYLE_ASSIGNMENT((#56));
#55=PRESENTATION_STYLE_ASSIGNMENT((#57));
#56=SURFACE_STYLE_USAGE(.BOTH.,#58);
#57=SURFACE_STYLE_USAGE(.BOTH.,#59);
#58=SURFACE_SIDE_STYLE('',(#60));
#59=SURFACE_SIDE_STYLE('',(#61));
#60=SURFACE_STYLE_FILL_AREA(#62);
#61=SURFACE_STYLE_FILL_AREA(#63);
#62=FILL_AREA_STYLE('',(#64));
#63=FILL_AREA_STYLE('',(#65));
#64=FILL_AREA_STYLE_COLOUR('',#66);
#65=FILL_AREA_STYLE_COLOUR('',#31);
#66=DRAUGHTING_PRE_DEFINED_COLOUR('yellow');
#67=MANIFOLD_SOLID_BREP('',#69);
#68=MANIFOLD_SOLID_BREP('',#70);
#69=CLOSED_SHELL('',(#71,#72));
#70=CLOSED_SHELL('',(#73,#74,#75,#76,#77,#78,#79,#80,#81,#82,#83,#84,#85,
#86,#87,#88,#89));
#71=ADVANCED_FACE('',(#92,#93),#90,.F.);
#72=ADVANCED_FACE('',(#94,#95),#91,.F.);
#73=ADVANCED_FACE('',(#96,#97),#48,.T.);
#74=ADVANCED_FACE('',(#46),#43,.F.);
#75=ADVANCED_FACE('',(#47),#44,.F.);
#76=ADVANCED_FACE('',(#98,#99),#36,.T.);
#77=ADVANCED_FACE('',(#100,#101),#32,.T.);
#78=ADVANCED_FACE('',(#102,#103),#37,.T.);
#79=ADVANCED_FACE('',(#104,#105),#33,.T.);
#80=ADVANCED_FACE('',(#106,#107),#38,.T.);
#81=ADVANCED_FACE('',(#108,#109),#49,.F.);
#82=ADVANCED_FACE('',(#110,#111),#39,.F.);
#83=ADVANCED_FACE('',(#112,#113),#45,.F.);
#84=ADVANCED_FACE('',(#114,#115),#40,.T.);
#85=ADVANCED_FACE('',(#116,#117),#34,.T.);
#86=ADVANCED_FACE('',(#118,#119),#41,.T.);
#87=ADVANCED_FACE('',(#120,#121),#35,.T.);
#88=ADVANCED_FACE('',(#122,#123),#50,.F.);
#89=ADVANCED_FACE('',(#124,#125),#42,.T.);
#90=(
BOUNDED_SURFACE()
B_SPLINE_SURFACE(3,3,((#365,#366,#367,#368,#369,#370,#371),(#372,#373,#374,
#375,#376,#377,#378),(#379,#380,#381,#382,#383,#384,#385),(#386,#387,#388,
#389,#390,#391,#392),(#393,#394,#395,#396,#397,#398,#399),(#400,#401,#402,
#403,#404,#405,#406),(#407,#408,#409,#410,#411,#412,#413)),
 .UNSPECIFIED.,.T.,.F.,.F.)
B_SPLINE_SURFACE_WITH_KNOTS((1,3,3,3,1),(4,3,4),(-0.5,0.,0.5,1.,1.5),(0.,
0.5,1.),.UNSPECIFIED.)
GEOMETRIC_REPRESENTATION_ITEM()
RATIONAL_B_SPLINE_SURFACE(((1.,0.563393351376865,0.563393351376865,1.,0.563393351376865,
0.563393351376865,1.),(0.333333333333334,0.187797783792289,0.187797783792289,
0.333333333333334,0.187797783792289,0.187797783792289,0.333333333333334),
(0.333333333333334,0.187797783792289,0.187797783792289,0.333333333333334,
0.187797783792289,0.187797783792289,0.333333333333334),(1.,0.563393351376865,
0.563393351376865,1.,0.563393351376865,0.563393351376865,1.),(0.333333333333334,
0.187797783792289,0.187797783792289,0.333333333333334,0.187797783792289,
0.187797783792289,0.333333333333334),(0.333333333333334,0.187797783792289,
0.187797783792289,0.333333333333334,0.187797783792289,0.187797783792289,
0.333333333333334),(1.,0.563393351376865,0.563393351376865,1.,0.563393351376865,
0.563393351376865,1.)))
REPRESENTATION_ITEM('')
SURFACE()
);
#91=(
BOUNDED_SURFACE()
B_SPLINE_SURFACE(3,3,((#414,#415,#416,#417),(#418,#419,#420,#421),(#422,
#423,#424,#425),(#426,#427,#428,#429),(#430,#431,#432,#433),(#434,#435,
#436,#437),(#438,#439,#440,#441)),.UNSPECIFIED.,.T.,.F.,.F.)
B_SPLINE_SURFACE_WITH_KNOTS((1,3,3,3,1),(4,4),(-0.5,0.,0.5,1.,1.5),(0.,
1.),.UNSPECIFIED.)
GEOMETRIC_REPRESENTATION_ITEM()
RATIONAL_B_SPLINE_SURFACE(((1.,0.841217164293429,0.841217164293429,1.),
(0.333333333333334,0.280405721431143,0.280405721431143,0.333333333333334),
(0.333333333333334,0.280405721431143,0.280405721431143,0.333333333333334),
(1.,0.841217164293429,0.841217164293429,1.),(0.333333333333334,0.280405721431143,
0.280405721431143,0.333333333333334),(0.333333333333334,0.280405721431143,
0.280405721431143,0.333333333333334),(1.,0.841217164293429,0.841217164293429,
1.)))
REPRESENTATION_ITEM('')
SURFACE()
);
#92=FACE_BOUND('',#126,.T.);
#93=FACE_BOUND('',#127,.T.);
#94=FACE_BOUND('',#128,.T.);
#95=FACE_BOUND('',#129,.T.);
#96=FACE_BOUND('',#130,.T.);
#97=FACE_BOUND('',#131,.T.);
#98=FACE_BOUND('',#134,.T.);
#99=FACE_BOUND('',#135,.T.);
#100=FACE_BOUND('',#136,.T.);
#101=FACE_BOUND('',#137,.T.);
#102=FACE_BOUND('',#138,.T.);
#103=FACE_BOUND('',#139,.T.);
#104=FACE_BOUND('',#140,.T.);
#105=FACE_BOUND('',#141,.T.);
#106=FACE_BOUND('',#142,.T.);
#107=FACE_BOUND('',#143,.T.);
#108=FACE_BOUND('',#144,.T.);
#109=FACE_BOUND('',#145,.T.);
#110=FACE_BOUND('',#146,.T.);
#111=FACE_BOUND('',#147,.T.);
#112=FACE_BOUND('',#148,.T.);
#113=FACE_BOUND('',#149,.T.);
#114=FACE_BOUND('',#150,.T.);
#115=FACE_BOUND('',#151,.T.);
#116=FACE_BOUND('',#152,.T.);
#117=FACE_BOUND('',#153,.T.);
#118=FACE_BOUND('',#154,.T.);
#119=FACE_BOUND('',#155,.T.);
#120=FACE_BOUND('',#156,.T.);
#121=FACE_BOUND('',#157,.T.);
#122=FACE_BOUND('',#158,.T.);
#123=FACE_BOUND('',#159,.T.);
#124=FACE_BOUND('',#160,.T.);
#125=FACE_BOUND('',#161,.T.);
#126=EDGE_LOOP('',(#162));
#127=EDGE_LOOP('',(#163));
#128=EDGE_LOOP('',(#164));
#129=EDGE_LOOP('',(#165));
#130=EDGE_LOOP('',(#166));
#131=EDGE_LOOP('',(#167));
#132=EDGE_LOOP('',(#168));
#133=EDGE_LOOP('',(#169));
#134=EDGE_LOOP('',(#170));
#135=EDGE_LOOP('',(#171));
#136=EDGE_LOOP('',(#172));
#137=EDGE_LOOP('',(#173));
#138=EDGE_LOOP('',(#174));
#139=EDGE_LOOP('',(#175));
#140=EDGE_LOOP('',(#176));
#141=EDGE_LOOP('',(#177));
#142=EDGE_LOOP('',(#178));
#143=EDGE_LOOP('',(#179));
#144=EDGE_LOOP('',(#180));
#145=EDGE_LOOP('',(#181));
#146=EDGE_LOOP('',(#182));
#147=EDGE_LOOP('',(#183));
#148=EDGE_LOOP('',(#184));
#149=EDGE_LOOP('',(#185));
#150=EDGE_LOOP('',(#186));
#151=EDGE_LOOP('',(#187));
#152=EDGE_LOOP('',(#188));
#153=EDGE_LOOP('',(#189));
#154=EDGE_LOOP('',(#190));
#155=EDGE_LOOP('',(#191));
#156=EDGE_LOOP('',(#192));
#157=EDGE_LOOP('',(#193));
#158=EDGE_LOOP('',(#194));
#159=EDGE_LOOP('',(#195));
#160=EDGE_LOOP('',(#196));
#161=EDGE_LOOP('',(#197));
#162=ORIENTED_EDGE('',*,*,#216,.T.);
#163=ORIENTED_EDGE('',*,*,#217,.T.);
#164=ORIENTED_EDGE('',*,*,#217,.F.);
#165=ORIENTED_EDGE('',*,*,#216,.F.);
#166=ORIENTED_EDGE('',*,*,#218,.F.);
#167=ORIENTED_EDGE('',*,*,#219,.T.);
#168=ORIENTED_EDGE('',*,*,#218,.T.);
#169=ORIENTED_EDGE('',*,*,#220,.F.);
#170=ORIENTED_EDGE('',*,*,#221,.F.);
#171=ORIENTED_EDGE('',*,*,#220,.T.);
#172=ORIENTED_EDGE('',*,*,#222,.F.);
#173=ORIENTED_EDGE('',*,*,#221,.T.);
#174=ORIENTED_EDGE('',*,*,#223,.F.);
#175=ORIENTED_EDGE('',*,*,#222,.T.);
#176=ORIENTED_EDGE('',*,*,#224,.F.);
#177=ORIENTED_EDGE('',*,*,#223,.T.);
#178=ORIENTED_EDGE('',*,*,#225,.F.);
#179=ORIENTED_EDGE('',*,*,#224,.T.);
#180=ORIENTED_EDGE('',*,*,#226,.F.);
#181=ORIENTED_EDGE('',*,*,#225,.T.);
#182=ORIENTED_EDGE('',*,*,#227,.F.);
#183=ORIENTED_EDGE('',*,*,#226,.T.);
#184=ORIENTED_EDGE('',*,*,#228,.F.);
#185=ORIENTED_EDGE('',*,*,#227,.T.);
#186=ORIENTED_EDGE('',*,*,#229,.F.);
#187=ORIENTED_EDGE('',*,*,#228,.T.);
#188=ORIENTED_EDGE('',*,*,#230,.F.);
#189=ORIENTED_EDGE('',*,*,#229,.T.);
#190=ORIENTED_EDGE('',*,*,#231,.F.);
#191=ORIENTED_EDGE('',*,*,#230,.T.);
#192=ORIENTED_EDGE('',*,*,#232,.F.);
#193=ORIENTED_EDGE('',*,*,#231,.T.);
#194=ORIENTED_EDGE('',*,*,#233,.F.);
#195=ORIENTED_EDGE('',*,*,#232,.T.);
#196=ORIENTED_EDGE('',*,*,#219,.F.);
#197=ORIENTED_EDGE('',*,*,#233,.T.);
#198=VERTEX_POINT('',#362);
#199=VERTEX_POINT('',#364);
#200=VERTEX_POINT('',#443);
#201=VERTEX_POINT('',#445);
#202=VERTEX_POINT('',#449);
#203=VERTEX_POINT('',#452);
#204=VERTEX_POINT('',#455);
#205=VERTEX_POINT('',#458);
#206=VERTEX_POINT('',#461);
#207=VERTEX_POINT('',#464);
#208=VERTEX_POINT('',#467);
#209=VERTEX_POINT('',#470);
#210=VERTEX_POINT('',#473);
#211=VERTEX_POINT('',#476);
#212=VERTEX_POINT('',#479);
#213=VERTEX_POINT('',#482);
#214=VERTEX_POINT('',#485);
#215=VERTEX_POINT('',#488);
#216=EDGE_CURVE('',#198,#198,#234,.T.);
#217=EDGE_CURVE('',#199,#199,#235,.T.);
#218=EDGE_CURVE('',#200,#200,#236,.T.);
#219=EDGE_CURVE('',#201,#201,#237,.T.);
#220=EDGE_CURVE('',#202,#202,#238,.T.);
#221=EDGE_CURVE('',#203,#203,#239,.T.);
#222=EDGE_CURVE('',#204,#204,#240,.T.);
#223=EDGE_CURVE('',#205,#205,#241,.T.);
#224=EDGE_CURVE('',#206,#206,#242,.T.);
#225=EDGE_CURVE('',#207,#207,#243,.T.);
#226=EDGE_CURVE('',#208,#208,#244,.T.);
#227=EDGE_CURVE('',#209,#209,#245,.T.);
#228=EDGE_CURVE('',#210,#210,#246,.T.);
#229=EDGE_CURVE('',#211,#211,#247,.T.);
#230=EDGE_CURVE('',#212,#212,#248,.T.);
#231=EDGE_CURVE('',#213,#213,#249,.T.);
#232=EDGE_CURVE('',#214,#214,#250,.T.);
#233=EDGE_CURVE('',#215,#215,#251,.T.);
#234=CIRCLE('',#253,5.);
#235=CIRCLE('',#254,5.);
#236=CIRCLE('',#255,12.4411428289214);
#237=CIRCLE('',#256,19.7424251687846);
#238=CIRCLE('',#259,5.875);
#239=CIRCLE('',#261,7.875);
#240=CIRCLE('',#263,7.875);
#241=CIRCLE('',#265,8.5);
#242=CIRCLE('',#267,8.5);
#243=CIRCLE('',#269,8.30044450422656);
#244=CIRCLE('',#271,9.03529142706151);
#245=CIRCLE('',#273,9.78004267621761);
#246=CIRCLE('',#275,14.);
#247=CIRCLE('',#277,14.5);
#248=CIRCLE('',#279,14.5);
#249=CIRCLE('',#281,14.3);
#250=CIRCLE('',#283,14.3);
#251=CIRCLE('',#285,15.2046106882113);
#252=AXIS2_PLACEMENT_3D('',#360,#288,#289);
#253=AXIS2_PLACEMENT_3D('',#361,#290,#291);
#254=AXIS2_PLACEMENT_3D('',#363,#292,#293);
#255=AXIS2_PLACEMENT_3D('',#442,#294,#295);
#256=AXIS2_PLACEMENT_3D('',#444,#296,#297);
#257=AXIS2_PLACEMENT_3D('',#446,#298,#299);
#258=AXIS2_PLACEMENT_3D('',#447,#300,#301);
#259=AXIS2_PLACEMENT_3D('',#448,#302,#303);
#260=AXIS2_PLACEMENT_3D('',#450,#304,#305);
#261=AXIS2_PLACEMENT_3D('',#451,#306,#307);
#262=AXIS2_PLACEMENT_3D('',#453,#308,#309);
#263=AXIS2_PLACEMENT_3D('',#454,#310,#311);
#264=AXIS2_PLACEMENT_3D('',#456,#312,#313);
#265=AXIS2_PLACEMENT_3D('',#457,#314,#315);
#266=AXIS2_PLACEMENT_3D('',#459,#316,#317);
#267=AXIS2_PLACEMENT_3D('',#460,#318,#319);
#268=AXIS2_PLACEMENT_3D('',#462,#320,#321);
#269=AXIS2_PLACEMENT_3D('',#463,#322,#323);
#270=AXIS2_PLACEMENT_3D('',#465,#324,#325);
#271=AXIS2_PLACEMENT_3D('',#466,#326,#327);
#272=AXIS2_PLACEMENT_3D('',#468,#328,#329);
#273=AXIS2_PLACEMENT_3D('',#469,#330,#331);
#274=AXIS2_PLACEMENT_3D('',#471,#332,#333);
#275=AXIS2_PLACEMENT_3D('',#472,#334,#335);
#276=AXIS2_PLACEMENT_3D('',#474,#336,#337);
#277=AXIS2_PLACEMENT_3D('',#475,#338,#339);
#278=AXIS2_PLACEMENT_3D('',#477,#340,#341);
#279=AXIS2_PLACEMENT_3D('',#478,#342,#343);
#280=AXIS2_PLACEMENT_3D('',#480,#344,#345);
#281=AXIS2_PLACEMENT_3D('',#481,#346,#347);
#282=AXIS2_PLACEMENT_3D('',#483,#348,#349);
#283=AXIS2_PLACEMENT_3D('',#484,#350,#351);
#284=AXIS2_PLACEMENT_3D('',#486,#352,#353);
#285=AXIS2_PLACEMENT_3D('',#487,#354,#355);
#286=AXIS2_PLACEMENT_3D('',#489,#356,#357);
#287=AXIS2_PLACEMENT_3D('',#490,#358,#359);
#288=DIRECTION('',(0.,0.,1.));
#289=DIRECTION('',(1.,0.,0.));
#290=DIRECTION('',(0.,0.986994026105054,0.160756935878165));
#291=DIRECTION('',(1.,0.,0.));
#292=DIRECTION('',(0.,0.,-1.));
#293=DIRECTION('',(1.,0.,0.));
#294=DIRECTION('',(-1.,0.,0.));
#295=DIRECTION('',(0.,0.,1.));
#296=DIRECTION('',(-1.,0.,0.));
#297=DIRECTION('',(0.,0.,1.));
#298=DIRECTION('',(-1.,0.,0.));
#299=DIRECTION('',(0.,0.,1.));
#300=DIRECTION('',(1.,0.,0.));
#301=DIRECTION('',(0.,0.,-1.));
#302=DIRECTION('',(-1.,0.,0.));
#303=DIRECTION('',(0.,0.,1.));
#304=DIRECTION('',(-1.,0.,0.));
#305=DIRECTION('',(0.,0.,1.));
#306=DIRECTION('',(-1.,0.,0.));
#307=DIRECTION('',(0.,0.,1.));
#308=DIRECTION('',(-1.,0.,0.));
#309=DIRECTION('',(5.51869280290865E-17,0.,1.));
#310=DIRECTION('',(-1.,0.,0.));
#311=DIRECTION('',(0.,0.,1.));
#312=DIRECTION('',(-1.,0.,0.));
#313=DIRECTION('',(0.,0.,1.));
#314=DIRECTION('',(-1.,0.,0.));
#315=DIRECTION('',(0.,0.,1.));
#316=DIRECTION('',(-1.,0.,0.));
#317=DIRECTION('',(7.11407480423621E-17,0.,1.));
#318=DIRECTION('',(-1.,0.,0.));
#319=DIRECTION('',(0.,0.,1.));
#320=DIRECTION('',(-1.,0.,0.));
#321=DIRECTION('',(0.,0.,1.));
#322=DIRECTION('',(-1.,0.,0.));
#323=DIRECTION('',(0.,0.,1.));
#324=DIRECTION('',(1.,0.,0.));
#325=DIRECTION('',(-2.00800554861768E-16,0.,-1.));
#326=DIRECTION('',(-1.,0.,0.));
#327=DIRECTION('',(0.,0.,1.));
#328=DIRECTION('',(-1.,0.,0.));
#329=DIRECTION('',(0.,0.,1.));
#330=DIRECTION('',(-1.,0.,0.));
#331=DIRECTION('',(0.,0.,1.));
#332=DIRECTION('',(1.,0.,0.));
#333=DIRECTION('',(-1.66930253628555E-17,0.,-1.));
#334=DIRECTION('',(-1.,0.,0.));
#335=DIRECTION('',(0.,0.,1.));
#336=DIRECTION('',(-1.,0.,0.));
#337=DIRECTION('',(0.,0.,1.));
#338=DIRECTION('',(-1.,0.,0.));
#339=DIRECTION('',(0.,0.,1.));
#340=DIRECTION('',(-1.,0.,0.));
#341=DIRECTION('',(4.10585438101021E-17,0.,1.));
#342=DIRECTION('',(-1.,0.,0.));
#343=DIRECTION('',(0.,0.,1.));
#344=DIRECTION('',(-1.,0.,0.));
#345=DIRECTION('',(0.,0.,1.));
#346=DIRECTION('',(-1.,0.,0.));
#347=DIRECTION('',(0.,0.,1.));
#348=DIRECTION('',(1.,0.,0.));
#349=DIRECTION('',(1.36794359860176E-17,0.,-1.));
#350=DIRECTION('',(-1.,0.,0.));
#351=DIRECTION('',(0.,0.,1.));
#352=DIRECTION('',(-1.,0.,0.));
#353=DIRECTION('',(0.,0.,1.));
#354=DIRECTION('',(-1.,0.,0.));
#355=DIRECTION('',(0.,0.,1.));
#356=DIRECTION('',(-1.,0.,0.));
#357=DIRECTION('',(0.,0.,1.));
#358=DIRECTION('',(-1.,0.,0.));
#359=DIRECTION('',(9.14999240619666E-18,0.,1.));
#360=CARTESIAN_POINT('',(0.,0.,0.));
#361=CARTESIAN_POINT('',(5.,-0.582759489185796,16.0190919316484));
#362=CARTESIAN_POINT('',(10.,-0.582759489185796,16.0190919316484));
#363=CARTESIAN_POINT('',(5.,-15.90443067,2.));
#364=CARTESIAN_POINT('',(10.,-15.90443067,2.));
#365=CARTESIAN_POINT('',(10.,-15.90443067,2.));
#366=CARTESIAN_POINT('',(10.,-18.125660500781,-15.663697922896));
#367=CARTESIAN_POINT('',(10.,-2.31357506514275,-23.8440426863244));
#368=CARTESIAN_POINT('',(10.,10.8208407475247,-11.8262555550583));
#369=CARTESIAN_POINT('',(10.,23.9552565601921,0.191531576207844));
#370=CARTESIAN_POINT('',(10.,17.2082829411144,16.6663133124234));
#371=CARTESIAN_POINT('',(10.,-0.582759489185797,16.0190919316484));
#372=CARTESIAN_POINT('',(10.,-5.90443066999999,2.));
#373=CARTESIAN_POINT('',(10.,-8.12566050078098,-4.55754876899109));
#374=CARTESIAN_POINT('',(10.,-2.73746891085731,-8.90527222030715));
#375=CARTESIAN_POINT('',(10.,3.20258328312322,-5.34843545829024));
#376=CARTESIAN_POINT('',(10.,9.14263547710374,-1.79159869627333));
#377=CARTESIAN_POINT('',(10.,7.85414943196012,5.01098254398525));
#378=CARTESIAN_POINT('',(10.,1.02480986959585,6.14915167059778));
#379=CARTESIAN_POINT('',(-5.10076676829453E-16,-5.90443066999999,2.));
#380=CARTESIAN_POINT('',(-5.10076676829453E-16,-8.12566050078098,-4.55754876899109));
#381=CARTESIAN_POINT('',(-5.10076676829453E-16,-2.73746891085731,-8.90527222030715));
#382=CARTESIAN_POINT('',(-5.10076676829453E-16,3.20258328312322,-5.34843545829024));
#383=CARTESIAN_POINT('',(-5.10076676829453E-16,9.14263547710374,-1.79159869627333));
#384=CARTESIAN_POINT('',(-5.10076676829453E-16,7.85414943196012,5.01098254398525));
#385=CARTESIAN_POINT('',(-5.10076676829453E-16,1.02480986959585,6.14915167059778));
#386=CARTESIAN_POINT('',(-1.7347234759768E-15,-15.90443067,2.));
#387=CARTESIAN_POINT('',(-1.73472347597681E-15,-18.125660500781,-15.663697922896));
#388=CARTESIAN_POINT('',(-1.73472347597681E-15,-2.31357506514275,-23.8440426863244));
#389=CARTESIAN_POINT('',(-1.7347234759768E-15,10.8208407475247,-11.8262555550583));
#390=CARTESIAN_POINT('',(-1.73472347597681E-15,23.9552565601921,0.191531576207844));
#391=CARTESIAN_POINT('',(-1.73472347597681E-15,17.2082829411144,16.6663133124234));
#392=CARTESIAN_POINT('',(-1.7347234759768E-15,-0.582759489185797,16.0190919316484));
#393=CARTESIAN_POINT('',(-2.95937027512416E-15,-25.90443067,2.));
#394=CARTESIAN_POINT('',(-2.95937027512416E-15,-28.125660500781,-26.769847076801));
#395=CARTESIAN_POINT('',(-2.95937027512416E-15,-1.88968121942817,-38.7828131523416));
#396=CARTESIAN_POINT('',(-2.95937027512416E-15,18.4390982119261,-18.3040756518263));
#397=CARTESIAN_POINT('',(-2.95937027512416E-15,38.7678776432804,2.17466184868902));
#398=CARTESIAN_POINT('',(-2.95937027512416E-15,26.5624164502686,28.3216440808616));
#399=CARTESIAN_POINT('',(-2.95937027512416E-15,-2.19032884796745,25.8890321926989));
#400=CARTESIAN_POINT('',(10.,-25.90443067,2.));
#401=CARTESIAN_POINT('',(10.,-28.125660500781,-26.769847076801));
#402=CARTESIAN_POINT('',(10.,-1.88968121942817,-38.7828131523416));
#403=CARTESIAN_POINT('',(10.,18.4390982119261,-18.3040756518263));
#404=CARTESIAN_POINT('',(10.,38.7678776432804,2.17466184868902));
#405=CARTESIAN_POINT('',(10.,26.5624164502686,28.3216440808616));
#406=CARTESIAN_POINT('',(10.,-2.19032884796745,25.8890321926989));
#407=CARTESIAN_POINT('',(10.,-15.90443067,2.));
#408=CARTESIAN_POINT('',(10.,-18.125660500781,-15.663697922896));
#409=CARTESIAN_POINT('',(10.,-2.31357506514275,-23.8440426863244));
#410=CARTESIAN_POINT('',(10.,10.8208407475247,-11.8262555550583));
#411=CARTESIAN_POINT('',(10.,23.9552565601921,0.191531576207844));
#412=CARTESIAN_POINT('',(10.,17.2082829411144,16.6663133124234));
#413=CARTESIAN_POINT('',(10.,-0.582759489185797,16.0190919316484));
#414=CARTESIAN_POINT('',(10.,-0.582759489185796,16.0190919316484));
#415=CARTESIAN_POINT('',(10.,-8.80646200433562,15.71992137333));
#416=CARTESIAN_POINT('',(10.,-14.8776930059377,10.1648389971782));
#417=CARTESIAN_POINT('',(10.,-15.90443067,2.));
#418=CARTESIAN_POINT('',(10.,1.02480986959585,6.14915167059778));
#419=CARTESIAN_POINT('',(10.,-2.1319729415213,6.67525711640621));
#420=CARTESIAN_POINT('',(10.,-4.87769300593772,5.03115067686677));
#421=CARTESIAN_POINT('',(10.,-5.90443067000001,2.));
#422=CARTESIAN_POINT('',(-5.10076676829453E-16,1.02480986959585,6.14915167059778));
#423=CARTESIAN_POINT('',(-5.10076676829454E-16,-2.1319729415213,6.67525711640621));
#424=CARTESIAN_POINT('',(-5.10076676829454E-16,-4.87769300593772,5.03115067686677));
#425=CARTESIAN_POINT('',(-5.10076676829453E-16,-5.90443067000001,2.));
#426=CARTESIAN_POINT('',(-1.7347234759768E-15,-0.582759489185796,16.0190919316484));
#427=CARTESIAN_POINT('',(-1.73472347597681E-15,-8.80646200433562,15.71992137333));
#428=CARTESIAN_POINT('',(-1.73472347597681E-15,-14.8776930059377,10.1648389971782));
#429=CARTESIAN_POINT('',(-1.7347234759768E-15,-15.90443067,2.));
#430=CARTESIAN_POINT('',(-2.95937027512416E-15,-2.19032884796744,25.8890321926989));
#431=CARTESIAN_POINT('',(-2.95937027512416E-15,-15.48095106715,24.7645856302537));
#432=CARTESIAN_POINT('',(-2.95937027512416E-15,-24.8776930059377,15.2985273174897));
#433=CARTESIAN_POINT('',(-2.95937027512416E-15,-25.90443067,2.));
#434=CARTESIAN_POINT('',(10.,-2.19032884796744,25.8890321926989));
#435=CARTESIAN_POINT('',(10.,-15.48095106715,24.7645856302537));
#436=CARTESIAN_POINT('',(10.,-24.8776930059377,15.2985273174897));
#437=CARTESIAN_POINT('',(10.,-25.90443067,2.));
#438=CARTESIAN_POINT('',(10.,-0.582759489185796,16.0190919316484));
#439=CARTESIAN_POINT('',(10.,-8.80646200433562,15.71992137333));
#440=CARTESIAN_POINT('',(10.,-14.8776930059377,10.1648389971782));
#441=CARTESIAN_POINT('',(10.,-15.90443067,2.));
#442=CARTESIAN_POINT('',(3.,0.,0.));
#443=CARTESIAN_POINT('',(3.,0.,12.4411428289214));
#444=CARTESIAN_POINT('',(6.38742898181157,0.,0.));
#445=CARTESIAN_POINT('',(6.38742898181157,0.,19.7424251687846));
#446=CARTESIAN_POINT('',(4.98843705690814,0.,0.));
#447=CARTESIAN_POINT('',(3.,12.4411428289214,0.));
#448=CARTESIAN_POINT('',(68.,0.,0.));
#449=CARTESIAN_POINT('',(68.,0.,5.875));
#450=CARTESIAN_POINT('',(68.,0.,0.));
#451=CARTESIAN_POINT('',(66.,0.,0.));
#452=CARTESIAN_POINT('',(66.,0.,7.875));
#453=CARTESIAN_POINT('',(68.,0.,0.));
#454=CARTESIAN_POINT('',(50.0825317547305,0.,0.));
#455=CARTESIAN_POINT('',(50.0825317547305,0.,7.875));
#456=CARTESIAN_POINT('',(0.,0.,0.));
#457=CARTESIAN_POINT('',(49.,0.,0.));
#458=CARTESIAN_POINT('',(49.,0.,8.5));
#459=CARTESIAN_POINT('',(50.0825317547305,0.,0.));
#460=CARTESIAN_POINT('',(44.2800426762176,0.,0.));
#461=CARTESIAN_POINT('',(44.2800426762176,0.,8.5));
#462=CARTESIAN_POINT('',(0.,0.,0.));
#463=CARTESIAN_POINT('',(43.5352914270615,0.,0.));
#464=CARTESIAN_POINT('',(43.5352914270615,0.,8.30044450422656));
#465=CARTESIAN_POINT('',(44.2800426762176,0.,0.));
#466=CARTESIAN_POINT('',(42.8004445042265,0.,0.));
#467=CARTESIAN_POINT('',(42.8004445042265,0.,9.03529142706151));
#468=CARTESIAN_POINT('',(43.38,0.,0.));
#469=CARTESIAN_POINT('',(43.,0.,0.));
#470=CARTESIAN_POINT('',(43.,0.,9.78004267621761));
#471=CARTESIAN_POINT('',(42.8004445042265,0.,0.));
#472=CARTESIAN_POINT('',(43.,0.,0.));
#473=CARTESIAN_POINT('',(43.,0.,14.));
#474=CARTESIAN_POINT('',(43.,14.,0.));
#475=CARTESIAN_POINT('',(42.5,0.,0.));
#476=CARTESIAN_POINT('',(42.5,0.,14.5));
#477=CARTESIAN_POINT('',(43.,0.,0.));
#478=CARTESIAN_POINT('',(38.2,0.,0.));
#479=CARTESIAN_POINT('',(38.2,0.,14.5));
#480=CARTESIAN_POINT('',(0.,0.,0.));
#481=CARTESIAN_POINT('',(38.,0.,0.));
#482=CARTESIAN_POINT('',(38.,0.,14.3));
#483=CARTESIAN_POINT('',(38.2,0.,0.));
#484=CARTESIAN_POINT('',(23.985273950746,0.,0.));
#485=CARTESIAN_POINT('',(23.985273950746,0.,14.3));
#486=CARTESIAN_POINT('',(0.,0.,0.));
#487=CARTESIAN_POINT('',(18.8549718008612,0.,0.));
#488=CARTESIAN_POINT('',(18.8549718008612,0.,15.2046106882113));
#489=CARTESIAN_POINT('',(23.9852739507461,0.,0.));
#490=CARTESIAN_POINT('',(18.8549718008612,0.,0.));
#491=MECHANICAL_DESIGN_GEOMETRIC_PRESENTATION_REPRESENTATION('',(#52,#53),
#492);
#492=(
GEOMETRIC_REPRESENTATION_CONTEXT(3)
GLOBAL_UNCERTAINTY_ASSIGNED_CONTEXT((#493))
GLOBAL_UNIT_ASSIGNED_CONTEXT((#499,#495,#494))
REPRESENTATION_CONTEXT('AEMR-RD1003-D42-M16-L43-Z05-H',
'TOP_LEVEL_ASSEMBLY_PART')
);
#493=UNCERTAINTY_MEASURE_WITH_UNIT(LENGTH_MEASURE(2.E-5),#499,
'DISTANCE_ACCURACY_VALUE','Maximum Tolerance applied to model');
#494=(
NAMED_UNIT(*)
SI_UNIT($,.STERADIAN.)
SOLID_ANGLE_UNIT()
);
#495=(
CONVERSION_BASED_UNIT('DEGREE',#497)
NAMED_UNIT(#496)
PLANE_ANGLE_UNIT()
);
#496=DIMENSIONAL_EXPONENTS(0.,0.,0.,0.,0.,0.,0.);
#497=PLANE_ANGLE_MEASURE_WITH_UNIT(PLANE_ANGLE_MEASURE(0.0174532925),#498);
#498=(
NAMED_UNIT(*)
PLANE_ANGLE_UNIT()
SI_UNIT($,.RADIAN.)
);
#499=(
LENGTH_UNIT()
NAMED_UNIT(*)
SI_UNIT(.MILLI.,.METRE.)
);
ENDSEC;
END-ISO-10303-21;
