ISO-10303-21;
HEADER;
/* Generated by software containing ST-Developer
 * from STEP Tools, Inc. (www.steptools.com) 
 */
/* OPTION: using custom schema-name function */

FILE_DESCRIPTION(
/* description */ (''),
/* implementation_level */ '2;1');

FILE_NAME(
/* name */ 'AEMR-RD1004-D32-M16-L43-Z04-H.stp',
/* time_stamp */ '2023-10-20T17:41:06+03:00',
/* author */ (''),
/* organization */ (''),
/* preprocessor_version */ 'ST-DEVELOPER v19.4',
/* originating_system */ 'SIEMENS PLM Software NX2306.5001',
/* authorisation */ '');

FILE_SCHEMA (('AUTOMOTIVE_DESIGN { 1 0 10303 214 3 1 1 1 }'));
ENDSEC;

DATA;
#10=PROPERTY_DEFINITION_REPRESENTATION(#14,#12);
#11=PROPERTY_DEFINITION_REPRESENTATION(#15,#13);
#12=REPRESENTATION('',(#16),#512);
#13=REPRESENTATION('',(#17),#512);
#14=PROPERTY_DEFINITION('pmi validation property','',#21);
#15=PROPERTY_DEFINITION('pmi validation property','',#21);
#16=VALUE_REPRESENTATION_ITEM('number of annotations',COUNT_MEASURE(0.));
#17=VALUE_REPRESENTATION_ITEM('number of views',COUNT_MEASURE(0.));
#18=SHAPE_REPRESENTATION_RELATIONSHIP('None',
'relationship between AEMR-RD1004-D32-M16-L43-Z04-H-LIGHT_x_t_objects-
None and AEMR-RD1004-D32-M16-L43-Z04-H-LIGHT_x_t_objects-None',#30,#19);
#19=ADVANCED_BREP_SHAPE_REPRESENTATION(
'AEMR-RD1004-D32-M16-L43-Z04-H-LIGHT_x_t_objects-None',(#68,#69),#512);
#20=SHAPE_DEFINITION_REPRESENTATION(#21,#30);
#21=PRODUCT_DEFINITION_SHAPE('','',#22);
#22=PRODUCT_DEFINITION(' ','',#24,#23);
#23=PRODUCT_DEFINITION_CONTEXT('part definition',#29,'design');
#24=PRODUCT_DEFINITION_FORMATION_WITH_SPECIFIED_SOURCE(' ',' ',#26,
 .NOT_KNOWN.);
#25=PRODUCT_RELATED_PRODUCT_CATEGORY('part','',(#26));
#26=PRODUCT('AEMR-RD1004-D32-M16-L43-Z04-H-LIGHT_x_t_objects',
'AEMR-RD1004-D32-M16-L43-Z04-H-LIGHT_x_t_objects',' ',(#27));
#27=PRODUCT_CONTEXT(' ',#29,'mechanical');
#28=APPLICATION_PROTOCOL_DEFINITION('international standard',
'automotive_design',2010,#29);
#29=APPLICATION_CONTEXT(
'core data for automotive mechanical design processes');
#30=SHAPE_REPRESENTATION(
'AEMR-RD1004-D32-M16-L43-Z04-H-LIGHT_x_t_objects-None',(#263),#512);
#31=COLOUR_RGB('silver gray',0.6,0.6,0.6);
#32=CYLINDRICAL_SURFACE('',#275,7.875);
#33=CYLINDRICAL_SURFACE('',#279,8.5);
#34=CYLINDRICAL_SURFACE('',#283,8.3);
#35=CYLINDRICAL_SURFACE('',#293,14.5);
#36=CYLINDRICAL_SURFACE('',#297,14.3);
#37=CONICAL_SURFACE('',#273,5.875,45.0000000000002);
#38=CONICAL_SURFACE('',#277,7.875,30.0000000000004);
#39=CONICAL_SURFACE('',#281,8.5,15.);
#40=CONICAL_SURFACE('',#287,8.80352761804101,74.9999999999999);
#41=CONICAL_SURFACE('',#291,14.,44.9999999999999);
#42=CONICAL_SURFACE('',#295,14.5,44.9999999999992);
#43=CONICAL_SURFACE('',#300,14.4206147584282,19.9999999999998);
#44=PLANE('',#269);
#45=PLANE('',#271);
#46=PLANE('',#289);
#47=FACE_OUTER_BOUND('',#136,.T.);
#48=FACE_OUTER_BOUND('',#137,.T.);
#49=TOROIDAL_SURFACE('',#268,11.975504683216,3.59242680549535);
#50=TOROIDAL_SURFACE('',#285,8.7,0.4);
#51=TOROIDAL_SURFACE('',#299,16.3,2.);
#52=PRESENTATION_LAYER_ASSIGNMENT('1','Layer 1',(#68,#69));
#53=STYLED_ITEM('',(#55),#68);
#54=STYLED_ITEM('',(#56),#69);
#55=PRESENTATION_STYLE_ASSIGNMENT((#57));
#56=PRESENTATION_STYLE_ASSIGNMENT((#58));
#57=SURFACE_STYLE_USAGE(.BOTH.,#59);
#58=SURFACE_STYLE_USAGE(.BOTH.,#60);
#59=SURFACE_SIDE_STYLE('',(#61));
#60=SURFACE_SIDE_STYLE('',(#62));
#61=SURFACE_STYLE_FILL_AREA(#63);
#62=SURFACE_STYLE_FILL_AREA(#64);
#63=FILL_AREA_STYLE('',(#65));
#64=FILL_AREA_STYLE('',(#66));
#65=FILL_AREA_STYLE_COLOUR('',#67);
#66=FILL_AREA_STYLE_COLOUR('',#31);
#67=DRAUGHTING_PRE_DEFINED_COLOUR('yellow');
#68=MANIFOLD_SOLID_BREP('',#70);
#69=MANIFOLD_SOLID_BREP('',#71);
#70=CLOSED_SHELL('',(#72,#73));
#71=CLOSED_SHELL('',(#74,#75,#76,#77,#78,#79,#80,#81,#82,#83,#84,#85,#86,
#87,#88,#89,#90,#91));
#72=ADVANCED_FACE('',(#94,#95),#92,.F.);
#73=ADVANCED_FACE('',(#96,#97),#93,.F.);
#74=ADVANCED_FACE('',(#98,#99),#49,.T.);
#75=ADVANCED_FACE('',(#47),#44,.F.);
#76=ADVANCED_FACE('',(#48),#45,.F.);
#77=ADVANCED_FACE('',(#100,#101),#37,.T.);
#78=ADVANCED_FACE('',(#102,#103),#32,.T.);
#79=ADVANCED_FACE('',(#104,#105),#38,.T.);
#80=ADVANCED_FACE('',(#106,#107),#33,.T.);
#81=ADVANCED_FACE('',(#108,#109),#39,.T.);
#82=ADVANCED_FACE('',(#110,#111),#34,.T.);
#83=ADVANCED_FACE('',(#112,#113),#50,.F.);
#84=ADVANCED_FACE('',(#114,#115),#40,.F.);
#85=ADVANCED_FACE('',(#116,#117),#46,.F.);
#86=ADVANCED_FACE('',(#118,#119),#41,.T.);
#87=ADVANCED_FACE('',(#120,#121),#35,.T.);
#88=ADVANCED_FACE('',(#122,#123),#42,.T.);
#89=ADVANCED_FACE('',(#124,#125),#36,.T.);
#90=ADVANCED_FACE('',(#126,#127),#51,.F.);
#91=ADVANCED_FACE('',(#128,#129),#43,.T.);
#92=(
BOUNDED_SURFACE()
B_SPLINE_SURFACE(3,3,((#382,#383,#384,#385,#386,#387,#388),(#389,#390,#391,
#392,#393,#394,#395),(#396,#397,#398,#399,#400,#401,#402),(#403,#404,#405,
#406,#407,#408,#409),(#410,#411,#412,#413,#414,#415,#416),(#417,#418,#419,
#420,#421,#422,#423),(#424,#425,#426,#427,#428,#429,#430)),
 .UNSPECIFIED.,.T.,.F.,.F.)
B_SPLINE_SURFACE_WITH_KNOTS((1,3,3,3,1),(4,3,4),(-0.5,0.,0.5,1.,1.5),(0.,
0.5,1.),.UNSPECIFIED.)
GEOMETRIC_REPRESENTATION_ITEM()
RATIONAL_B_SPLINE_SURFACE(((1.,0.596904305490789,0.596904305490789,1.,0.596904305490789,
0.596904305490789,1.),(0.333333333333334,0.198968101830263,0.198968101830263,
0.333333333333334,0.198968101830263,0.198968101830263,0.333333333333334),
(0.333333333333334,0.198968101830263,0.198968101830263,0.333333333333334,
0.198968101830263,0.198968101830263,0.333333333333334),(1.,0.596904305490789,
0.596904305490789,1.,0.596904305490789,0.596904305490789,1.),(0.333333333333334,
0.198968101830263,0.198968101830263,0.333333333333334,0.198968101830263,
0.198968101830263,0.333333333333334),(0.333333333333334,0.198968101830263,
0.198968101830263,0.333333333333334,0.198968101830263,0.198968101830263,
0.333333333333334),(1.,0.596904305490789,0.596904305490789,1.,0.596904305490789,
0.596904305490789,1.)))
REPRESENTATION_ITEM('')
SURFACE()
);
#93=(
BOUNDED_SURFACE()
B_SPLINE_SURFACE(3,3,((#431,#432,#433,#434),(#435,#436,#437,#438),(#439,
#440,#441,#442),(#443,#444,#445,#446),(#447,#448,#449,#450),(#451,#452,
#453,#454),(#455,#456,#457,#458)),.UNSPECIFIED.,.T.,.F.,.F.)
B_SPLINE_SURFACE_WITH_KNOTS((1,3,3,3,1),(4,4),(-0.5,0.,0.5,1.,1.5),(0.,
1.),.UNSPECIFIED.)
GEOMETRIC_REPRESENTATION_ITEM()
RATIONAL_B_SPLINE_SURFACE(((1.,0.791591027907921,0.791591027907921,1.),
(0.333333333333334,0.263863675969307,0.263863675969307,0.333333333333334),
(0.333333333333334,0.263863675969307,0.263863675969307,0.333333333333334),
(1.,0.791591027907921,0.791591027907921,1.),(0.333333333333334,0.263863675969307,
0.263863675969307,0.333333333333334),(0.333333333333334,0.263863675969307,
0.263863675969307,0.333333333333334),(1.,0.791591027907921,0.791591027907921,
1.)))
REPRESENTATION_ITEM('')
SURFACE()
);
#94=FACE_BOUND('',#130,.T.);
#95=FACE_BOUND('',#131,.T.);
#96=FACE_BOUND('',#132,.T.);
#97=FACE_BOUND('',#133,.T.);
#98=FACE_BOUND('',#134,.T.);
#99=FACE_BOUND('',#135,.T.);
#100=FACE_BOUND('',#138,.T.);
#101=FACE_BOUND('',#139,.T.);
#102=FACE_BOUND('',#140,.T.);
#103=FACE_BOUND('',#141,.T.);
#104=FACE_BOUND('',#142,.T.);
#105=FACE_BOUND('',#143,.T.);
#106=FACE_BOUND('',#144,.T.);
#107=FACE_BOUND('',#145,.T.);
#108=FACE_BOUND('',#146,.T.);
#109=FACE_BOUND('',#147,.T.);
#110=FACE_BOUND('',#148,.T.);
#111=FACE_BOUND('',#149,.T.);
#112=FACE_BOUND('',#150,.T.);
#113=FACE_BOUND('',#151,.T.);
#114=FACE_BOUND('',#152,.T.);
#115=FACE_BOUND('',#153,.T.);
#116=FACE_BOUND('',#154,.T.);
#117=FACE_BOUND('',#155,.T.);
#118=FACE_BOUND('',#156,.T.);
#119=FACE_BOUND('',#157,.T.);
#120=FACE_BOUND('',#158,.T.);
#121=FACE_BOUND('',#159,.T.);
#122=FACE_BOUND('',#160,.T.);
#123=FACE_BOUND('',#161,.T.);
#124=FACE_BOUND('',#162,.T.);
#125=FACE_BOUND('',#163,.T.);
#126=FACE_BOUND('',#164,.T.);
#127=FACE_BOUND('',#165,.T.);
#128=FACE_BOUND('',#166,.T.);
#129=FACE_BOUND('',#167,.T.);
#130=EDGE_LOOP('',(#168));
#131=EDGE_LOOP('',(#169));
#132=EDGE_LOOP('',(#170));
#133=EDGE_LOOP('',(#171));
#134=EDGE_LOOP('',(#172));
#135=EDGE_LOOP('',(#173));
#136=EDGE_LOOP('',(#174));
#137=EDGE_LOOP('',(#175));
#138=EDGE_LOOP('',(#176));
#139=EDGE_LOOP('',(#177));
#140=EDGE_LOOP('',(#178));
#141=EDGE_LOOP('',(#179));
#142=EDGE_LOOP('',(#180));
#143=EDGE_LOOP('',(#181));
#144=EDGE_LOOP('',(#182));
#145=EDGE_LOOP('',(#183));
#146=EDGE_LOOP('',(#184));
#147=EDGE_LOOP('',(#185));
#148=EDGE_LOOP('',(#186));
#149=EDGE_LOOP('',(#187));
#150=EDGE_LOOP('',(#188));
#151=EDGE_LOOP('',(#189));
#152=EDGE_LOOP('',(#190));
#153=EDGE_LOOP('',(#191));
#154=EDGE_LOOP('',(#192));
#155=EDGE_LOOP('',(#193));
#156=EDGE_LOOP('',(#194));
#157=EDGE_LOOP('',(#195));
#158=EDGE_LOOP('',(#196));
#159=EDGE_LOOP('',(#197));
#160=EDGE_LOOP('',(#198));
#161=EDGE_LOOP('',(#199));
#162=EDGE_LOOP('',(#200));
#163=EDGE_LOOP('',(#201));
#164=EDGE_LOOP('',(#202));
#165=EDGE_LOOP('',(#203));
#166=EDGE_LOOP('',(#204));
#167=EDGE_LOOP('',(#205));
#168=ORIENTED_EDGE('',*,*,#225,.T.);
#169=ORIENTED_EDGE('',*,*,#226,.T.);
#170=ORIENTED_EDGE('',*,*,#226,.F.);
#171=ORIENTED_EDGE('',*,*,#225,.F.);
#172=ORIENTED_EDGE('',*,*,#227,.F.);
#173=ORIENTED_EDGE('',*,*,#228,.T.);
#174=ORIENTED_EDGE('',*,*,#227,.T.);
#175=ORIENTED_EDGE('',*,*,#229,.F.);
#176=ORIENTED_EDGE('',*,*,#230,.F.);
#177=ORIENTED_EDGE('',*,*,#229,.T.);
#178=ORIENTED_EDGE('',*,*,#231,.F.);
#179=ORIENTED_EDGE('',*,*,#230,.T.);
#180=ORIENTED_EDGE('',*,*,#232,.F.);
#181=ORIENTED_EDGE('',*,*,#231,.T.);
#182=ORIENTED_EDGE('',*,*,#233,.F.);
#183=ORIENTED_EDGE('',*,*,#232,.T.);
#184=ORIENTED_EDGE('',*,*,#234,.F.);
#185=ORIENTED_EDGE('',*,*,#233,.T.);
#186=ORIENTED_EDGE('',*,*,#235,.F.);
#187=ORIENTED_EDGE('',*,*,#234,.T.);
#188=ORIENTED_EDGE('',*,*,#236,.F.);
#189=ORIENTED_EDGE('',*,*,#235,.T.);
#190=ORIENTED_EDGE('',*,*,#237,.F.);
#191=ORIENTED_EDGE('',*,*,#236,.T.);
#192=ORIENTED_EDGE('',*,*,#238,.F.);
#193=ORIENTED_EDGE('',*,*,#237,.T.);
#194=ORIENTED_EDGE('',*,*,#239,.F.);
#195=ORIENTED_EDGE('',*,*,#238,.T.);
#196=ORIENTED_EDGE('',*,*,#240,.F.);
#197=ORIENTED_EDGE('',*,*,#239,.T.);
#198=ORIENTED_EDGE('',*,*,#241,.F.);
#199=ORIENTED_EDGE('',*,*,#240,.T.);
#200=ORIENTED_EDGE('',*,*,#242,.F.);
#201=ORIENTED_EDGE('',*,*,#241,.T.);
#202=ORIENTED_EDGE('',*,*,#243,.F.);
#203=ORIENTED_EDGE('',*,*,#242,.T.);
#204=ORIENTED_EDGE('',*,*,#228,.F.);
#205=ORIENTED_EDGE('',*,*,#243,.T.);
#206=VERTEX_POINT('',#379);
#207=VERTEX_POINT('',#381);
#208=VERTEX_POINT('',#460);
#209=VERTEX_POINT('',#462);
#210=VERTEX_POINT('',#466);
#211=VERTEX_POINT('',#469);
#212=VERTEX_POINT('',#472);
#213=VERTEX_POINT('',#475);
#214=VERTEX_POINT('',#478);
#215=VERTEX_POINT('',#481);
#216=VERTEX_POINT('',#484);
#217=VERTEX_POINT('',#487);
#218=VERTEX_POINT('',#490);
#219=VERTEX_POINT('',#493);
#220=VERTEX_POINT('',#496);
#221=VERTEX_POINT('',#499);
#222=VERTEX_POINT('',#502);
#223=VERTEX_POINT('',#505);
#224=VERTEX_POINT('',#508);
#225=EDGE_CURVE('',#206,#206,#244,.T.);
#226=EDGE_CURVE('',#207,#207,#245,.T.);
#227=EDGE_CURVE('',#208,#208,#246,.T.);
#228=EDGE_CURVE('',#209,#209,#247,.T.);
#229=EDGE_CURVE('',#210,#210,#248,.T.);
#230=EDGE_CURVE('',#211,#211,#249,.T.);
#231=EDGE_CURVE('',#212,#212,#250,.T.);
#232=EDGE_CURVE('',#213,#213,#251,.T.);
#233=EDGE_CURVE('',#214,#214,#252,.T.);
#234=EDGE_CURVE('',#215,#215,#253,.T.);
#235=EDGE_CURVE('',#216,#216,#254,.T.);
#236=EDGE_CURVE('',#217,#217,#255,.T.);
#237=EDGE_CURVE('',#218,#218,#256,.T.);
#238=EDGE_CURVE('',#219,#219,#257,.T.);
#239=EDGE_CURVE('',#220,#220,#258,.T.);
#240=EDGE_CURVE('',#221,#221,#259,.T.);
#241=EDGE_CURVE('',#222,#222,#260,.T.);
#242=EDGE_CURVE('',#223,#223,#261,.T.);
#243=EDGE_CURVE('',#224,#224,#262,.T.);
#244=CIRCLE('',#264,5.);
#245=CIRCLE('',#265,5.);
#246=CIRCLE('',#266,8.73700944610207);
#247=CIRCLE('',#267,15.2399068926113);
#248=CIRCLE('',#270,5.875);
#249=CIRCLE('',#272,7.875);
#250=CIRCLE('',#274,7.875);
#251=CIRCLE('',#276,8.5);
#252=CIRCLE('',#278,8.5);
#253=CIRCLE('',#280,8.3);
#254=CIRCLE('',#282,8.3);
#255=CIRCLE('',#284,8.80352761804101);
#256=CIRCLE('',#286,10.);
#257=CIRCLE('',#288,14.);
#258=CIRCLE('',#290,14.5);
#259=CIRCLE('',#292,14.5);
#260=CIRCLE('',#294,14.3);
#261=CIRCLE('',#296,14.3);
#262=CIRCLE('',#298,14.4206147584282);
#263=AXIS2_PLACEMENT_3D('',#377,#301,#302);
#264=AXIS2_PLACEMENT_3D('',#378,#303,#304);
#265=AXIS2_PLACEMENT_3D('',#380,#305,#306);
#266=AXIS2_PLACEMENT_3D('',#459,#307,#308);
#267=AXIS2_PLACEMENT_3D('',#461,#309,#310);
#268=AXIS2_PLACEMENT_3D('',#463,#311,#312);
#269=AXIS2_PLACEMENT_3D('',#464,#313,#314);
#270=AXIS2_PLACEMENT_3D('',#465,#315,#316);
#271=AXIS2_PLACEMENT_3D('',#467,#317,#318);
#272=AXIS2_PLACEMENT_3D('',#468,#319,#320);
#273=AXIS2_PLACEMENT_3D('',#470,#321,#322);
#274=AXIS2_PLACEMENT_3D('',#471,#323,#324);
#275=AXIS2_PLACEMENT_3D('',#473,#325,#326);
#276=AXIS2_PLACEMENT_3D('',#474,#327,#328);
#277=AXIS2_PLACEMENT_3D('',#476,#329,#330);
#278=AXIS2_PLACEMENT_3D('',#477,#331,#332);
#279=AXIS2_PLACEMENT_3D('',#479,#333,#334);
#280=AXIS2_PLACEMENT_3D('',#480,#335,#336);
#281=AXIS2_PLACEMENT_3D('',#482,#337,#338);
#282=AXIS2_PLACEMENT_3D('',#483,#339,#340);
#283=AXIS2_PLACEMENT_3D('',#485,#341,#342);
#284=AXIS2_PLACEMENT_3D('',#486,#343,#344);
#285=AXIS2_PLACEMENT_3D('',#488,#345,#346);
#286=AXIS2_PLACEMENT_3D('',#489,#347,#348);
#287=AXIS2_PLACEMENT_3D('',#491,#349,#350);
#288=AXIS2_PLACEMENT_3D('',#492,#351,#352);
#289=AXIS2_PLACEMENT_3D('',#494,#353,#354);
#290=AXIS2_PLACEMENT_3D('',#495,#355,#356);
#291=AXIS2_PLACEMENT_3D('',#497,#357,#358);
#292=AXIS2_PLACEMENT_3D('',#498,#359,#360);
#293=AXIS2_PLACEMENT_3D('',#500,#361,#362);
#294=AXIS2_PLACEMENT_3D('',#501,#363,#364);
#295=AXIS2_PLACEMENT_3D('',#503,#365,#366);
#296=AXIS2_PLACEMENT_3D('',#504,#367,#368);
#297=AXIS2_PLACEMENT_3D('',#506,#369,#370);
#298=AXIS2_PLACEMENT_3D('',#507,#371,#372);
#299=AXIS2_PLACEMENT_3D('',#509,#373,#374);
#300=AXIS2_PLACEMENT_3D('',#510,#375,#376);
#301=DIRECTION('',(0.,0.,1.));
#302=DIRECTION('',(1.,0.,0.));
#303=DIRECTION('',(0.0871557427476584,0.994686840716006,-0.0547901944924002));
#304=DIRECTION('',(0.996194698091746,-0.0870238223210672,0.00479352089046564));
#305=DIRECTION('',(-0.0871557427476584,0.,-0.996194698091746));
#306=DIRECTION('',(0.996194698091746,0.,-0.0871557427476584));
#307=DIRECTION('',(-1.,0.,0.));
#308=DIRECTION('',(0.,0.,1.));
#309=DIRECTION('',(-1.,0.,0.));
#310=DIRECTION('',(0.,0.,1.));
#311=DIRECTION('',(-1.,0.,0.));
#312=DIRECTION('',(0.,0.,1.));
#313=DIRECTION('',(1.,0.,0.));
#314=DIRECTION('',(0.,0.,-1.));
#315=DIRECTION('',(-1.,0.,0.));
#316=DIRECTION('',(0.,0.,1.));
#317=DIRECTION('',(-1.,0.,0.));
#318=DIRECTION('',(0.,0.,1.));
#319=DIRECTION('',(-1.,0.,0.));
#320=DIRECTION('',(0.,0.,1.));
#321=DIRECTION('',(-1.,0.,0.));
#322=DIRECTION('',(5.51869280290865E-17,0.,1.));
#323=DIRECTION('',(-1.,0.,0.));
#324=DIRECTION('',(0.,0.,1.));
#325=DIRECTION('',(-1.,0.,0.));
#326=DIRECTION('',(0.,0.,1.));
#327=DIRECTION('',(-1.,0.,0.));
#328=DIRECTION('',(0.,0.,1.));
#329=DIRECTION('',(-1.,0.,0.));
#330=DIRECTION('',(7.11407480423621E-17,0.,1.));
#331=DIRECTION('',(-1.,0.,0.));
#332=DIRECTION('',(0.,0.,1.));
#333=DIRECTION('',(-1.,0.,0.));
#334=DIRECTION('',(0.,0.,1.));
#335=DIRECTION('',(-1.,0.,0.));
#336=DIRECTION('',(0.,0.,1.));
#337=DIRECTION('',(1.,0.,0.));
#338=DIRECTION('',(5.02001387154426E-17,0.,-1.));
#339=DIRECTION('',(-1.,0.,0.));
#340=DIRECTION('',(0.,0.,1.));
#341=DIRECTION('',(-1.,0.,0.));
#342=DIRECTION('',(0.,0.,1.));
#343=DIRECTION('',(-1.,0.,0.));
#344=DIRECTION('',(0.,0.,1.));
#345=DIRECTION('',(-1.,0.,0.));
#346=DIRECTION('',(0.,0.,1.));
#347=DIRECTION('',(-1.,0.,0.));
#348=DIRECTION('',(0.,0.,1.));
#349=DIRECTION('',(1.,0.,0.));
#350=DIRECTION('',(-9.27447754198718E-18,0.,-1.));
#351=DIRECTION('',(-1.,0.,0.));
#352=DIRECTION('',(0.,0.,1.));
#353=DIRECTION('',(-1.,0.,0.));
#354=DIRECTION('',(0.,0.,1.));
#355=DIRECTION('',(-1.,0.,0.));
#356=DIRECTION('',(0.,0.,1.));
#357=DIRECTION('',(-1.,0.,0.));
#358=DIRECTION('',(4.10585438101021E-17,0.,1.));
#359=DIRECTION('',(-1.,0.,0.));
#360=DIRECTION('',(0.,0.,1.));
#361=DIRECTION('',(-1.,0.,0.));
#362=DIRECTION('',(0.,0.,1.));
#363=DIRECTION('',(-1.,0.,0.));
#364=DIRECTION('',(0.,0.,1.));
#365=DIRECTION('',(1.,0.,0.));
#366=DIRECTION('',(1.36794359860176E-17,0.,-1.));
#367=DIRECTION('',(-1.,0.,0.));
#368=DIRECTION('',(0.,0.,1.));
#369=DIRECTION('',(-1.,0.,0.));
#370=DIRECTION('',(0.,0.,1.));
#371=DIRECTION('',(-1.,0.,0.));
#372=DIRECTION('',(0.,0.,1.));
#373=DIRECTION('',(-1.,0.,0.));
#374=DIRECTION('',(0.,0.,1.));
#375=DIRECTION('',(-1.,0.,0.));
#376=DIRECTION('',(8.25205542049205E-17,0.,1.));
#377=CARTESIAN_POINT('',(0.,0.,0.));
#378=CARTESIAN_POINT('',(4.98097349045873,0.169608309625708,11.0024723112038));
#379=CARTESIAN_POINT('',(9.96194698091746,-0.265510801979628,11.0264399156561));
#380=CARTESIAN_POINT('',(4.98097349045873,-10.99514715,-0.435778713738292));
#381=CARTESIAN_POINT('',(9.96194698091746,-10.99514715,-0.871557427476584));
#382=CARTESIAN_POINT('',(9.96194698091746,-10.99514715,-0.871557427476584));
#383=CARTESIAN_POINT('',(9.96194698091746,-10.1010343124957,-12.1512527259576));
#384=CARTESIAN_POINT('',(9.96194698091746,0.613172381949713,-15.7894856351409));
#385=CARTESIAN_POINT('',(9.96194698091746,8.19092116749812,-7.38658809108603));
#386=CARTESIAN_POINT('',(9.96194698091746,15.7686699530465,1.01630945296883));
#387=CARTESIAN_POINT('',(9.96194698091746,11.0462871011171,11.2988219860303));
#388=CARTESIAN_POINT('',(9.96194698091746,-0.265510801979625,11.0264399156561));
#389=CARTESIAN_POINT('',(9.96194698091746,-0.995147149999996,-0.871557427476583));
#390=CARTESIAN_POINT('',(9.96194698091748,-0.1010343124957,-1.89245841916106));
#391=CARTESIAN_POINT('',(9.96194698091748,1.1901848871928,-1.4748107454358));
#392=CARTESIAN_POINT('',(9.96194698091746,1.31705574887931,-0.123670343602133));
#393=CARTESIAN_POINT('',(9.96194698091748,1.44392661056583,1.22747005823154));
#394=CARTESIAN_POINT('',(9.96194698091748,0.253025839936832,1.87818655220383));
#395=CARTESIAN_POINT('',(9.96194698091746,-0.815505643322923,1.04157608711566));
#396=CARTESIAN_POINT('',(-1.38209856561959E-15,-0.995147149999996,1.10105433113871E-16));
#397=CARTESIAN_POINT('',(-1.38209856561959E-15,-0.995147149999998,-1.02090099168447));
#398=CARTESIAN_POINT('',(-1.38209856561959E-15,-0.0574212350107018,-1.42452079196665));
#399=CARTESIAN_POINT('',(-1.38209856561959E-15,0.684050758082203,-0.722767189709299));
#400=CARTESIAN_POINT('',(-1.38209856561959E-15,1.42552275117511,-0.0210135874519455));
#401=CARTESIAN_POINT('',(-1.38209856561959E-15,1.07408831832689,0.937491850316138));
#402=CARTESIAN_POINT('',(-1.38209856561959E-15,0.0547325798877484,0.993640878211009));
#403=CARTESIAN_POINT('',(-2.60208521396521E-15,-10.99514715,2.16840434497101E-16));
#404=CARTESIAN_POINT('',(-2.60208521396521E-15,-10.99514715,-11.279695298481));
#405=CARTESIAN_POINT('',(-2.60208521396521E-15,-0.63443374025379,-15.7391956816717));
#406=CARTESIAN_POINT('',(-2.60208521396521E-15,7.55791617670101,-7.98568493719319));
#407=CARTESIAN_POINT('',(-2.60208521396521E-15,15.7502660936558,-0.232174192714648));
#408=CARTESIAN_POINT('',(-2.60208521396521E-15,11.8673495795071,10.3581272841426));
#409=CARTESIAN_POINT('',(-2.60208521396521E-15,0.604727421231047,10.9785047067515));
#410=CARTESIAN_POINT('',(-3.82207186231083E-15,-20.99514715,3.23575435880331E-16));
#411=CARTESIAN_POINT('',(-3.82207186231083E-15,-20.99514715,-21.5384896052775));
#412=CARTESIAN_POINT('',(-3.82207186231083E-15,-1.21144624549688,-30.0538705713768));
#413=CARTESIAN_POINT('',(-3.82207186231083E-15,14.4317815953198,-15.2486026846771));
#414=CARTESIAN_POINT('',(-3.82207186231083E-15,30.0750094361366,-0.443334797977351));
#415=CARTESIAN_POINT('',(-3.82207186231083E-15,22.6606108406873,19.7787627179691));
#416=CARTESIAN_POINT('',(-3.82207186231083E-15,1.15472226257434,20.9633685352919));
#417=CARTESIAN_POINT('',(9.96194698091746,-20.99514715,-0.871557427476583));
#418=CARTESIAN_POINT('',(9.96194698091748,-20.1010343124957,-22.4100470327541));
#419=CARTESIAN_POINT('',(9.96194698091748,0.0361598767066249,-30.104160524846));
#420=CARTESIAN_POINT('',(9.96194698091746,15.0647865861169,-14.6495058385699));
#421=CARTESIAN_POINT('',(9.96194698091748,30.0934132955273,0.805148847706132));
#422=CARTESIAN_POINT('',(9.96194698091748,21.8395483622973,20.7194574198568));
#423=CARTESIAN_POINT('',(9.96194698091746,0.284484039363673,21.0113037441966));
#424=CARTESIAN_POINT('',(9.96194698091746,-10.99514715,-0.871557427476584));
#425=CARTESIAN_POINT('',(9.96194698091746,-10.1010343124957,-12.1512527259576));
#426=CARTESIAN_POINT('',(9.96194698091746,0.613172381949713,-15.7894856351409));
#427=CARTESIAN_POINT('',(9.96194698091746,8.19092116749812,-7.38658809108603));
#428=CARTESIAN_POINT('',(9.96194698091746,15.7686699530465,1.01630945296883));
#429=CARTESIAN_POINT('',(9.96194698091746,11.0462871011171,11.2988219860303));
#430=CARTESIAN_POINT('',(9.96194698091746,-0.265510801979625,11.0264399156561));
#431=CARTESIAN_POINT('',(9.96194698091746,-0.265510801979628,11.0264399156561));
#432=CARTESIAN_POINT('',(9.96194698091746,-7.01008161624941,10.864034241694));
#433=CARTESIAN_POINT('',(9.96194698091746,-11.5282549194417,5.85387246047821));
#434=CARTESIAN_POINT('',(9.96194698091746,-10.99514715,-0.871557427476583));
#435=CARTESIAN_POINT('',(9.96194698091746,-0.815505643322925,1.04157608711566));
#436=CARTESIAN_POINT('',(9.96194698091746,-1.45260916283941,0.542753656403603));
#437=CARTESIAN_POINT('',(9.96194698091746,-1.52825491944172,-0.262853215134776));
#438=CARTESIAN_POINT('',(9.96194698091746,-0.995147149999996,-0.871557427476583));
#439=CARTESIAN_POINT('',(-1.38209856561959E-15,0.0547325798877483,0.993640878211009));
#440=CARTESIAN_POINT('',(-1.38209856561959E-15,-0.553050287321445,1.0271192958802));
#441=CARTESIAN_POINT('',(-1.38209856561959E-15,-0.995147149999997,0.608704212341808));
#442=CARTESIAN_POINT('',(-1.38209856561959E-15,-0.995147149999996,1.42301535138722E-16));
#443=CARTESIAN_POINT('',(-2.60208521396521E-15,0.604727421231044,10.9785047067515));
#444=CARTESIAN_POINT('',(-2.60208521396521E-15,-6.11052274073144,11.3483998811706));
#445=CARTESIAN_POINT('',(-2.60208521396521E-15,-10.99514715,6.72542988795481));
#446=CARTESIAN_POINT('',(-2.60208521396521E-15,-10.99514715,5.42101086242752E-16));
#447=CARTESIAN_POINT('',(-3.82207186231083E-15,1.15472226257434,20.9633685352919));
#448=CARTESIAN_POINT('',(-3.82207186231083E-15,-11.6679951941414,21.669680466461));
#449=CARTESIAN_POINT('',(-3.82207186231083E-15,-20.99514715,12.8421555635678));
#450=CARTESIAN_POINT('',(-3.82207186231083E-15,-20.99514715,1.0842021724855E-15));
#451=CARTESIAN_POINT('',(9.96194698091746,0.284484039363668,21.0113037441966));
#452=CARTESIAN_POINT('',(9.96194698091746,-12.5675540696594,21.1853148269844));
#453=CARTESIAN_POINT('',(9.96194698091746,-21.5282549194417,11.9705981360912));
#454=CARTESIAN_POINT('',(9.96194698091746,-20.99514715,-0.871557427476583));
#455=CARTESIAN_POINT('',(9.96194698091746,-0.265510801979628,11.0264399156561));
#456=CARTESIAN_POINT('',(9.96194698091746,-7.01008161624941,10.864034241694));
#457=CARTESIAN_POINT('',(9.96194698091746,-11.5282549194417,5.85387246047821));
#458=CARTESIAN_POINT('',(9.96194698091746,-10.99514715,-0.871557427476583));
#459=CARTESIAN_POINT('',(3.,0.,0.));
#460=CARTESIAN_POINT('',(3.,0.,8.73700944610207));
#461=CARTESIAN_POINT('',(6.05462489275186,0.,0.));
#462=CARTESIAN_POINT('',(6.05462489275186,0.,15.2399068926113));
#463=CARTESIAN_POINT('',(4.55488872657565,0.,0.));
#464=CARTESIAN_POINT('',(3.,8.73700944610207,0.));
#465=CARTESIAN_POINT('',(68.,0.,0.));
#466=CARTESIAN_POINT('',(68.,0.,5.875));
#467=CARTESIAN_POINT('',(68.,0.,0.));
#468=CARTESIAN_POINT('',(66.,0.,0.));
#469=CARTESIAN_POINT('',(66.,0.,7.875));
#470=CARTESIAN_POINT('',(68.,0.,0.));
#471=CARTESIAN_POINT('',(50.0825317547305,0.,0.));
#472=CARTESIAN_POINT('',(50.0825317547305,0.,7.875));
#473=CARTESIAN_POINT('',(0.,0.,0.));
#474=CARTESIAN_POINT('',(49.,0.,0.));
#475=CARTESIAN_POINT('',(49.,0.,8.5));
#476=CARTESIAN_POINT('',(50.0825317547305,0.,0.));
#477=CARTESIAN_POINT('',(44.2,0.,0.));
#478=CARTESIAN_POINT('',(44.2,0.,8.5));
#479=CARTESIAN_POINT('',(0.,0.,0.));
#480=CARTESIAN_POINT('',(43.4535898384862,0.,0.));
#481=CARTESIAN_POINT('',(43.4535898384862,0.,8.3));
#482=CARTESIAN_POINT('',(44.2,0.,0.));
#483=CARTESIAN_POINT('',(43.0657765220036,0.,0.));
#484=CARTESIAN_POINT('',(43.0657765220036,0.,8.3));
#485=CARTESIAN_POINT('',(0.,0.,0.));
#486=CARTESIAN_POINT('',(42.6794061914879,0.,0.));
#487=CARTESIAN_POINT('',(42.6794061914879,0.,8.80352761804101));
#488=CARTESIAN_POINT('',(43.0657765220036,0.,0.));
#489=CARTESIAN_POINT('',(43.,0.,0.));
#490=CARTESIAN_POINT('',(43.,0.,10.));
#491=CARTESIAN_POINT('',(42.6794061914879,0.,0.));
#492=CARTESIAN_POINT('',(43.,0.,0.));
#493=CARTESIAN_POINT('',(43.,0.,14.));
#494=CARTESIAN_POINT('',(43.,14.,0.));
#495=CARTESIAN_POINT('',(42.5,0.,0.));
#496=CARTESIAN_POINT('',(42.5,0.,14.5));
#497=CARTESIAN_POINT('',(43.,0.,0.));
#498=CARTESIAN_POINT('',(38.2,0.,0.));
#499=CARTESIAN_POINT('',(38.2,0.,14.5));
#500=CARTESIAN_POINT('',(0.,0.,0.));
#501=CARTESIAN_POINT('',(38.,0.,0.));
#502=CARTESIAN_POINT('',(38.,0.,14.3));
#503=CARTESIAN_POINT('',(38.2,0.,0.));
#504=CARTESIAN_POINT('',(8.98965181800797,0.,0.));
#505=CARTESIAN_POINT('',(8.98965181800797,0.,14.3));
#506=CARTESIAN_POINT('',(0.,0.,0.));
#507=CARTESIAN_POINT('',(8.30561153135664,0.,0.));
#508=CARTESIAN_POINT('',(8.30561153135664,0.,14.4206147584282));
#509=CARTESIAN_POINT('',(8.98965181800797,0.,0.));
#510=CARTESIAN_POINT('',(8.30561153135664,0.,0.));
#511=MECHANICAL_DESIGN_GEOMETRIC_PRESENTATION_REPRESENTATION('',(#53,#54),
#512);
#512=(
GEOMETRIC_REPRESENTATION_CONTEXT(3)
GLOBAL_UNCERTAINTY_ASSIGNED_CONTEXT((#513))
GLOBAL_UNIT_ASSIGNED_CONTEXT((#519,#515,#514))
REPRESENTATION_CONTEXT('AEMR-RD1004-D32-M16-L43-Z04-H',
'TOP_LEVEL_ASSEMBLY_PART')
);
#513=UNCERTAINTY_MEASURE_WITH_UNIT(LENGTH_MEASURE(2.E-5),#519,
'DISTANCE_ACCURACY_VALUE','Maximum Tolerance applied to model');
#514=(
NAMED_UNIT(*)
SI_UNIT($,.STERADIAN.)
SOLID_ANGLE_UNIT()
);
#515=(
CONVERSION_BASED_UNIT('DEGREE',#517)
NAMED_UNIT(#516)
PLANE_ANGLE_UNIT()
);
#516=DIMENSIONAL_EXPONENTS(0.,0.,0.,0.,0.,0.,0.);
#517=PLANE_ANGLE_MEASURE_WITH_UNIT(PLANE_ANGLE_MEASURE(0.0174532925),#518);
#518=(
NAMED_UNIT(*)
PLANE_ANGLE_UNIT()
SI_UNIT($,.RADIAN.)
);
#519=(
LENGTH_UNIT()
NAMED_UNIT(*)
SI_UNIT(.MILLI.,.METRE.)
);
ENDSEC;
END-ISO-10303-21;
