ISO-10303-21;
HEADER;
/* Generated by software containing ST-Developer
 * from STEP Tools, Inc. (www.steptools.com) 
 */
/* OPTION: using custom schema-name function */

FILE_DESCRIPTION(
/* description */ (''),
/* implementation_level */ '2;1');

FILE_NAME(
/* name */ 'AEMR-RD1004-D42-M16-L43-Z05-H.stp',
/* time_stamp */ '2023-10-20T17:51:57+03:00',
/* author */ (''),
/* organization */ (''),
/* preprocessor_version */ 'ST-DEVELOPER v19.4',
/* originating_system */ 'SIEMENS PLM Software NX2306.5001',
/* authorisation */ '');

FILE_SCHEMA (('AUTOMOTIVE_DESIGN { 1 0 10303 214 3 1 1 1 }'));
ENDSEC;

DATA;
#10=PROPERTY_DEFINITION_REPRESENTATION(#14,#12);
#11=PROPERTY_DEFINITION_REPRESENTATION(#15,#13);
#12=REPRESENTATION('',(#16),#448);
#13=REPRESENTATION('',(#17),#448);
#14=PROPERTY_DEFINITION('pmi validation property','',#21);
#15=PROPERTY_DEFINITION('pmi validation property','',#21);
#16=VALUE_REPRESENTATION_ITEM('number of annotations',COUNT_MEASURE(0.));
#17=VALUE_REPRESENTATION_ITEM('number of views',COUNT_MEASURE(0.));
#18=SHAPE_REPRESENTATION_RELATIONSHIP('None',
'relationship between AEMR-RD1004-D42-M16-L43-Z05-H-LIGHT_x_t_objects-
None and AEMR-RD1004-D42-M16-L43-Z05-H-LIGHT_x_t_objects-None',#30,#19);
#19=ADVANCED_BREP_SHAPE_REPRESENTATION(
'AEMR-RD1004-D42-M16-L43-Z05-H-LIGHT_x_t_objects-None',(#49,#50),#448);
#20=SHAPE_DEFINITION_REPRESENTATION(#21,#30);
#21=PRODUCT_DEFINITION_SHAPE('','',#22);
#22=PRODUCT_DEFINITION(' ','',#24,#23);
#23=PRODUCT_DEFINITION_CONTEXT('part definition',#29,'design');
#24=PRODUCT_DEFINITION_FORMATION_WITH_SPECIFIED_SOURCE(' ',' ',#26,
 .NOT_KNOWN.);
#25=PRODUCT_RELATED_PRODUCT_CATEGORY('part','',(#26));
#26=PRODUCT('AEMR-RD1004-D42-M16-L43-Z05-H-LIGHT_x_t_objects',
'AEMR-RD1004-D42-M16-L43-Z05-H-LIGHT_x_t_objects',' ',(#27));
#27=PRODUCT_CONTEXT(' ',#29,'mechanical');
#28=APPLICATION_PROTOCOL_DEFINITION('international standard',
'automotive_design',2010,#29);
#29=APPLICATION_CONTEXT(
'core data for automotive mechanical design processes');
#30=SHAPE_REPRESENTATION(
'AEMR-RD1004-D42-M16-L43-Z05-H-LIGHT_x_t_objects-None',(#241),#448);
#31=DRAUGHTING_PRE_DEFINED_COLOUR('yellow');
#32=(
BOUNDED_SURFACE()
B_SPLINE_SURFACE(3,3,((#398,#399,#400,#401,#402,#403,#404),(#405,#406,#407,
#408,#409,#410,#411),(#412,#413,#414,#415,#416,#417,#418),(#419,#420,#421,
#422,#423,#424,#425),(#426,#427,#428,#429,#430,#431,#432),(#433,#434,#435,
#436,#437,#438,#439),(#440,#441,#442,#443,#444,#445,#446)),
 .UNSPECIFIED.,.T.,.T.,.F.)
B_SPLINE_SURFACE_WITH_KNOTS((1,3,3,3,1),(1,3,3,3,1),(-0.5,0.,0.5,1.,1.5),
(-0.5,0.,0.5,1.,1.5),.UNSPECIFIED.)
GEOMETRIC_REPRESENTATION_ITEM()
RATIONAL_B_SPLINE_SURFACE(((1.,0.333333333333334,0.333333333333334,1.,0.333333333333334,
0.333333333333334,1.),(0.333333333333334,0.111111111111111,0.111111111111111,
0.333333333333334,0.111111111111111,0.111111111111111,0.333333333333334),
(0.333333333333334,0.111111111111111,0.111111111111111,0.333333333333334,
0.111111111111111,0.111111111111111,0.333333333333334),(1.,0.333333333333334,
0.333333333333334,1.,0.333333333333334,0.333333333333334,1.),(0.333333333333334,
0.111111111111111,0.111111111111111,0.333333333333334,0.111111111111111,
0.111111111111111,0.333333333333334),(0.333333333333334,0.111111111111111,
0.111111111111111,0.333333333333334,0.111111111111111,0.111111111111111,
0.333333333333334),(1.,0.333333333333334,0.333333333333334,1.,0.333333333333334,
0.333333333333334,1.)))
REPRESENTATION_ITEM('')
SURFACE()
);
#33=PRESENTATION_LAYER_ASSIGNMENT('1','Layer 1',(#49,#50));
#34=STYLED_ITEM('',(#36),#49);
#35=STYLED_ITEM('',(#37),#50);
#36=PRESENTATION_STYLE_ASSIGNMENT((#38));
#37=PRESENTATION_STYLE_ASSIGNMENT((#39));
#38=SURFACE_STYLE_USAGE(.BOTH.,#40);
#39=SURFACE_STYLE_USAGE(.BOTH.,#41);
#40=SURFACE_SIDE_STYLE('',(#42));
#41=SURFACE_SIDE_STYLE('',(#43));
#42=SURFACE_STYLE_FILL_AREA(#44);
#43=SURFACE_STYLE_FILL_AREA(#45);
#44=FILL_AREA_STYLE('',(#46));
#45=FILL_AREA_STYLE('',(#47));
#46=FILL_AREA_STYLE_COLOUR('',#48);
#47=FILL_AREA_STYLE_COLOUR('',#31);
#48=COLOUR_RGB('silver gray',0.6,0.6,0.6);
#49=MANIFOLD_SOLID_BREP('',#51);
#50=MANIFOLD_SOLID_BREP('',#52);
#51=CLOSED_SHELL('',(#69,#70,#71,#72,#73,#74,#75,#76,#77,#78,#79,#80,#81,
#82,#83,#84,#85));
#52=CLOSED_SHELL('',(#86));
#53=FACE_OUTER_BOUND('',#142,.T.);
#54=FACE_OUTER_BOUND('',#143,.T.);
#55=CYLINDRICAL_SURFACE('',#252,14.5);
#56=CYLINDRICAL_SURFACE('',#256,14.3);
#57=CYLINDRICAL_SURFACE('',#269,7.875);
#58=CYLINDRICAL_SURFACE('',#273,8.5);
#59=PLANE('',#248);
#60=PLANE('',#263);
#61=PLANE('',#265);
#62=CONICAL_SURFACE('',#246,9.03529142706151,75.0000000000001);
#63=CONICAL_SURFACE('',#250,14.,44.9999999999999);
#64=CONICAL_SURFACE('',#254,14.5,44.9999999999992);
#65=CONICAL_SURFACE('',#260,15.2046106882114,20.0000000000001);
#66=CONICAL_SURFACE('',#267,5.875,45.0000000000002);
#67=CONICAL_SURFACE('',#271,7.875,30.0000000000004);
#68=CONICAL_SURFACE('',#274,8.5,14.9999999999999);
#69=ADVANCED_FACE('',(#90,#91),#87,.F.);
#70=ADVANCED_FACE('',(#92,#93),#62,.F.);
#71=ADVANCED_FACE('',(#94,#95),#59,.F.);
#72=ADVANCED_FACE('',(#96,#97),#63,.T.);
#73=ADVANCED_FACE('',(#98,#99),#55,.T.);
#74=ADVANCED_FACE('',(#100,#101),#64,.T.);
#75=ADVANCED_FACE('',(#102,#103),#56,.T.);
#76=ADVANCED_FACE('',(#104,#105),#88,.F.);
#77=ADVANCED_FACE('',(#106,#107),#65,.T.);
#78=ADVANCED_FACE('',(#108,#109),#89,.T.);
#79=ADVANCED_FACE('',(#53),#60,.F.);
#80=ADVANCED_FACE('',(#54),#61,.F.);
#81=ADVANCED_FACE('',(#110,#111),#66,.T.);
#82=ADVANCED_FACE('',(#112,#113),#57,.T.);
#83=ADVANCED_FACE('',(#114,#115),#67,.T.);
#84=ADVANCED_FACE('',(#116,#117),#58,.T.);
#85=ADVANCED_FACE('',(#118,#119),#68,.T.);
#86=ADVANCED_FACE('',(#120,#121),#32,.F.);
#87=TOROIDAL_SURFACE('',#244,8.88,0.6);
#88=TOROIDAL_SURFACE('',#258,29.3,15.);
#89=TOROIDAL_SURFACE('',#262,16.1233124906458,3.7801062371486);
#90=FACE_BOUND('',#122,.T.);
#91=FACE_BOUND('',#123,.T.);
#92=FACE_BOUND('',#124,.T.);
#93=FACE_BOUND('',#125,.T.);
#94=FACE_BOUND('',#126,.T.);
#95=FACE_BOUND('',#127,.T.);
#96=FACE_BOUND('',#128,.T.);
#97=FACE_BOUND('',#129,.T.);
#98=FACE_BOUND('',#130,.T.);
#99=FACE_BOUND('',#131,.T.);
#100=FACE_BOUND('',#132,.T.);
#101=FACE_BOUND('',#133,.T.);
#102=FACE_BOUND('',#134,.T.);
#103=FACE_BOUND('',#135,.T.);
#104=FACE_BOUND('',#136,.T.);
#105=FACE_BOUND('',#137,.T.);
#106=FACE_BOUND('',#138,.T.);
#107=FACE_BOUND('',#139,.T.);
#108=FACE_BOUND('',#140,.T.);
#109=FACE_BOUND('',#141,.T.);
#110=FACE_BOUND('',#144,.T.);
#111=FACE_BOUND('',#145,.T.);
#112=FACE_BOUND('',#146,.T.);
#113=FACE_BOUND('',#147,.T.);
#114=FACE_BOUND('',#148,.T.);
#115=FACE_BOUND('',#149,.T.);
#116=FACE_BOUND('',#150,.T.);
#117=FACE_BOUND('',#151,.T.);
#118=FACE_BOUND('',#152,.T.);
#119=FACE_BOUND('',#153,.T.);
#120=FACE_BOUND('',#154,.T.);
#121=FACE_BOUND('',#155,.T.);
#122=EDGE_LOOP('',(#156));
#123=EDGE_LOOP('',(#157));
#124=EDGE_LOOP('',(#158));
#125=EDGE_LOOP('',(#159));
#126=EDGE_LOOP('',(#160));
#127=EDGE_LOOP('',(#161));
#128=EDGE_LOOP('',(#162));
#129=EDGE_LOOP('',(#163));
#130=EDGE_LOOP('',(#164));
#131=EDGE_LOOP('',(#165));
#132=EDGE_LOOP('',(#166));
#133=EDGE_LOOP('',(#167));
#134=EDGE_LOOP('',(#168));
#135=EDGE_LOOP('',(#169));
#136=EDGE_LOOP('',(#170));
#137=EDGE_LOOP('',(#171));
#138=EDGE_LOOP('',(#172));
#139=EDGE_LOOP('',(#173));
#140=EDGE_LOOP('',(#174));
#141=EDGE_LOOP('',(#175));
#142=EDGE_LOOP('',(#176));
#143=EDGE_LOOP('',(#177));
#144=EDGE_LOOP('',(#178));
#145=EDGE_LOOP('',(#179));
#146=EDGE_LOOP('',(#180));
#147=EDGE_LOOP('',(#181));
#148=EDGE_LOOP('',(#182));
#149=EDGE_LOOP('',(#183));
#150=EDGE_LOOP('',(#184));
#151=EDGE_LOOP('',(#185));
#152=EDGE_LOOP('',(#186));
#153=EDGE_LOOP('',(#187));
#154=EDGE_LOOP('',(#188));
#155=EDGE_LOOP('',(#189));
#156=ORIENTED_EDGE('',*,*,#207,.F.);
#157=ORIENTED_EDGE('',*,*,#208,.T.);
#158=ORIENTED_EDGE('',*,*,#209,.F.);
#159=ORIENTED_EDGE('',*,*,#207,.T.);
#160=ORIENTED_EDGE('',*,*,#210,.F.);
#161=ORIENTED_EDGE('',*,*,#209,.T.);
#162=ORIENTED_EDGE('',*,*,#211,.F.);
#163=ORIENTED_EDGE('',*,*,#210,.T.);
#164=ORIENTED_EDGE('',*,*,#212,.F.);
#165=ORIENTED_EDGE('',*,*,#211,.T.);
#166=ORIENTED_EDGE('',*,*,#213,.F.);
#167=ORIENTED_EDGE('',*,*,#212,.T.);
#168=ORIENTED_EDGE('',*,*,#214,.F.);
#169=ORIENTED_EDGE('',*,*,#213,.T.);
#170=ORIENTED_EDGE('',*,*,#215,.F.);
#171=ORIENTED_EDGE('',*,*,#214,.T.);
#172=ORIENTED_EDGE('',*,*,#216,.F.);
#173=ORIENTED_EDGE('',*,*,#215,.T.);
#174=ORIENTED_EDGE('',*,*,#217,.F.);
#175=ORIENTED_EDGE('',*,*,#216,.T.);
#176=ORIENTED_EDGE('',*,*,#217,.T.);
#177=ORIENTED_EDGE('',*,*,#218,.F.);
#178=ORIENTED_EDGE('',*,*,#219,.F.);
#179=ORIENTED_EDGE('',*,*,#218,.T.);
#180=ORIENTED_EDGE('',*,*,#220,.F.);
#181=ORIENTED_EDGE('',*,*,#219,.T.);
#182=ORIENTED_EDGE('',*,*,#221,.F.);
#183=ORIENTED_EDGE('',*,*,#220,.T.);
#184=ORIENTED_EDGE('',*,*,#222,.F.);
#185=ORIENTED_EDGE('',*,*,#221,.T.);
#186=ORIENTED_EDGE('',*,*,#208,.F.);
#187=ORIENTED_EDGE('',*,*,#222,.T.);
#188=ORIENTED_EDGE('',*,*,#223,.T.);
#189=ORIENTED_EDGE('',*,*,#223,.F.);
#190=VERTEX_POINT('',#348);
#191=VERTEX_POINT('',#350);
#192=VERTEX_POINT('',#353);
#193=VERTEX_POINT('',#356);
#194=VERTEX_POINT('',#359);
#195=VERTEX_POINT('',#362);
#196=VERTEX_POINT('',#365);
#197=VERTEX_POINT('',#368);
#198=VERTEX_POINT('',#371);
#199=VERTEX_POINT('',#374);
#200=VERTEX_POINT('',#377);
#201=VERTEX_POINT('',#381);
#202=VERTEX_POINT('',#384);
#203=VERTEX_POINT('',#387);
#204=VERTEX_POINT('',#390);
#205=VERTEX_POINT('',#393);
#206=VERTEX_POINT('',#397);
#207=EDGE_CURVE('',#190,#190,#224,.T.);
#208=EDGE_CURVE('',#191,#191,#225,.T.);
#209=EDGE_CURVE('',#192,#192,#226,.T.);
#210=EDGE_CURVE('',#193,#193,#227,.T.);
#211=EDGE_CURVE('',#194,#194,#228,.T.);
#212=EDGE_CURVE('',#195,#195,#229,.T.);
#213=EDGE_CURVE('',#196,#196,#230,.T.);
#214=EDGE_CURVE('',#197,#197,#231,.T.);
#215=EDGE_CURVE('',#198,#198,#232,.T.);
#216=EDGE_CURVE('',#199,#199,#233,.T.);
#217=EDGE_CURVE('',#200,#200,#234,.T.);
#218=EDGE_CURVE('',#201,#201,#235,.T.);
#219=EDGE_CURVE('',#202,#202,#236,.T.);
#220=EDGE_CURVE('',#203,#203,#237,.T.);
#221=EDGE_CURVE('',#204,#204,#238,.T.);
#222=EDGE_CURVE('',#205,#205,#239,.T.);
#223=EDGE_CURVE('',#206,#206,#240,.T.);
#224=CIRCLE('',#242,9.03529142706151);
#225=CIRCLE('',#243,8.30044450422656);
#226=CIRCLE('',#245,9.78004267621759);
#227=CIRCLE('',#247,14.);
#228=CIRCLE('',#249,14.5);
#229=CIRCLE('',#251,14.5);
#230=CIRCLE('',#253,14.3);
#231=CIRCLE('',#255,14.3);
#232=CIRCLE('',#257,15.2046106882114);
#233=CIRCLE('',#259,19.6754504274811);
#234=CIRCLE('',#261,12.7312457575628);
#235=CIRCLE('',#264,5.875);
#236=CIRCLE('',#266,7.875);
#237=CIRCLE('',#268,7.875);
#238=CIRCLE('',#270,8.5);
#239=CIRCLE('',#272,8.5);
#240=CIRCLE('',#275,5.);
#241=AXIS2_PLACEMENT_3D('',#346,#276,#277);
#242=AXIS2_PLACEMENT_3D('',#347,#278,#279);
#243=AXIS2_PLACEMENT_3D('',#349,#280,#281);
#244=AXIS2_PLACEMENT_3D('',#351,#282,#283);
#245=AXIS2_PLACEMENT_3D('',#352,#284,#285);
#246=AXIS2_PLACEMENT_3D('',#354,#286,#287);
#247=AXIS2_PLACEMENT_3D('',#355,#288,#289);
#248=AXIS2_PLACEMENT_3D('',#357,#290,#291);
#249=AXIS2_PLACEMENT_3D('',#358,#292,#293);
#250=AXIS2_PLACEMENT_3D('',#360,#294,#295);
#251=AXIS2_PLACEMENT_3D('',#361,#296,#297);
#252=AXIS2_PLACEMENT_3D('',#363,#298,#299);
#253=AXIS2_PLACEMENT_3D('',#364,#300,#301);
#254=AXIS2_PLACEMENT_3D('',#366,#302,#303);
#255=AXIS2_PLACEMENT_3D('',#367,#304,#305);
#256=AXIS2_PLACEMENT_3D('',#369,#306,#307);
#257=AXIS2_PLACEMENT_3D('',#370,#308,#309);
#258=AXIS2_PLACEMENT_3D('',#372,#310,#311);
#259=AXIS2_PLACEMENT_3D('',#373,#312,#313);
#260=AXIS2_PLACEMENT_3D('',#375,#314,#315);
#261=AXIS2_PLACEMENT_3D('',#376,#316,#317);
#262=AXIS2_PLACEMENT_3D('',#378,#318,#319);
#263=AXIS2_PLACEMENT_3D('',#379,#320,#321);
#264=AXIS2_PLACEMENT_3D('',#380,#322,#323);
#265=AXIS2_PLACEMENT_3D('',#382,#324,#325);
#266=AXIS2_PLACEMENT_3D('',#383,#326,#327);
#267=AXIS2_PLACEMENT_3D('',#385,#328,#329);
#268=AXIS2_PLACEMENT_3D('',#386,#330,#331);
#269=AXIS2_PLACEMENT_3D('',#388,#332,#333);
#270=AXIS2_PLACEMENT_3D('',#389,#334,#335);
#271=AXIS2_PLACEMENT_3D('',#391,#336,#337);
#272=AXIS2_PLACEMENT_3D('',#392,#338,#339);
#273=AXIS2_PLACEMENT_3D('',#394,#340,#341);
#274=AXIS2_PLACEMENT_3D('',#395,#342,#343);
#275=AXIS2_PLACEMENT_3D('',#396,#344,#345);
#276=DIRECTION('',(0.,0.,1.));
#277=DIRECTION('',(1.,0.,0.));
#278=DIRECTION('',(-1.,0.,0.));
#279=DIRECTION('',(0.,0.,1.));
#280=DIRECTION('',(-1.,0.,0.));
#281=DIRECTION('',(0.,0.,1.));
#282=DIRECTION('',(-1.,0.,0.));
#283=DIRECTION('',(0.,0.,1.));
#284=DIRECTION('',(-1.,0.,0.));
#285=DIRECTION('',(0.,0.,1.));
#286=DIRECTION('',(1.,0.,0.));
#287=DIRECTION('',(-1.66930253628554E-17,0.,-1.));
#288=DIRECTION('',(-1.,0.,0.));
#289=DIRECTION('',(0.,0.,1.));
#290=DIRECTION('',(-1.,0.,0.));
#291=DIRECTION('',(0.,0.,1.));
#292=DIRECTION('',(-1.,0.,0.));
#293=DIRECTION('',(0.,0.,1.));
#294=DIRECTION('',(-1.,0.,0.));
#295=DIRECTION('',(4.10585438101021E-17,0.,1.));
#296=DIRECTION('',(-1.,0.,0.));
#297=DIRECTION('',(0.,0.,1.));
#298=DIRECTION('',(-1.,0.,0.));
#299=DIRECTION('',(0.,0.,1.));
#300=DIRECTION('',(-1.,0.,0.));
#301=DIRECTION('',(0.,0.,1.));
#302=DIRECTION('',(1.,0.,0.));
#303=DIRECTION('',(1.36794359860176E-17,0.,-1.));
#304=DIRECTION('',(-1.,0.,0.));
#305=DIRECTION('',(0.,0.,1.));
#306=DIRECTION('',(-1.,0.,0.));
#307=DIRECTION('',(0.,0.,1.));
#308=DIRECTION('',(-1.,0.,0.));
#309=DIRECTION('',(0.,0.,1.));
#310=DIRECTION('',(-1.,0.,0.));
#311=DIRECTION('',(0.,0.,1.));
#312=DIRECTION('',(-1.,0.,0.));
#313=DIRECTION('',(0.,0.,1.));
#314=DIRECTION('',(-1.,0.,0.));
#315=DIRECTION('',(9.14999240619645E-18,0.,1.));
#316=DIRECTION('',(-1.,0.,0.));
#317=DIRECTION('',(0.,0.,1.));
#318=DIRECTION('',(-1.,0.,0.));
#319=DIRECTION('',(0.,0.,1.));
#320=DIRECTION('',(1.,0.,0.));
#321=DIRECTION('',(0.,0.,-1.));
#322=DIRECTION('',(-1.,0.,0.));
#323=DIRECTION('',(0.,0.,1.));
#324=DIRECTION('',(-1.,0.,0.));
#325=DIRECTION('',(0.,0.,1.));
#326=DIRECTION('',(-1.,0.,0.));
#327=DIRECTION('',(0.,0.,1.));
#328=DIRECTION('',(-1.,0.,0.));
#329=DIRECTION('',(5.51869280290865E-17,0.,1.));
#330=DIRECTION('',(-1.,0.,0.));
#331=DIRECTION('',(0.,0.,1.));
#332=DIRECTION('',(-1.,0.,0.));
#333=DIRECTION('',(0.,0.,1.));
#334=DIRECTION('',(-1.,0.,0.));
#335=DIRECTION('',(0.,0.,1.));
#336=DIRECTION('',(-1.,0.,0.));
#337=DIRECTION('',(7.11407480423621E-17,0.,1.));
#338=DIRECTION('',(-1.,0.,0.));
#339=DIRECTION('',(0.,0.,1.));
#340=DIRECTION('',(-1.,0.,0.));
#341=DIRECTION('',(0.,0.,1.));
#342=DIRECTION('',(1.,0.,0.));
#343=DIRECTION('',(-2.00800554861772E-16,0.,-1.));
#344=DIRECTION('',(0.0871557427476584,0.,0.996194698091746));
#345=DIRECTION('',(0.996194698091746,0.,-0.0871557427476584));
#346=CARTESIAN_POINT('',(0.,0.,0.));
#347=CARTESIAN_POINT('',(42.8004445042265,0.,0.));
#348=CARTESIAN_POINT('',(42.8004445042265,0.,9.03529142706151));
#349=CARTESIAN_POINT('',(43.5352914270615,0.,0.));
#350=CARTESIAN_POINT('',(43.5352914270615,0.,8.30044450422656));
#351=CARTESIAN_POINT('',(43.38,0.,0.));
#352=CARTESIAN_POINT('',(43.,0.,0.));
#353=CARTESIAN_POINT('',(43.,0.,9.78004267621759));
#354=CARTESIAN_POINT('',(42.8004445042265,0.,0.));
#355=CARTESIAN_POINT('',(43.,0.,0.));
#356=CARTESIAN_POINT('',(43.,0.,14.));
#357=CARTESIAN_POINT('',(43.,14.,0.));
#358=CARTESIAN_POINT('',(42.5,0.,0.));
#359=CARTESIAN_POINT('',(42.5,0.,14.5));
#360=CARTESIAN_POINT('',(43.,0.,0.));
#361=CARTESIAN_POINT('',(38.2,0.,0.));
#362=CARTESIAN_POINT('',(38.2,0.,14.5));
#363=CARTESIAN_POINT('',(0.,0.,0.));
#364=CARTESIAN_POINT('',(38.,0.,0.));
#365=CARTESIAN_POINT('',(38.,0.,14.3));
#366=CARTESIAN_POINT('',(38.2,0.,0.));
#367=CARTESIAN_POINT('',(23.374964362425,0.,0.));
#368=CARTESIAN_POINT('',(23.374964362425,0.,14.3));
#369=CARTESIAN_POINT('',(0.,0.,0.));
#370=CARTESIAN_POINT('',(18.24466221254,0.,0.));
#371=CARTESIAN_POINT('',(18.24466221254,0.,15.2046106882114));
#372=CARTESIAN_POINT('',(23.374964362425,0.,0.));
#373=CARTESIAN_POINT('',(5.96113098289609,0.,0.));
#374=CARTESIAN_POINT('',(5.96113098289609,0.,19.6754504274811));
#375=CARTESIAN_POINT('',(18.24466221254,0.,0.));
#376=CARTESIAN_POINT('',(3.,0.,0.));
#377=CARTESIAN_POINT('',(3.,0.,12.7312457575628));
#378=CARTESIAN_POINT('',(4.66825850588027,0.,0.));
#379=CARTESIAN_POINT('',(3.,12.7312457575628,0.));
#380=CARTESIAN_POINT('',(68.,0.,0.));
#381=CARTESIAN_POINT('',(68.,0.,5.875));
#382=CARTESIAN_POINT('',(68.,0.,0.));
#383=CARTESIAN_POINT('',(66.,0.,0.));
#384=CARTESIAN_POINT('',(66.,0.,7.875));
#385=CARTESIAN_POINT('',(68.,0.,0.));
#386=CARTESIAN_POINT('',(50.0825317547305,0.,0.));
#387=CARTESIAN_POINT('',(50.0825317547305,0.,7.875));
#388=CARTESIAN_POINT('',(0.,0.,0.));
#389=CARTESIAN_POINT('',(49.,0.,0.));
#390=CARTESIAN_POINT('',(49.,0.,8.5));
#391=CARTESIAN_POINT('',(50.0825317547305,0.,0.));
#392=CARTESIAN_POINT('',(44.2800426762176,0.,0.));
#393=CARTESIAN_POINT('',(44.2800426762176,0.,8.5));
#394=CARTESIAN_POINT('',(0.,0.,0.));
#395=CARTESIAN_POINT('',(44.2800426762176,0.,0.));
#396=CARTESIAN_POINT('',(4.98097349045873,-15.94148598,1.56422128626171));
#397=CARTESIAN_POINT('',(9.96194698091746,-15.94148598,1.12844257252342));
#398=CARTESIAN_POINT('',(9.96194698091746,-15.94148598,1.12844257252342));
#399=CARTESIAN_POINT('',(9.96194698091745,-18.1983711250468,-30.7545293874765));
#400=CARTESIAN_POINT('',(9.96194698091745,13.6846008349532,-33.0114145325234));
#401=CARTESIAN_POINT('',(9.96194698091746,15.94148598,-1.12844257252342));
#402=CARTESIAN_POINT('',(9.96194698091745,18.1983711250468,30.7545293874765));
#403=CARTESIAN_POINT('',(9.96194698091745,-13.6846008349532,33.0114145325234));
#404=CARTESIAN_POINT('',(9.96194698091746,-15.94148598,1.12844257252342));
#405=CARTESIAN_POINT('',(9.96194698091746,-5.94148597999999,1.12844257252342));
#406=CARTESIAN_POINT('',(9.96194698091747,-8.19837112504684,-10.7545293874766));
#407=CARTESIAN_POINT('',(9.96194698091747,3.68460083495317,-13.0114145325234));
#408=CARTESIAN_POINT('',(9.96194698091746,5.94148597999999,-1.12844257252342));
#409=CARTESIAN_POINT('',(9.96194698091747,8.19837112504684,10.7545293874766));
#410=CARTESIAN_POINT('',(9.96194698091747,-3.68460083495317,13.0114145325234));
#411=CARTESIAN_POINT('',(9.96194698091746,-5.94148597999999,1.12844257252342));
#412=CARTESIAN_POINT('',(1.21998664834562E-15,-5.94148597999999,2.));
#413=CARTESIAN_POINT('',(1.21998664834562E-15,-9.94148598000002,-9.88297196000001));
#414=CARTESIAN_POINT('',(1.21998664834562E-15,1.94148598,-13.88297196));
#415=CARTESIAN_POINT('',(1.21998664834562E-15,5.94148597999999,-2.));
#416=CARTESIAN_POINT('',(1.21998664834562E-15,9.94148598000002,9.88297196000001));
#417=CARTESIAN_POINT('',(1.21998664834562E-15,-1.94148598,13.88297196));
#418=CARTESIAN_POINT('',(1.21998664834562E-15,-5.94148597999999,2.));
#419=CARTESIAN_POINT('',(0.,-15.94148598,2.));
#420=CARTESIAN_POINT('',(0.,-19.94148598,-29.88297196));
#421=CARTESIAN_POINT('',(0.,11.94148598,-33.88297196));
#422=CARTESIAN_POINT('',(0.,15.94148598,-2.));
#423=CARTESIAN_POINT('',(0.,19.94148598,29.88297196));
#424=CARTESIAN_POINT('',(0.,-11.94148598,33.88297196));
#425=CARTESIAN_POINT('',(0.,-15.94148598,2.));
#426=CARTESIAN_POINT('',(-1.21998664834562E-15,-25.94148598,2.));
#427=CARTESIAN_POINT('',(-1.21998664834562E-15,-29.94148598,-49.88297196));
#428=CARTESIAN_POINT('',(-1.21998664834562E-15,21.94148598,-53.8829719600001));
#429=CARTESIAN_POINT('',(-1.21998664834562E-15,25.94148598,-2.));
#430=CARTESIAN_POINT('',(-1.21998664834562E-15,29.94148598,49.88297196));
#431=CARTESIAN_POINT('',(-1.21998664834562E-15,-21.94148598,53.8829719600001));
#432=CARTESIAN_POINT('',(-1.21998664834562E-15,-25.94148598,2.));
#433=CARTESIAN_POINT('',(9.96194698091746,-25.94148598,1.12844257252342));
#434=CARTESIAN_POINT('',(9.96194698091747,-28.1983711250469,-50.7545293874767));
#435=CARTESIAN_POINT('',(9.96194698091747,23.6846008349532,-53.0114145325235));
#436=CARTESIAN_POINT('',(9.96194698091746,25.94148598,-1.12844257252342));
#437=CARTESIAN_POINT('',(9.96194698091747,28.1983711250469,50.7545293874767));
#438=CARTESIAN_POINT('',(9.96194698091747,-23.6846008349532,53.0114145325235));
#439=CARTESIAN_POINT('',(9.96194698091746,-25.94148598,1.12844257252342));
#440=CARTESIAN_POINT('',(9.96194698091746,-15.94148598,1.12844257252342));
#441=CARTESIAN_POINT('',(9.96194698091745,-18.1983711250468,-30.7545293874765));
#442=CARTESIAN_POINT('',(9.96194698091745,13.6846008349532,-33.0114145325234));
#443=CARTESIAN_POINT('',(9.96194698091746,15.94148598,-1.12844257252342));
#444=CARTESIAN_POINT('',(9.96194698091745,18.1983711250468,30.7545293874765));
#445=CARTESIAN_POINT('',(9.96194698091745,-13.6846008349532,33.0114145325234));
#446=CARTESIAN_POINT('',(9.96194698091746,-15.94148598,1.12844257252342));
#447=MECHANICAL_DESIGN_GEOMETRIC_PRESENTATION_REPRESENTATION('',(#34,#35),
#448);
#448=(
GEOMETRIC_REPRESENTATION_CONTEXT(3)
GLOBAL_UNCERTAINTY_ASSIGNED_CONTEXT((#449))
GLOBAL_UNIT_ASSIGNED_CONTEXT((#455,#451,#450))
REPRESENTATION_CONTEXT('AEMR-RD1004-D42-M16-L43-Z05-H',
'TOP_LEVEL_ASSEMBLY_PART')
);
#449=UNCERTAINTY_MEASURE_WITH_UNIT(LENGTH_MEASURE(2.E-5),#455,
'DISTANCE_ACCURACY_VALUE','Maximum Tolerance applied to model');
#450=(
NAMED_UNIT(*)
SI_UNIT($,.STERADIAN.)
SOLID_ANGLE_UNIT()
);
#451=(
CONVERSION_BASED_UNIT('DEGREE',#453)
NAMED_UNIT(#452)
PLANE_ANGLE_UNIT()
);
#452=DIMENSIONAL_EXPONENTS(0.,0.,0.,0.,0.,0.,0.);
#453=PLANE_ANGLE_MEASURE_WITH_UNIT(PLANE_ANGLE_MEASURE(0.0174532925),#454);
#454=(
NAMED_UNIT(*)
PLANE_ANGLE_UNIT()
SI_UNIT($,.RADIAN.)
);
#455=(
LENGTH_UNIT()
NAMED_UNIT(*)
SI_UNIT(.MILLI.,.METRE.)
);
ENDSEC;
END-ISO-10303-21;
