ISO-10303-21;
HEADER;
/* Generated by software containing ST-Developer
 * from STEP Tools, Inc. (www.steptools.com) 
 */
/* OPTION: using custom schema-name function */

FILE_DESCRIPTION(
/* description */ (''),
/* implementation_level */ '2;1');

FILE_NAME(
/* name */ 'AEMR-RD10T3-D25-M12-L35-Z03-H.stp',
/* time_stamp */ '2023-10-20T17:59:53+03:00',
/* author */ (''),
/* organization */ (''),
/* preprocessor_version */ 'ST-DEVELOPER v19.4',
/* originating_system */ 'SIEMENS PLM Software NX2306.5001',
/* authorisation */ '');

FILE_SCHEMA (('AUTOMOTIVE_DESIGN { 1 0 10303 214 3 1 1 1 }'));
ENDSEC;

DATA;
#10=PROPERTY_DEFINITION_REPRESENTATION(#14,#12);
#11=PROPERTY_DEFINITION_REPRESENTATION(#15,#13);
#12=REPRESENTATION('',(#16),#512);
#13=REPRESENTATION('',(#17),#512);
#14=PROPERTY_DEFINITION('pmi validation property','',#21);
#15=PROPERTY_DEFINITION('pmi validation property','',#21);
#16=VALUE_REPRESENTATION_ITEM('number of annotations',COUNT_MEASURE(0.));
#17=VALUE_REPRESENTATION_ITEM('number of views',COUNT_MEASURE(0.));
#18=SHAPE_REPRESENTATION_RELATIONSHIP('None',
'relationship between AEMR-RD10T3-D25-M12-L35-Z03-H-LIGHT_x_t_objects-
None and AEMR-RD10T3-D25-M12-L35-Z03-H-LIGHT_x_t_objects-None',#30,#19);
#19=ADVANCED_BREP_SHAPE_REPRESENTATION(
'AEMR-RD10T3-D25-M12-L35-Z03-H-LIGHT_x_t_objects-None',(#69,#70),#512);
#20=SHAPE_DEFINITION_REPRESENTATION(#21,#30);
#21=PRODUCT_DEFINITION_SHAPE('','',#22);
#22=PRODUCT_DEFINITION(' ','',#24,#23);
#23=PRODUCT_DEFINITION_CONTEXT('part definition',#29,'design');
#24=PRODUCT_DEFINITION_FORMATION_WITH_SPECIFIED_SOURCE(' ',' ',#26,
 .NOT_KNOWN.);
#25=PRODUCT_RELATED_PRODUCT_CATEGORY('part','',(#26));
#26=PRODUCT('AEMR-RD10T3-D25-M12-L35-Z03-H-LIGHT_x_t_objects',
'AEMR-RD10T3-D25-M12-L35-Z03-H-LIGHT_x_t_objects',' ',(#27));
#27=PRODUCT_CONTEXT(' ',#29,'mechanical');
#28=APPLICATION_PROTOCOL_DEFINITION('international standard',
'automotive_design',2010,#29);
#29=APPLICATION_CONTEXT(
'core data for automotive mechanical design processes');
#30=SHAPE_REPRESENTATION(
'AEMR-RD10T3-D25-M12-L35-Z03-H-LIGHT_x_t_objects-None',(#243),#512);
#31=COLOUR_RGB('silver gray',0.6,0.6,0.6);
#32=SURFACE_OF_REVOLUTION('',#34,#33);
#33=AXIS1_PLACEMENT('',#509,#343);
#34=B_SPLINE_CURVE_WITH_KNOTS('',3,(#445,#446,#447,#448,#449,#450,#451,
#452,#453,#454,#455,#456,#457,#458,#459,#460,#461,#462,#463,#464,#465,#466,
#467,#468,#469,#470,#471,#472,#473,#474,#475,#476,#477,#478,#479,#480,#481,
#482,#483,#484,#485,#486,#487,#488,#489,#490,#491,#492,#493,#494,#495,#496,
#497,#498,#499,#500,#501,#502,#503,#504,#505,#506,#507,#508),
 .UNSPECIFIED.,.T.,.F.,(2,2,2,2,2,2,2,2,2,2,2,2,2,2,2,2,2,2,2,2,2,2,2,2,
2,2,2,2,2,2,2,2,2,2),(-0.03125,0.,0.0625,0.09375,0.125,0.15625,0.1875,0.21875,
0.25,0.28125,0.3125,0.34375,0.375,0.40625,0.4375,0.46875,0.5,0.53125,0.5625,
0.59375,0.625,0.65625,0.6875,0.71875,0.75,0.78125,0.8125,0.84375,0.875,
0.90625,0.9375,0.96875,1.,1.0625),.UNSPECIFIED.);
#35=TOROIDAL_SURFACE('',#258,6.63,0.6);
#36=TOROIDAL_SURFACE('',#272,12.3,2.);
#37=CYLINDRICAL_SURFACE('',#250,5.875);
#38=CYLINDRICAL_SURFACE('',#254,6.25);
#39=CYLINDRICAL_SURFACE('',#266,10.5);
#40=CYLINDRICAL_SURFACE('',#270,10.3);
#41=CONICAL_SURFACE('',#248,4.375,44.9999999999997);
#42=CONICAL_SURFACE('',#252,5.875,30.);
#43=CONICAL_SURFACE('',#256,6.25,15.0000000000002);
#44=CONICAL_SURFACE('',#260,6.78529142706151,75.);
#45=CONICAL_SURFACE('',#264,10.,45.);
#46=CONICAL_SURFACE('',#268,10.5,45.0000000000002);
#47=CONICAL_SURFACE('',#274,10.4206147584282,19.9999999999999);
#48=PLANE('',#246);
#49=PLANE('',#262);
#50=PLANE('',#276);
#51=FACE_OUTER_BOUND('',#126,.T.);
#52=FACE_OUTER_BOUND('',#157,.T.);
#53=PRESENTATION_LAYER_ASSIGNMENT('1','Layer 1',(#69,#70));
#54=STYLED_ITEM('',(#56),#69);
#55=STYLED_ITEM('',(#57),#70);
#56=PRESENTATION_STYLE_ASSIGNMENT((#58));
#57=PRESENTATION_STYLE_ASSIGNMENT((#59));
#58=SURFACE_STYLE_USAGE(.BOTH.,#60);
#59=SURFACE_STYLE_USAGE(.BOTH.,#61);
#60=SURFACE_SIDE_STYLE('',(#62));
#61=SURFACE_SIDE_STYLE('',(#63));
#62=SURFACE_STYLE_FILL_AREA(#64);
#63=SURFACE_STYLE_FILL_AREA(#65);
#64=FILL_AREA_STYLE('',(#66));
#65=FILL_AREA_STYLE('',(#67));
#66=FILL_AREA_STYLE_COLOUR('',#68);
#67=FILL_AREA_STYLE_COLOUR('',#31);
#68=DRAUGHTING_PRE_DEFINED_COLOUR('yellow');
#69=MANIFOLD_SOLID_BREP('',#71);
#70=MANIFOLD_SOLID_BREP('',#72);
#71=CLOSED_SHELL('',(#73));
#72=CLOSED_SHELL('',(#74,#75,#76,#77,#78,#79,#80,#81,#82,#83,#84,#85,#86,
#87,#88,#89,#90));
#73=ADVANCED_FACE('',(#92,#93),#91,.F.);
#74=ADVANCED_FACE('',(#51),#48,.F.);
#75=ADVANCED_FACE('',(#94,#95),#41,.T.);
#76=ADVANCED_FACE('',(#96,#97),#37,.T.);
#77=ADVANCED_FACE('',(#98,#99),#42,.T.);
#78=ADVANCED_FACE('',(#100,#101),#38,.T.);
#79=ADVANCED_FACE('',(#102,#103),#43,.T.);
#80=ADVANCED_FACE('',(#104,#105),#35,.F.);
#81=ADVANCED_FACE('',(#106,#107),#44,.F.);
#82=ADVANCED_FACE('',(#108,#109),#49,.F.);
#83=ADVANCED_FACE('',(#110,#111),#45,.T.);
#84=ADVANCED_FACE('',(#112,#113),#39,.T.);
#85=ADVANCED_FACE('',(#114,#115),#46,.T.);
#86=ADVANCED_FACE('',(#116,#117),#40,.T.);
#87=ADVANCED_FACE('',(#118,#119),#36,.F.);
#88=ADVANCED_FACE('',(#120,#121),#47,.T.);
#89=ADVANCED_FACE('',(#122,#123),#32,.T.);
#90=ADVANCED_FACE('',(#52),#50,.F.);
#91=(
BOUNDED_SURFACE()
B_SPLINE_SURFACE(3,3,((#349,#350,#351,#352,#353,#354,#355),(#356,#357,#358,
#359,#360,#361,#362),(#363,#364,#365,#366,#367,#368,#369),(#370,#371,#372,
#373,#374,#375,#376),(#377,#378,#379,#380,#381,#382,#383),(#384,#385,#386,
#387,#388,#389,#390),(#391,#392,#393,#394,#395,#396,#397)),
 .UNSPECIFIED.,.T.,.T.,.F.)
B_SPLINE_SURFACE_WITH_KNOTS((1,3,3,3,1),(1,3,3,3,1),(-0.5,0.,0.5,1.,1.5),
(-0.5,0.,0.5,1.,1.5),.UNSPECIFIED.)
GEOMETRIC_REPRESENTATION_ITEM()
RATIONAL_B_SPLINE_SURFACE(((1.,0.333333333333334,0.333333333333334,1.,0.333333333333334,
0.333333333333334,1.),(0.333333333333334,0.111111111111111,0.111111111111111,
0.333333333333334,0.111111111111111,0.111111111111111,0.333333333333334),
(0.333333333333334,0.111111111111111,0.111111111111111,0.333333333333334,
0.111111111111111,0.111111111111111,0.333333333333334),(1.,0.333333333333334,
0.333333333333334,1.,0.333333333333334,0.333333333333334,1.),(0.333333333333334,
0.111111111111111,0.111111111111111,0.333333333333334,0.111111111111111,
0.111111111111111,0.333333333333334),(0.333333333333334,0.111111111111111,
0.111111111111111,0.333333333333334,0.111111111111111,0.111111111111111,
0.333333333333334),(1.,0.333333333333334,0.333333333333334,1.,0.333333333333334,
0.333333333333334,1.)))
REPRESENTATION_ITEM('')
SURFACE()
);
#92=FACE_BOUND('',#124,.T.);
#93=FACE_BOUND('',#125,.T.);
#94=FACE_BOUND('',#127,.T.);
#95=FACE_BOUND('',#128,.T.);
#96=FACE_BOUND('',#129,.T.);
#97=FACE_BOUND('',#130,.T.);
#98=FACE_BOUND('',#131,.T.);
#99=FACE_BOUND('',#132,.T.);
#100=FACE_BOUND('',#133,.T.);
#101=FACE_BOUND('',#134,.T.);
#102=FACE_BOUND('',#135,.T.);
#103=FACE_BOUND('',#136,.T.);
#104=FACE_BOUND('',#137,.T.);
#105=FACE_BOUND('',#138,.T.);
#106=FACE_BOUND('',#139,.T.);
#107=FACE_BOUND('',#140,.T.);
#108=FACE_BOUND('',#141,.T.);
#109=FACE_BOUND('',#142,.T.);
#110=FACE_BOUND('',#143,.T.);
#111=FACE_BOUND('',#144,.T.);
#112=FACE_BOUND('',#145,.T.);
#113=FACE_BOUND('',#146,.T.);
#114=FACE_BOUND('',#147,.T.);
#115=FACE_BOUND('',#148,.T.);
#116=FACE_BOUND('',#149,.T.);
#117=FACE_BOUND('',#150,.T.);
#118=FACE_BOUND('',#151,.T.);
#119=FACE_BOUND('',#152,.T.);
#120=FACE_BOUND('',#153,.T.);
#121=FACE_BOUND('',#154,.T.);
#122=FACE_BOUND('',#155,.T.);
#123=FACE_BOUND('',#156,.T.);
#124=EDGE_LOOP('',(#158));
#125=EDGE_LOOP('',(#159));
#126=EDGE_LOOP('',(#160));
#127=EDGE_LOOP('',(#161));
#128=EDGE_LOOP('',(#162));
#129=EDGE_LOOP('',(#163));
#130=EDGE_LOOP('',(#164));
#131=EDGE_LOOP('',(#165));
#132=EDGE_LOOP('',(#166));
#133=EDGE_LOOP('',(#167));
#134=EDGE_LOOP('',(#168));
#135=EDGE_LOOP('',(#169));
#136=EDGE_LOOP('',(#170));
#137=EDGE_LOOP('',(#171));
#138=EDGE_LOOP('',(#172));
#139=EDGE_LOOP('',(#173));
#140=EDGE_LOOP('',(#174));
#141=EDGE_LOOP('',(#175));
#142=EDGE_LOOP('',(#176));
#143=EDGE_LOOP('',(#177));
#144=EDGE_LOOP('',(#178));
#145=EDGE_LOOP('',(#179));
#146=EDGE_LOOP('',(#180));
#147=EDGE_LOOP('',(#181));
#148=EDGE_LOOP('',(#182));
#149=EDGE_LOOP('',(#183));
#150=EDGE_LOOP('',(#184));
#151=EDGE_LOOP('',(#185));
#152=EDGE_LOOP('',(#186));
#153=EDGE_LOOP('',(#187));
#154=EDGE_LOOP('',(#188));
#155=EDGE_LOOP('',(#189));
#156=EDGE_LOOP('',(#190));
#157=EDGE_LOOP('',(#191));
#158=ORIENTED_EDGE('',*,*,#209,.T.);
#159=ORIENTED_EDGE('',*,*,#209,.F.);
#160=ORIENTED_EDGE('',*,*,#210,.F.);
#161=ORIENTED_EDGE('',*,*,#211,.F.);
#162=ORIENTED_EDGE('',*,*,#210,.T.);
#163=ORIENTED_EDGE('',*,*,#212,.F.);
#164=ORIENTED_EDGE('',*,*,#211,.T.);
#165=ORIENTED_EDGE('',*,*,#213,.F.);
#166=ORIENTED_EDGE('',*,*,#212,.T.);
#167=ORIENTED_EDGE('',*,*,#214,.F.);
#168=ORIENTED_EDGE('',*,*,#213,.T.);
#169=ORIENTED_EDGE('',*,*,#215,.F.);
#170=ORIENTED_EDGE('',*,*,#214,.T.);
#171=ORIENTED_EDGE('',*,*,#216,.F.);
#172=ORIENTED_EDGE('',*,*,#215,.T.);
#173=ORIENTED_EDGE('',*,*,#217,.F.);
#174=ORIENTED_EDGE('',*,*,#216,.T.);
#175=ORIENTED_EDGE('',*,*,#218,.F.);
#176=ORIENTED_EDGE('',*,*,#217,.T.);
#177=ORIENTED_EDGE('',*,*,#219,.F.);
#178=ORIENTED_EDGE('',*,*,#218,.T.);
#179=ORIENTED_EDGE('',*,*,#220,.F.);
#180=ORIENTED_EDGE('',*,*,#219,.T.);
#181=ORIENTED_EDGE('',*,*,#221,.F.);
#182=ORIENTED_EDGE('',*,*,#220,.T.);
#183=ORIENTED_EDGE('',*,*,#222,.F.);
#184=ORIENTED_EDGE('',*,*,#221,.T.);
#185=ORIENTED_EDGE('',*,*,#223,.F.);
#186=ORIENTED_EDGE('',*,*,#222,.T.);
#187=ORIENTED_EDGE('',*,*,#224,.F.);
#188=ORIENTED_EDGE('',*,*,#223,.T.);
#189=ORIENTED_EDGE('',*,*,#225,.F.);
#190=ORIENTED_EDGE('',*,*,#224,.T.);
#191=ORIENTED_EDGE('',*,*,#225,.T.);
#192=VERTEX_POINT('',#348);
#193=VERTEX_POINT('',#399);
#194=VERTEX_POINT('',#402);
#195=VERTEX_POINT('',#405);
#196=VERTEX_POINT('',#408);
#197=VERTEX_POINT('',#411);
#198=VERTEX_POINT('',#414);
#199=VERTEX_POINT('',#417);
#200=VERTEX_POINT('',#420);
#201=VERTEX_POINT('',#423);
#202=VERTEX_POINT('',#426);
#203=VERTEX_POINT('',#429);
#204=VERTEX_POINT('',#432);
#205=VERTEX_POINT('',#435);
#206=VERTEX_POINT('',#438);
#207=VERTEX_POINT('',#441);
#208=VERTEX_POINT('',#444);
#209=EDGE_CURVE('',#192,#192,#226,.T.);
#210=EDGE_CURVE('',#193,#193,#227,.T.);
#211=EDGE_CURVE('',#194,#194,#228,.T.);
#212=EDGE_CURVE('',#195,#195,#229,.T.);
#213=EDGE_CURVE('',#196,#196,#230,.T.);
#214=EDGE_CURVE('',#197,#197,#231,.T.);
#215=EDGE_CURVE('',#198,#198,#232,.T.);
#216=EDGE_CURVE('',#199,#199,#233,.T.);
#217=EDGE_CURVE('',#200,#200,#234,.T.);
#218=EDGE_CURVE('',#201,#201,#235,.T.);
#219=EDGE_CURVE('',#202,#202,#236,.T.);
#220=EDGE_CURVE('',#203,#203,#237,.T.);
#221=EDGE_CURVE('',#204,#204,#238,.T.);
#222=EDGE_CURVE('',#205,#205,#239,.T.);
#223=EDGE_CURVE('',#206,#206,#240,.T.);
#224=EDGE_CURVE('',#207,#207,#241,.T.);
#225=EDGE_CURVE('',#208,#208,#242,.T.);
#226=CIRCLE('',#244,5.);
#227=CIRCLE('',#245,4.375);
#228=CIRCLE('',#247,5.875);
#229=CIRCLE('',#249,5.875);
#230=CIRCLE('',#251,6.25);
#231=CIRCLE('',#253,6.25);
#232=CIRCLE('',#255,6.05044450422656);
#233=CIRCLE('',#257,6.78529142706151);
#234=CIRCLE('',#259,7.53004267621761);
#235=CIRCLE('',#261,10.);
#236=CIRCLE('',#263,10.5);
#237=CIRCLE('',#265,10.5);
#238=CIRCLE('',#267,10.3);
#239=CIRCLE('',#269,10.3);
#240=CIRCLE('',#271,10.4206147584282);
#241=CIRCLE('',#273,10.9461632831624);
#242=CIRCLE('',#275,4.51718195512288);
#243=AXIS2_PLACEMENT_3D('',#346,#277,#278);
#244=AXIS2_PLACEMENT_3D('',#347,#279,#280);
#245=AXIS2_PLACEMENT_3D('',#398,#281,#282);
#246=AXIS2_PLACEMENT_3D('',#400,#283,#284);
#247=AXIS2_PLACEMENT_3D('',#401,#285,#286);
#248=AXIS2_PLACEMENT_3D('',#403,#287,#288);
#249=AXIS2_PLACEMENT_3D('',#404,#289,#290);
#250=AXIS2_PLACEMENT_3D('',#406,#291,#292);
#251=AXIS2_PLACEMENT_3D('',#407,#293,#294);
#252=AXIS2_PLACEMENT_3D('',#409,#295,#296);
#253=AXIS2_PLACEMENT_3D('',#410,#297,#298);
#254=AXIS2_PLACEMENT_3D('',#412,#299,#300);
#255=AXIS2_PLACEMENT_3D('',#413,#301,#302);
#256=AXIS2_PLACEMENT_3D('',#415,#303,#304);
#257=AXIS2_PLACEMENT_3D('',#416,#305,#306);
#258=AXIS2_PLACEMENT_3D('',#418,#307,#308);
#259=AXIS2_PLACEMENT_3D('',#419,#309,#310);
#260=AXIS2_PLACEMENT_3D('',#421,#311,#312);
#261=AXIS2_PLACEMENT_3D('',#422,#313,#314);
#262=AXIS2_PLACEMENT_3D('',#424,#315,#316);
#263=AXIS2_PLACEMENT_3D('',#425,#317,#318);
#264=AXIS2_PLACEMENT_3D('',#427,#319,#320);
#265=AXIS2_PLACEMENT_3D('',#428,#321,#322);
#266=AXIS2_PLACEMENT_3D('',#430,#323,#324);
#267=AXIS2_PLACEMENT_3D('',#431,#325,#326);
#268=AXIS2_PLACEMENT_3D('',#433,#327,#328);
#269=AXIS2_PLACEMENT_3D('',#434,#329,#330);
#270=AXIS2_PLACEMENT_3D('',#436,#331,#332);
#271=AXIS2_PLACEMENT_3D('',#437,#333,#334);
#272=AXIS2_PLACEMENT_3D('',#439,#335,#336);
#273=AXIS2_PLACEMENT_3D('',#440,#337,#338);
#274=AXIS2_PLACEMENT_3D('',#442,#339,#340);
#275=AXIS2_PLACEMENT_3D('',#443,#341,#342);
#276=AXIS2_PLACEMENT_3D('',#510,#344,#345);
#277=DIRECTION('',(0.,0.,1.));
#278=DIRECTION('',(1.,0.,0.));
#279=DIRECTION('',(0.,0.,1.));
#280=DIRECTION('',(1.,0.,0.));
#281=DIRECTION('',(-1.,0.,0.));
#282=DIRECTION('',(0.,0.,1.));
#283=DIRECTION('',(-1.,0.,0.));
#284=DIRECTION('',(0.,0.,1.));
#285=DIRECTION('',(-1.,0.,0.));
#286=DIRECTION('',(0.,0.,1.));
#287=DIRECTION('',(-1.,0.,0.));
#288=DIRECTION('',(4.83606793551722E-17,0.,1.));
#289=DIRECTION('',(-1.,0.,0.));
#290=DIRECTION('',(0.,0.,1.));
#291=DIRECTION('',(-1.,0.,0.));
#292=DIRECTION('',(0.,0.,1.));
#293=DIRECTION('',(-1.,0.,0.));
#294=DIRECTION('',(0.,0.,1.));
#295=DIRECTION('',(-1.,0.,0.));
#296=DIRECTION('',(-7.13847043721059E-17,0.,1.));
#297=DIRECTION('',(-1.,0.,0.));
#298=DIRECTION('',(0.,0.,1.));
#299=DIRECTION('',(-1.,0.,0.));
#300=DIRECTION('',(0.,0.,1.));
#301=DIRECTION('',(-1.,0.,0.));
#302=DIRECTION('',(0.,0.,1.));
#303=DIRECTION('',(1.,0.,0.));
#304=DIRECTION('',(-2.2775430000893E-16,0.,-1.));
#305=DIRECTION('',(-1.,0.,0.));
#306=DIRECTION('',(0.,0.,1.));
#307=DIRECTION('',(-1.,0.,0.));
#308=DIRECTION('',(0.,0.,1.));
#309=DIRECTION('',(-1.,0.,0.));
#310=DIRECTION('',(0.,0.,1.));
#311=DIRECTION('',(1.,0.,0.));
#312=DIRECTION('',(-1.85589678717681E-17,0.,-1.));
#313=DIRECTION('',(-1.,0.,0.));
#314=DIRECTION('',(0.,0.,1.));
#315=DIRECTION('',(-1.,0.,0.));
#316=DIRECTION('',(0.,0.,1.));
#317=DIRECTION('',(-1.,0.,0.));
#318=DIRECTION('',(0.,0.,1.));
#319=DIRECTION('',(-1.,0.,0.));
#320=DIRECTION('',(2.74807679362663E-17,0.,1.));
#321=DIRECTION('',(-1.,0.,0.));
#322=DIRECTION('',(0.,0.,1.));
#323=DIRECTION('',(-1.,0.,0.));
#324=DIRECTION('',(0.,0.,1.));
#325=DIRECTION('',(-1.,0.,0.));
#326=DIRECTION('',(0.,0.,1.));
#327=DIRECTION('',(1.,0.,0.));
#328=DIRECTION('',(3.43339629089914E-18,0.,-1.));
#329=DIRECTION('',(-1.,0.,0.));
#330=DIRECTION('',(0.,0.,1.));
#331=DIRECTION('',(-1.,0.,0.));
#332=DIRECTION('',(0.,0.,1.));
#333=DIRECTION('',(-1.,0.,0.));
#334=DIRECTION('',(0.,0.,1.));
#335=DIRECTION('',(-1.,0.,0.));
#336=DIRECTION('',(0.,0.,1.));
#337=DIRECTION('',(-1.,0.,0.));
#338=DIRECTION('',(0.,0.,1.));
#339=DIRECTION('',(-1.,0.,0.));
#340=DIRECTION('',(-1.2046985254287E-16,0.,1.));
#341=DIRECTION('',(-1.,0.,0.));
#342=DIRECTION('',(0.,0.,1.));
#343=DIRECTION('',(-1.,0.,0.));
#344=DIRECTION('',(1.,0.,0.));
#345=DIRECTION('',(0.,0.,-1.));
#346=CARTESIAN_POINT('',(0.,0.,0.));
#347=CARTESIAN_POINT('',(5.,-7.33863573,2.));
#348=CARTESIAN_POINT('',(10.,-7.33863573,2.));
#349=CARTESIAN_POINT('',(10.,-7.33863573,2.));
#350=CARTESIAN_POINT('',(10.,-11.33863573,-12.67727146));
#351=CARTESIAN_POINT('',(10.,3.33863573,-16.67727146));
#352=CARTESIAN_POINT('',(10.,7.33863573,-2.));
#353=CARTESIAN_POINT('',(10.,11.33863573,12.67727146));
#354=CARTESIAN_POINT('',(10.,-3.33863573,16.67727146));
#355=CARTESIAN_POINT('',(10.,-7.33863573,2.));
#356=CARTESIAN_POINT('',(10.,2.66136427,2.));
#357=CARTESIAN_POINT('',(10.,-1.33863573,7.32272854000001));
#358=CARTESIAN_POINT('',(10.,-6.66136427000001,3.32272854000001));
#359=CARTESIAN_POINT('',(10.,-2.66136427,-2.));
#360=CARTESIAN_POINT('',(10.,1.33863573,-7.32272854000001));
#361=CARTESIAN_POINT('',(10.,6.66136427000001,-3.32272854000001));
#362=CARTESIAN_POINT('',(10.,2.66136427,2.));
#363=CARTESIAN_POINT('',(-5.10076676829453E-16,2.66136427,2.));
#364=CARTESIAN_POINT('',(-5.10076676829455E-16,-1.33863573,7.32272854000001));
#365=CARTESIAN_POINT('',(-5.10076676829455E-16,-6.66136427000001,3.32272854000001));
#366=CARTESIAN_POINT('',(-5.10076676829453E-16,-2.66136427,-2.));
#367=CARTESIAN_POINT('',(-5.10076676829455E-16,1.33863573,-7.32272854000001));
#368=CARTESIAN_POINT('',(-5.10076676829455E-16,6.66136427000001,-3.32272854000001));
#369=CARTESIAN_POINT('',(-5.10076676829453E-16,2.66136427,2.));
#370=CARTESIAN_POINT('',(-1.7347234759768E-15,-7.33863573,2.));
#371=CARTESIAN_POINT('',(-1.73472347597681E-15,-11.33863573,-12.67727146));
#372=CARTESIAN_POINT('',(-1.73472347597681E-15,3.33863573,-16.67727146));
#373=CARTESIAN_POINT('',(-1.7347234759768E-15,7.33863573,-2.));
#374=CARTESIAN_POINT('',(-1.73472347597681E-15,11.33863573,12.67727146));
#375=CARTESIAN_POINT('',(-1.73472347597681E-15,-3.33863573,16.67727146));
#376=CARTESIAN_POINT('',(-1.7347234759768E-15,-7.33863573,2.));
#377=CARTESIAN_POINT('',(-2.95937027512416E-15,-17.33863573,2.));
#378=CARTESIAN_POINT('',(-2.95937027512416E-15,-21.33863573,-32.67727146));
#379=CARTESIAN_POINT('',(-2.95937027512416E-15,13.33863573,-36.67727146));
#380=CARTESIAN_POINT('',(-2.95937027512416E-15,17.33863573,-2.));
#381=CARTESIAN_POINT('',(-2.95937027512416E-15,21.33863573,32.67727146));
#382=CARTESIAN_POINT('',(-2.95937027512416E-15,-13.33863573,36.67727146));
#383=CARTESIAN_POINT('',(-2.95937027512416E-15,-17.33863573,2.));
#384=CARTESIAN_POINT('',(10.,-17.33863573,2.));
#385=CARTESIAN_POINT('',(10.,-21.33863573,-32.67727146));
#386=CARTESIAN_POINT('',(10.,13.33863573,-36.67727146));
#387=CARTESIAN_POINT('',(10.,17.33863573,-2.));
#388=CARTESIAN_POINT('',(10.,21.33863573,32.67727146));
#389=CARTESIAN_POINT('',(10.,-13.33863573,36.67727146));
#390=CARTESIAN_POINT('',(10.,-17.33863573,2.));
#391=CARTESIAN_POINT('',(10.,-7.33863573,2.));
#392=CARTESIAN_POINT('',(10.,-11.33863573,-12.67727146));
#393=CARTESIAN_POINT('',(10.,3.33863573,-16.67727146));
#394=CARTESIAN_POINT('',(10.,7.33863573,-2.));
#395=CARTESIAN_POINT('',(10.,11.33863573,12.67727146));
#396=CARTESIAN_POINT('',(10.,-3.33863573,16.67727146));
#397=CARTESIAN_POINT('',(10.,-7.33863573,2.));
#398=CARTESIAN_POINT('',(57.,0.,0.));
#399=CARTESIAN_POINT('',(57.,0.,4.375));
#400=CARTESIAN_POINT('',(57.,4.81482486096809E-32,0.));
#401=CARTESIAN_POINT('',(55.5,0.,0.));
#402=CARTESIAN_POINT('',(55.5,0.,5.875));
#403=CARTESIAN_POINT('',(57.,0.,0.));
#404=CARTESIAN_POINT('',(41.6495190528384,0.,0.));
#405=CARTESIAN_POINT('',(41.6495190528384,0.,5.875));
#406=CARTESIAN_POINT('',(0.,0.,0.));
#407=CARTESIAN_POINT('',(41.,0.,0.));
#408=CARTESIAN_POINT('',(41.,0.,6.25));
#409=CARTESIAN_POINT('',(41.6495190528384,0.,0.));
#410=CARTESIAN_POINT('',(36.2800426762176,0.,0.));
#411=CARTESIAN_POINT('',(36.2800426762176,0.,6.25));
#412=CARTESIAN_POINT('',(0.,0.,0.));
#413=CARTESIAN_POINT('',(35.5352914270615,0.,0.));
#414=CARTESIAN_POINT('',(35.5352914270615,0.,6.05044450422656));
#415=CARTESIAN_POINT('',(36.2800426762176,0.,0.));
#416=CARTESIAN_POINT('',(34.8004445042265,0.,0.));
#417=CARTESIAN_POINT('',(34.8004445042265,0.,6.78529142706151));
#418=CARTESIAN_POINT('',(35.38,0.,0.));
#419=CARTESIAN_POINT('',(35.,0.,0.));
#420=CARTESIAN_POINT('',(35.,0.,7.53004267621761));
#421=CARTESIAN_POINT('',(34.8004445042265,0.,0.));
#422=CARTESIAN_POINT('',(35.,0.,0.));
#423=CARTESIAN_POINT('',(35.,0.,10.));
#424=CARTESIAN_POINT('',(35.,7.53004267621761,0.));
#425=CARTESIAN_POINT('',(34.5,0.,0.));
#426=CARTESIAN_POINT('',(34.5,0.,10.5));
#427=CARTESIAN_POINT('',(35.,0.,0.));
#428=CARTESIAN_POINT('',(30.2,0.,0.));
#429=CARTESIAN_POINT('',(30.2,0.,10.5));
#430=CARTESIAN_POINT('',(0.,0.,0.));
#431=CARTESIAN_POINT('',(30.,0.,0.));
#432=CARTESIAN_POINT('',(30.,0.,10.3));
#433=CARTESIAN_POINT('',(30.2,0.,0.));
#434=CARTESIAN_POINT('',(8.8485578886002,0.,0.));
#435=CARTESIAN_POINT('',(8.8485578886002,0.,10.3));
#436=CARTESIAN_POINT('',(0.,0.,0.));
#437=CARTESIAN_POINT('',(8.16451760194885,0.,0.));
#438=CARTESIAN_POINT('',(8.16451760194885,0.,10.4206147584282));
#439=CARTESIAN_POINT('',(8.8485578886002,0.,0.));
#440=CARTESIAN_POINT('',(6.72058489741378,0.,0.));
#441=CARTESIAN_POINT('',(6.72058489741378,0.,10.9461632831624));
#442=CARTESIAN_POINT('',(8.16451760194885,0.,0.));
#443=CARTESIAN_POINT('',(3.00000000000131,0.,0.));
#444=CARTESIAN_POINT('',(3.00000000000131,0.,4.51718195512288));
#445=CARTESIAN_POINT('',(4.75225717172466,4.01841559560626,0.));
#446=CARTESIAN_POINT('',(5.49548565655068,4.01841559560626,0.));
#447=CARTESIAN_POINT('',(5.9904686935477,4.10207238449857,0.));
#448=CARTESIAN_POINT('',(6.68226865295666,4.35297832364099,0.));
#449=CARTESIAN_POINT('',(6.90737812317682,4.45883852636159,0.));
#450=CARTESIAN_POINT('',(7.33082888804275,4.7122307683109,0.));
#451=CARTESIAN_POINT('',(7.52768871521299,4.85831482722851,0.));
#452=CARTESIAN_POINT('',(7.89032286300265,5.19102524982676,0.));
#453=CARTESIAN_POINT('',(8.05583498188012,5.37852527114257,0.));
#454=CARTESIAN_POINT('',(8.33907598776312,5.77825463994064,0.));
#455=CARTESIAN_POINT('',(8.45945876255391,5.99300086103452,0.));
#456=CARTESIAN_POINT('',(8.65393622992304,6.44939256987357,0.));
#457=CARTESIAN_POINT('',(8.72516420370365,6.68385826890323,0.));
#458=CARTESIAN_POINT('',(8.81831524260522,7.16467452218992,0.));
#459=CARTESIAN_POINT('',(8.83991813458664,7.41403434174791,0.));
#460=CARTESIAN_POINT('',(8.8315182155715,7.90532290655889,0.));
#461=CARTESIAN_POINT('',(8.80236846239326,8.14814674254325,0.));
#462=CARTESIAN_POINT('',(8.69499335415975,8.6282466690073,0.));
#463=CARTESIAN_POINT('',(8.61606361541006,8.86521257668625,0.));
#464=CARTESIAN_POINT('',(8.41636001695215,9.3121019414769,0.));
#465=CARTESIAN_POINT('',(8.29508519117749,9.52494988574155,0.));
#466=CARTESIAN_POINT('',(8.0088156479682,9.92902006036745,0.));
#467=CARTESIAN_POINT('',(7.84709799396262,10.1152301641059,0.));
#468=CARTESIAN_POINT('',(7.49268767071413,10.4523668333697,0.));
#469=CARTESIAN_POINT('',(7.29768928602784,10.6052307832804,0.));
#470=CARTESIAN_POINT('',(6.88125315118576,10.8710964627195,0.));
#471=CARTESIAN_POINT('',(6.66318656448822,10.9824153289024,0.));
#472=CARTESIAN_POINT('',(6.2079733871151,11.1631792841568,0.));
#473=CARTESIAN_POINT('',(5.96814107835865,11.2329357789709,0.));
#474=CARTESIAN_POINT('',(5.48515089873278,11.3246763755355,0.));
#475=CARTESIAN_POINT('',(5.24157780919884,11.3474471855316,0.));
#476=CARTESIAN_POINT('',(4.75028862537989,11.3469342807087,0.));
#477=CARTESIAN_POINT('',(4.50152423842021,11.3229357983947,0.));
#478=CARTESIAN_POINT('',(4.02032298256929,11.2299123174589,0.));
#479=CARTESIAN_POINT('',(3.78530827560181,11.1611190433591,0.));
#480=CARTESIAN_POINT('',(3.32674695482539,10.9777877190825,0.));
#481=CARTESIAN_POINT('',(3.10632501944964,10.8640475359296,0.));
#482=CARTESIAN_POINT('',(2.69452617850798,10.5993350449516,0.));
#483=CARTESIAN_POINT('',(2.50028303788877,10.446714413316,0.));
#484=CARTESIAN_POINT('',(2.14276729205379,10.1045043405786,0.));
#485=CARTESIAN_POINT('',(1.98296901552025,9.91860897303581,0.));
#486=CARTESIAN_POINT('',(1.70067111424422,9.5177216579829,0.));
#487=CARTESIAN_POINT('',(1.57732326076053,9.30023405156946,0.));
#488=CARTESIAN_POINT('',(1.37851978530992,8.8506868058135,0.));
#489=CARTESIAN_POINT('',(1.30193765364647,8.61796644019353,0.));
#490=CARTESIAN_POINT('',(1.19575775627481,8.13616378455706,0.));
#491=CARTESIAN_POINT('',(1.16716130197027,7.88895119948379,0.));
#492=CARTESIAN_POINT('',(1.1609337478383,7.39896434639376,0.));
#493=CARTESIAN_POINT('',(1.18318646891699,7.15144110262685,0.));
#494=CARTESIAN_POINT('',(1.27922098352435,6.66705600475805,0.));
#495=CARTESIAN_POINT('',(1.35187139845774,6.4331536367536,0.));
#496=CARTESIAN_POINT('',(1.54644025813743,5.98192983963007,0.));
#497=CARTESIAN_POINT('',(1.6697213816586,5.76389308913072,0.));
#498=CARTESIAN_POINT('',(1.95446376457865,5.36607257197298,0.));
#499=CARTESIAN_POINT('',(2.11689530706177,5.18333446324953,0.));
#500=CARTESIAN_POINT('',(2.4821421203728,4.85041459069206,0.));
#501=CARTESIAN_POINT('',(2.68163889365713,4.70387833241242,0.));
#502=CARTESIAN_POINT('',(3.10079908315109,4.45488211768773,0.));
#503=CARTESIAN_POINT('',(3.32207943703552,4.35096188980128,0.));
#504=CARTESIAN_POINT('',(3.78737053829261,4.18309860822132,0.));
#505=CARTESIAN_POINT('',(4.02600381862028,4.12124936992122,0.));
#506=CARTESIAN_POINT('',(4.50792773837757,4.0390936256478,0.));
#507=CARTESIAN_POINT('',(4.75225717172466,4.01841559560626,0.));
#508=CARTESIAN_POINT('',(5.49548565655068,4.01841559560626,0.));
#509=CARTESIAN_POINT('',(0.,0.,0.));
#510=CARTESIAN_POINT('',(3.00000000000066,4.5171819551236,0.));
#511=MECHANICAL_DESIGN_GEOMETRIC_PRESENTATION_REPRESENTATION('',(#54,#55),
#512);
#512=(
GEOMETRIC_REPRESENTATION_CONTEXT(3)
GLOBAL_UNCERTAINTY_ASSIGNED_CONTEXT((#513))
GLOBAL_UNIT_ASSIGNED_CONTEXT((#519,#515,#514))
REPRESENTATION_CONTEXT('AEMR-RD10T3-D25-M12-L35-Z03-H',
'TOP_LEVEL_ASSEMBLY_PART')
);
#513=UNCERTAINTY_MEASURE_WITH_UNIT(LENGTH_MEASURE(2.E-5),#519,
'DISTANCE_ACCURACY_VALUE','Maximum Tolerance applied to model');
#514=(
NAMED_UNIT(*)
SI_UNIT($,.STERADIAN.)
SOLID_ANGLE_UNIT()
);
#515=(
CONVERSION_BASED_UNIT('DEGREE',#517)
NAMED_UNIT(#516)
PLANE_ANGLE_UNIT()
);
#516=DIMENSIONAL_EXPONENTS(0.,0.,0.,0.,0.,0.,0.);
#517=PLANE_ANGLE_MEASURE_WITH_UNIT(PLANE_ANGLE_MEASURE(0.0174532925),#518);
#518=(
NAMED_UNIT(*)
PLANE_ANGLE_UNIT()
SI_UNIT($,.RADIAN.)
);
#519=(
LENGTH_UNIT()
NAMED_UNIT(*)
SI_UNIT(.MILLI.,.METRE.)
);
ENDSEC;
END-ISO-10303-21;
