ISO-10303-21;
HEADER;
/* Generated by software containing ST-Developer
 * from STEP Tools, Inc. (www.steptools.com) 
 */
/* OPTION: using custom schema-name function */

FILE_DESCRIPTION(
/* description */ (''),
/* implementation_level */ '2;1');

FILE_NAME(
/* name */ 'AEMR-RD10T3-D35-M16-L43-Z04-H.stp',
/* time_stamp */ '2023-10-21T10:55:03+03:00',
/* author */ (''),
/* organization */ (''),
/* preprocessor_version */ 'ST-DEVELOPER v19.4',
/* originating_system */ 'SIEMENS PLM Software NX2306.5001',
/* authorisation */ '');

FILE_SCHEMA (('AUTOMOTIVE_DESIGN { 1 0 10303 214 3 1 1 1 }'));
ENDSEC;

DATA;
#10=PROPERTY_DEFINITION_REPRESENTATION(#14,#12);
#11=PROPERTY_DEFINITION_REPRESENTATION(#15,#13);
#12=REPRESENTATION('',(#16),#558);
#13=REPRESENTATION('',(#17),#558);
#14=PROPERTY_DEFINITION('pmi validation property','',#21);
#15=PROPERTY_DEFINITION('pmi validation property','',#21);
#16=VALUE_REPRESENTATION_ITEM('number of annotations',COUNT_MEASURE(0.));
#17=VALUE_REPRESENTATION_ITEM('number of views',COUNT_MEASURE(0.));
#18=SHAPE_REPRESENTATION_RELATIONSHIP('None',
'relationship between AEMR-RD10T3-D35-M16-L43-Z04-H-LIGHT_x_t_objects-
None and AEMR-RD10T3-D35-M16-L43-Z04-H-LIGHT_x_t_objects-None',#30,#19);
#19=ADVANCED_BREP_SHAPE_REPRESENTATION(
'AEMR-RD10T3-D35-M16-L43-Z04-H-LIGHT_x_t_objects-None',(#69,#70),#558);
#20=SHAPE_DEFINITION_REPRESENTATION(#21,#30);
#21=PRODUCT_DEFINITION_SHAPE('','',#22);
#22=PRODUCT_DEFINITION(' ','',#24,#23);
#23=PRODUCT_DEFINITION_CONTEXT('part definition',#29,'design');
#24=PRODUCT_DEFINITION_FORMATION_WITH_SPECIFIED_SOURCE(' ',' ',#26,
 .NOT_KNOWN.);
#25=PRODUCT_RELATED_PRODUCT_CATEGORY('part','',(#26));
#26=PRODUCT('AEMR-RD10T3-D35-M16-L43-Z04-H-LIGHT_x_t_objects',
'AEMR-RD10T3-D35-M16-L43-Z04-H-LIGHT_x_t_objects',' ',(#27));
#27=PRODUCT_CONTEXT(' ',#29,'mechanical');
#28=APPLICATION_PROTOCOL_DEFINITION('international standard',
'automotive_design',2010,#29);
#29=APPLICATION_CONTEXT(
'core data for automotive mechanical design processes');
#30=SHAPE_REPRESENTATION(
'AEMR-RD10T3-D35-M16-L43-Z04-H-LIGHT_x_t_objects-None',(#254),#558);
#31=COLOUR_RGB('silver gray',0.6,0.6,0.6);
#32=SURFACE_OF_REVOLUTION('',#34,#33);
#33=AXIS1_PLACEMENT('',#555,#357);
#34=B_SPLINE_CURVE_WITH_KNOTS('',3,(#489,#490,#491,#492,#493,#494,#495,
#496,#497,#498,#499,#500,#501,#502,#503,#504,#505,#506,#507,#508,#509,#510,
#511,#512,#513,#514,#515,#516,#517,#518,#519,#520,#521,#522,#523,#524,#525,
#526,#527,#528,#529,#530,#531,#532,#533,#534,#535,#536,#537,#538,#539,#540,
#541,#542,#543,#544,#545,#546,#547,#548,#549,#550,#551,#552,#553,#554),
 .UNSPECIFIED.,.T.,.F.,(2,2,2,2,2,2,2,2,2,2,2,2,2,2,2,2,2,2,2,2,2,2,2,2,
2,2,2,2,2,2,2,2,2,2,2),(-0.03125,0.,0.03125,0.0625,0.09375,0.125,0.15625,
0.1875,0.21875,0.25,0.28125,0.3125,0.34375,0.375,0.40625,0.4375,0.46875,
0.5,0.53125,0.5625,0.59375,0.625,0.65625,0.6875,0.71875,0.75,0.78125,0.8125,
0.84375,0.875,0.90625,0.9375,0.96875,1.,1.03125),.UNSPECIFIED.);
#35=TOROIDAL_SURFACE('',#270,8.88,0.6);
#36=TOROIDAL_SURFACE('',#284,19.3,5.);
#37=CYLINDRICAL_SURFACE('',#262,7.875);
#38=CYLINDRICAL_SURFACE('',#266,8.5);
#39=CYLINDRICAL_SURFACE('',#278,14.5);
#40=CYLINDRICAL_SURFACE('',#282,14.3);
#41=CONICAL_SURFACE('',#260,5.875,44.9999999999996);
#42=CONICAL_SURFACE('',#264,7.875,30.);
#43=CONICAL_SURFACE('',#268,8.5,15.0000000000003);
#44=CONICAL_SURFACE('',#272,9.03529142706151,75.0000000000001);
#45=CONICAL_SURFACE('',#276,14.,45.);
#46=CONICAL_SURFACE('',#280,14.5,45.0000000000002);
#47=CONICAL_SURFACE('',#286,14.6015368960705,20.0000000000004);
#48=PLANE('',#258);
#49=PLANE('',#274);
#50=PLANE('',#288);
#51=FACE_OUTER_BOUND('',#132,.T.);
#52=FACE_OUTER_BOUND('',#163,.T.);
#53=PRESENTATION_LAYER_ASSIGNMENT('1','Layer 1',(#69,#70));
#54=STYLED_ITEM('',(#56),#69);
#55=STYLED_ITEM('',(#57),#70);
#56=PRESENTATION_STYLE_ASSIGNMENT((#58));
#57=PRESENTATION_STYLE_ASSIGNMENT((#59));
#58=SURFACE_STYLE_USAGE(.BOTH.,#60);
#59=SURFACE_STYLE_USAGE(.BOTH.,#61);
#60=SURFACE_SIDE_STYLE('',(#62));
#61=SURFACE_SIDE_STYLE('',(#63));
#62=SURFACE_STYLE_FILL_AREA(#64);
#63=SURFACE_STYLE_FILL_AREA(#65);
#64=FILL_AREA_STYLE('',(#66));
#65=FILL_AREA_STYLE('',(#67));
#66=FILL_AREA_STYLE_COLOUR('',#68);
#67=FILL_AREA_STYLE_COLOUR('',#31);
#68=DRAUGHTING_PRE_DEFINED_COLOUR('yellow');
#69=MANIFOLD_SOLID_BREP('',#71);
#70=MANIFOLD_SOLID_BREP('',#72);
#71=CLOSED_SHELL('',(#73,#74));
#72=CLOSED_SHELL('',(#75,#76,#77,#78,#79,#80,#81,#82,#83,#84,#85,#86,#87,
#88,#89,#90,#91));
#73=ADVANCED_FACE('',(#94,#95),#92,.F.);
#74=ADVANCED_FACE('',(#96,#97),#93,.F.);
#75=ADVANCED_FACE('',(#51),#48,.F.);
#76=ADVANCED_FACE('',(#98,#99),#41,.T.);
#77=ADVANCED_FACE('',(#100,#101),#37,.T.);
#78=ADVANCED_FACE('',(#102,#103),#42,.T.);
#79=ADVANCED_FACE('',(#104,#105),#38,.T.);
#80=ADVANCED_FACE('',(#106,#107),#43,.T.);
#81=ADVANCED_FACE('',(#108,#109),#35,.F.);
#82=ADVANCED_FACE('',(#110,#111),#44,.F.);
#83=ADVANCED_FACE('',(#112,#113),#49,.F.);
#84=ADVANCED_FACE('',(#114,#115),#45,.T.);
#85=ADVANCED_FACE('',(#116,#117),#39,.T.);
#86=ADVANCED_FACE('',(#118,#119),#46,.T.);
#87=ADVANCED_FACE('',(#120,#121),#40,.T.);
#88=ADVANCED_FACE('',(#122,#123),#36,.F.);
#89=ADVANCED_FACE('',(#124,#125),#47,.T.);
#90=ADVANCED_FACE('',(#126,#127),#32,.T.);
#91=ADVANCED_FACE('',(#52),#50,.F.);
#92=(
BOUNDED_SURFACE()
B_SPLINE_SURFACE(3,3,((#365,#366,#367,#368,#369,#370,#371),(#372,#373,#374,
#375,#376,#377,#378),(#379,#380,#381,#382,#383,#384,#385),(#386,#387,#388,
#389,#390,#391,#392),(#393,#394,#395,#396,#397,#398,#399),(#400,#401,#402,
#403,#404,#405,#406),(#407,#408,#409,#410,#411,#412,#413)),
 .UNSPECIFIED.,.T.,.F.,.F.)
B_SPLINE_SURFACE_WITH_KNOTS((1,3,3,3,1),(4,3,4),(-0.5,0.,0.5,1.,1.5),(0.,
0.5,1.),.UNSPECIFIED.)
GEOMETRIC_REPRESENTATION_ITEM()
RATIONAL_B_SPLINE_SURFACE(((1.,0.56669660294325,0.56669660294325,1.,0.56669660294325,
0.56669660294325,1.),(0.333333333333334,0.18889886764775,0.18889886764775,
0.333333333333334,0.18889886764775,0.18889886764775,0.333333333333334),
(0.333333333333334,0.18889886764775,0.18889886764775,0.333333333333334,
0.18889886764775,0.18889886764775,0.333333333333334),(1.,0.56669660294325,
0.56669660294325,1.,0.56669660294325,0.56669660294325,1.),(0.333333333333334,
0.18889886764775,0.18889886764775,0.333333333333334,0.18889886764775,0.18889886764775,
0.333333333333334),(0.333333333333334,0.18889886764775,0.18889886764775,
0.333333333333334,0.18889886764775,0.18889886764775,0.333333333333334),
(1.,0.56669660294325,0.56669660294325,1.,0.56669660294325,0.56669660294325,
1.)))
REPRESENTATION_ITEM('')
SURFACE()
);
#93=(
BOUNDED_SURFACE()
B_SPLINE_SURFACE(3,3,((#414,#415,#416,#417),(#418,#419,#420,#421),(#422,
#423,#424,#425),(#426,#427,#428,#429),(#430,#431,#432,#433),(#434,#435,
#436,#437),(#438,#439,#440,#441)),.UNSPECIFIED.,.T.,.F.,.F.)
B_SPLINE_SURFACE_WITH_KNOTS((1,3,3,3,1),(4,4),(-0.5,0.,0.5,1.,1.5),(0.,
1.),.UNSPECIFIED.)
GEOMETRIC_REPRESENTATION_ITEM()
RATIONAL_B_SPLINE_SURFACE(((1.,0.836624753190908,0.836624753190908,1.),
(0.333333333333334,0.278874917730302,0.278874917730302,0.333333333333334),
(0.333333333333334,0.278874917730302,0.278874917730302,0.333333333333334),
(1.,0.836624753190908,0.836624753190908,1.),(0.333333333333334,0.278874917730302,
0.278874917730302,0.333333333333334),(0.333333333333334,0.278874917730302,
0.278874917730302,0.333333333333334),(1.,0.836624753190908,0.836624753190908,
1.)))
REPRESENTATION_ITEM('')
SURFACE()
);
#94=FACE_BOUND('',#128,.T.);
#95=FACE_BOUND('',#129,.T.);
#96=FACE_BOUND('',#130,.T.);
#97=FACE_BOUND('',#131,.T.);
#98=FACE_BOUND('',#133,.T.);
#99=FACE_BOUND('',#134,.T.);
#100=FACE_BOUND('',#135,.T.);
#101=FACE_BOUND('',#136,.T.);
#102=FACE_BOUND('',#137,.T.);
#103=FACE_BOUND('',#138,.T.);
#104=FACE_BOUND('',#139,.T.);
#105=FACE_BOUND('',#140,.T.);
#106=FACE_BOUND('',#141,.T.);
#107=FACE_BOUND('',#142,.T.);
#108=FACE_BOUND('',#143,.T.);
#109=FACE_BOUND('',#144,.T.);
#110=FACE_BOUND('',#145,.T.);
#111=FACE_BOUND('',#146,.T.);
#112=FACE_BOUND('',#147,.T.);
#113=FACE_BOUND('',#148,.T.);
#114=FACE_BOUND('',#149,.T.);
#115=FACE_BOUND('',#150,.T.);
#116=FACE_BOUND('',#151,.T.);
#117=FACE_BOUND('',#152,.T.);
#118=FACE_BOUND('',#153,.T.);
#119=FACE_BOUND('',#154,.T.);
#120=FACE_BOUND('',#155,.T.);
#121=FACE_BOUND('',#156,.T.);
#122=FACE_BOUND('',#157,.T.);
#123=FACE_BOUND('',#158,.T.);
#124=FACE_BOUND('',#159,.T.);
#125=FACE_BOUND('',#160,.T.);
#126=FACE_BOUND('',#161,.T.);
#127=FACE_BOUND('',#162,.T.);
#128=EDGE_LOOP('',(#164));
#129=EDGE_LOOP('',(#165));
#130=EDGE_LOOP('',(#166));
#131=EDGE_LOOP('',(#167));
#132=EDGE_LOOP('',(#168));
#133=EDGE_LOOP('',(#169));
#134=EDGE_LOOP('',(#170));
#135=EDGE_LOOP('',(#171));
#136=EDGE_LOOP('',(#172));
#137=EDGE_LOOP('',(#173));
#138=EDGE_LOOP('',(#174));
#139=EDGE_LOOP('',(#175));
#140=EDGE_LOOP('',(#176));
#141=EDGE_LOOP('',(#177));
#142=EDGE_LOOP('',(#178));
#143=EDGE_LOOP('',(#179));
#144=EDGE_LOOP('',(#180));
#145=EDGE_LOOP('',(#181));
#146=EDGE_LOOP('',(#182));
#147=EDGE_LOOP('',(#183));
#148=EDGE_LOOP('',(#184));
#149=EDGE_LOOP('',(#185));
#150=EDGE_LOOP('',(#186));
#151=EDGE_LOOP('',(#187));
#152=EDGE_LOOP('',(#188));
#153=EDGE_LOOP('',(#189));
#154=EDGE_LOOP('',(#190));
#155=EDGE_LOOP('',(#191));
#156=EDGE_LOOP('',(#192));
#157=EDGE_LOOP('',(#193));
#158=EDGE_LOOP('',(#194));
#159=EDGE_LOOP('',(#195));
#160=EDGE_LOOP('',(#196));
#161=EDGE_LOOP('',(#197));
#162=EDGE_LOOP('',(#198));
#163=EDGE_LOOP('',(#199));
#164=ORIENTED_EDGE('',*,*,#218,.T.);
#165=ORIENTED_EDGE('',*,*,#219,.T.);
#166=ORIENTED_EDGE('',*,*,#219,.F.);
#167=ORIENTED_EDGE('',*,*,#218,.F.);
#168=ORIENTED_EDGE('',*,*,#220,.F.);
#169=ORIENTED_EDGE('',*,*,#221,.F.);
#170=ORIENTED_EDGE('',*,*,#220,.T.);
#171=ORIENTED_EDGE('',*,*,#222,.F.);
#172=ORIENTED_EDGE('',*,*,#221,.T.);
#173=ORIENTED_EDGE('',*,*,#223,.F.);
#174=ORIENTED_EDGE('',*,*,#222,.T.);
#175=ORIENTED_EDGE('',*,*,#224,.F.);
#176=ORIENTED_EDGE('',*,*,#223,.T.);
#177=ORIENTED_EDGE('',*,*,#225,.F.);
#178=ORIENTED_EDGE('',*,*,#224,.T.);
#179=ORIENTED_EDGE('',*,*,#226,.F.);
#180=ORIENTED_EDGE('',*,*,#225,.T.);
#181=ORIENTED_EDGE('',*,*,#227,.F.);
#182=ORIENTED_EDGE('',*,*,#226,.T.);
#183=ORIENTED_EDGE('',*,*,#228,.F.);
#184=ORIENTED_EDGE('',*,*,#227,.T.);
#185=ORIENTED_EDGE('',*,*,#229,.F.);
#186=ORIENTED_EDGE('',*,*,#228,.T.);
#187=ORIENTED_EDGE('',*,*,#230,.F.);
#188=ORIENTED_EDGE('',*,*,#229,.T.);
#189=ORIENTED_EDGE('',*,*,#231,.F.);
#190=ORIENTED_EDGE('',*,*,#230,.T.);
#191=ORIENTED_EDGE('',*,*,#232,.F.);
#192=ORIENTED_EDGE('',*,*,#231,.T.);
#193=ORIENTED_EDGE('',*,*,#233,.F.);
#194=ORIENTED_EDGE('',*,*,#232,.T.);
#195=ORIENTED_EDGE('',*,*,#234,.F.);
#196=ORIENTED_EDGE('',*,*,#233,.T.);
#197=ORIENTED_EDGE('',*,*,#235,.F.);
#198=ORIENTED_EDGE('',*,*,#234,.T.);
#199=ORIENTED_EDGE('',*,*,#235,.T.);
#200=VERTEX_POINT('',#362);
#201=VERTEX_POINT('',#364);
#202=VERTEX_POINT('',#443);
#203=VERTEX_POINT('',#446);
#204=VERTEX_POINT('',#449);
#205=VERTEX_POINT('',#452);
#206=VERTEX_POINT('',#455);
#207=VERTEX_POINT('',#458);
#208=VERTEX_POINT('',#461);
#209=VERTEX_POINT('',#464);
#210=VERTEX_POINT('',#467);
#211=VERTEX_POINT('',#470);
#212=VERTEX_POINT('',#473);
#213=VERTEX_POINT('',#476);
#214=VERTEX_POINT('',#479);
#215=VERTEX_POINT('',#482);
#216=VERTEX_POINT('',#485);
#217=VERTEX_POINT('',#488);
#218=EDGE_CURVE('',#200,#200,#236,.T.);
#219=EDGE_CURVE('',#201,#201,#237,.T.);
#220=EDGE_CURVE('',#202,#202,#238,.T.);
#221=EDGE_CURVE('',#203,#203,#239,.T.);
#222=EDGE_CURVE('',#204,#204,#240,.T.);
#223=EDGE_CURVE('',#205,#205,#241,.T.);
#224=EDGE_CURVE('',#206,#206,#242,.T.);
#225=EDGE_CURVE('',#207,#207,#243,.T.);
#226=EDGE_CURVE('',#208,#208,#244,.T.);
#227=EDGE_CURVE('',#209,#209,#245,.T.);
#228=EDGE_CURVE('',#210,#210,#246,.T.);
#229=EDGE_CURVE('',#211,#211,#247,.T.);
#230=EDGE_CURVE('',#212,#212,#248,.T.);
#231=EDGE_CURVE('',#213,#213,#249,.T.);
#232=EDGE_CURVE('',#214,#214,#250,.T.);
#233=EDGE_CURVE('',#215,#215,#251,.T.);
#234=EDGE_CURVE('',#216,#216,#252,.T.);
#235=EDGE_CURVE('',#217,#217,#253,.T.);
#236=CIRCLE('',#255,5.);
#237=CIRCLE('',#256,5.);
#238=CIRCLE('',#257,5.875);
#239=CIRCLE('',#259,7.875);
#240=CIRCLE('',#261,7.875);
#241=CIRCLE('',#263,8.5);
#242=CIRCLE('',#265,8.5);
#243=CIRCLE('',#267,8.30044450422656);
#244=CIRCLE('',#269,9.03529142706151);
#245=CIRCLE('',#271,9.78004267621759);
#246=CIRCLE('',#273,14.);
#247=CIRCLE('',#275,14.5);
#248=CIRCLE('',#277,14.5);
#249=CIRCLE('',#279,14.3);
#250=CIRCLE('',#281,14.3);
#251=CIRCLE('',#283,14.6015368960705);
#252=CIRCLE('',#285,15.8592634073672);
#253=CIRCLE('',#287,9.32188134108555);
#254=AXIS2_PLACEMENT_3D('',#360,#289,#290);
#255=AXIS2_PLACEMENT_3D('',#361,#291,#292);
#256=AXIS2_PLACEMENT_3D('',#363,#293,#294);
#257=AXIS2_PLACEMENT_3D('',#442,#295,#296);
#258=AXIS2_PLACEMENT_3D('',#444,#297,#298);
#259=AXIS2_PLACEMENT_3D('',#445,#299,#300);
#260=AXIS2_PLACEMENT_3D('',#447,#301,#302);
#261=AXIS2_PLACEMENT_3D('',#448,#303,#304);
#262=AXIS2_PLACEMENT_3D('',#450,#305,#306);
#263=AXIS2_PLACEMENT_3D('',#451,#307,#308);
#264=AXIS2_PLACEMENT_3D('',#453,#309,#310);
#265=AXIS2_PLACEMENT_3D('',#454,#311,#312);
#266=AXIS2_PLACEMENT_3D('',#456,#313,#314);
#267=AXIS2_PLACEMENT_3D('',#457,#315,#316);
#268=AXIS2_PLACEMENT_3D('',#459,#317,#318);
#269=AXIS2_PLACEMENT_3D('',#460,#319,#320);
#270=AXIS2_PLACEMENT_3D('',#462,#321,#322);
#271=AXIS2_PLACEMENT_3D('',#463,#323,#324);
#272=AXIS2_PLACEMENT_3D('',#465,#325,#326);
#273=AXIS2_PLACEMENT_3D('',#466,#327,#328);
#274=AXIS2_PLACEMENT_3D('',#468,#329,#330);
#275=AXIS2_PLACEMENT_3D('',#469,#331,#332);
#276=AXIS2_PLACEMENT_3D('',#471,#333,#334);
#277=AXIS2_PLACEMENT_3D('',#472,#335,#336);
#278=AXIS2_PLACEMENT_3D('',#474,#337,#338);
#279=AXIS2_PLACEMENT_3D('',#475,#339,#340);
#280=AXIS2_PLACEMENT_3D('',#477,#341,#342);
#281=AXIS2_PLACEMENT_3D('',#478,#343,#344);
#282=AXIS2_PLACEMENT_3D('',#480,#345,#346);
#283=AXIS2_PLACEMENT_3D('',#481,#347,#348);
#284=AXIS2_PLACEMENT_3D('',#483,#349,#350);
#285=AXIS2_PLACEMENT_3D('',#484,#351,#352);
#286=AXIS2_PLACEMENT_3D('',#486,#353,#354);
#287=AXIS2_PLACEMENT_3D('',#487,#355,#356);
#288=AXIS2_PLACEMENT_3D('',#556,#358,#359);
#289=DIRECTION('',(0.,0.,1.));
#290=DIRECTION('',(1.,0.,0.));
#291=DIRECTION('',(0.,0.990171268659267,0.13986013986014));
#292=DIRECTION('',(1.,0.,0.));
#293=DIRECTION('',(0.,0.,-1.));
#294=DIRECTION('',(1.,0.,0.));
#295=DIRECTION('',(-1.,0.,0.));
#296=DIRECTION('',(0.,0.,1.));
#297=DIRECTION('',(-1.,0.,0.));
#298=DIRECTION('',(0.,0.,1.));
#299=DIRECTION('',(-1.,0.,0.));
#300=DIRECTION('',(0.,0.,1.));
#301=DIRECTION('',(-1.,0.,0.));
#302=DIRECTION('',(5.51869280290878E-17,0.,1.));
#303=DIRECTION('',(-1.,0.,0.));
#304=DIRECTION('',(0.,0.,1.));
#305=DIRECTION('',(-1.,0.,0.));
#306=DIRECTION('',(0.,0.,1.));
#307=DIRECTION('',(-1.,0.,0.));
#308=DIRECTION('',(0.,0.,1.));
#309=DIRECTION('',(-1.,0.,0.));
#310=DIRECTION('',(8.29975393827572E-17,0.,1.));
#311=DIRECTION('',(-1.,0.,0.));
#312=DIRECTION('',(0.,0.,1.));
#313=DIRECTION('',(-1.,0.,0.));
#314=DIRECTION('',(0.,0.,1.));
#315=DIRECTION('',(-1.,0.,0.));
#316=DIRECTION('',(0.,0.,1.));
#317=DIRECTION('',(1.,0.,0.));
#318=DIRECTION('',(-2.51000693577208E-17,0.,-1.));
#319=DIRECTION('',(-1.,0.,0.));
#320=DIRECTION('',(0.,0.,1.));
#321=DIRECTION('',(-1.,0.,0.));
#322=DIRECTION('',(0.,0.,1.));
#323=DIRECTION('',(-1.,0.,0.));
#324=DIRECTION('',(0.,0.,1.));
#325=DIRECTION('',(1.,0.,0.));
#326=DIRECTION('',(-1.66930253628554E-17,0.,-1.));
#327=DIRECTION('',(-1.,0.,0.));
#328=DIRECTION('',(0.,0.,1.));
#329=DIRECTION('',(-1.,0.,0.));
#330=DIRECTION('',(0.,0.,1.));
#331=DIRECTION('',(-1.,0.,0.));
#332=DIRECTION('',(0.,0.,1.));
#333=DIRECTION('',(-1.,0.,0.));
#334=DIRECTION('',(4.10585438101019E-17,0.,1.));
#335=DIRECTION('',(-1.,0.,0.));
#336=DIRECTION('',(0.,0.,1.));
#337=DIRECTION('',(-1.,0.,0.));
#338=DIRECTION('',(0.,0.,1.));
#339=DIRECTION('',(-1.,0.,0.));
#340=DIRECTION('',(0.,0.,1.));
#341=DIRECTION('',(1.,0.,0.));
#342=DIRECTION('',(1.36794359860171E-17,0.,-1.));
#343=DIRECTION('',(-1.,0.,0.));
#344=DIRECTION('',(0.,0.,1.));
#345=DIRECTION('',(-1.,0.,0.));
#346=DIRECTION('',(0.,0.,1.));
#347=DIRECTION('',(-1.,0.,0.));
#348=DIRECTION('',(0.,0.,1.));
#349=DIRECTION('',(-1.,0.,0.));
#350=DIRECTION('',(0.,0.,1.));
#351=DIRECTION('',(-1.,0.,0.));
#352=DIRECTION('',(0.,0.,1.));
#353=DIRECTION('',(-1.,0.,0.));
#354=DIRECTION('',(-2.74937056820307E-17,0.,1.));
#355=DIRECTION('',(-1.,0.,0.));
#356=DIRECTION('',(0.,0.,1.));
#357=DIRECTION('',(-1.,0.,0.));
#358=DIRECTION('',(1.,0.,0.));
#359=DIRECTION('',(0.,0.,-1.));
#360=CARTESIAN_POINT('',(0.,0.,0.));
#361=CARTESIAN_POINT('',(5.,0.248173661794056,12.542998828743));
#362=CARTESIAN_POINT('',(10.,0.248173661794056,12.542998828743));
#363=CARTESIAN_POINT('',(5.,-12.38500746,2.));
#364=CARTESIAN_POINT('',(10.,-12.38500746,2.));
#365=CARTESIAN_POINT('',(10.,-12.38500746,2.));
#366=CARTESIAN_POINT('',(10.,-14.5889684882366,-11.6480368881299));
#367=CARTESIAN_POINT('',(10.,-2.57588835842189,-18.4899855073752));
#368=CARTESIAN_POINT('',(10.,8.03830764135321,-9.63192712011559));
#369=CARTESIAN_POINT('',(10.,18.6525036411283,-0.773868732856024));
#370=CARTESIAN_POINT('',(10.,14.0703139596776,12.2695162893285));
#371=CARTESIAN_POINT('',(10.,0.248173661794058,12.542998828743));
#372=CARTESIAN_POINT('',(10.,-2.38500746,2.));
#373=CARTESIAN_POINT('',(10.,-4.58896848823663,-0.628231746946811));
#374=CARTESIAN_POINT('',(10.,-2.89850261486735,-3.61275372887604));
#375=CARTESIAN_POINT('',(10.,0.488936343489592,-3.07395540570625));
#376=CARTESIAN_POINT('',(10.,3.87637530184653,-2.53515708253646));
#377=CARTESIAN_POINT('',(10.,4.55742092125582,0.826572114458494));
#378=CARTESIAN_POINT('',(10.,1.64677506039546,2.6412861421503));
#379=CARTESIAN_POINT('',(-5.10076676829453E-16,-2.38500746,2.));
#380=CARTESIAN_POINT('',(-5.10076676829454E-16,-4.58896848823663,-0.628231746946811));
#381=CARTESIAN_POINT('',(-5.10076676829454E-16,-2.89850261486735,-3.61275372887604));
#382=CARTESIAN_POINT('',(-5.10076676829453E-16,0.488936343489592,-3.07395540570625));
#383=CARTESIAN_POINT('',(-5.10076676829454E-16,3.87637530184653,-2.53515708253646));
#384=CARTESIAN_POINT('',(-5.10076676829454E-16,4.55742092125582,0.826572114458494));
#385=CARTESIAN_POINT('',(-5.10076676829453E-16,1.64677506039546,2.6412861421503));
#386=CARTESIAN_POINT('',(-1.7347234759768E-15,-12.38500746,2.));
#387=CARTESIAN_POINT('',(-1.73472347597681E-15,-14.5889684882366,-11.6480368881299));
#388=CARTESIAN_POINT('',(-1.73472347597681E-15,-2.57588835842189,-18.4899855073752));
#389=CARTESIAN_POINT('',(-1.7347234759768E-15,8.03830764135321,-9.63192712011559));
#390=CARTESIAN_POINT('',(-1.73472347597681E-15,18.6525036411283,-0.773868732856024));
#391=CARTESIAN_POINT('',(-1.73472347597681E-15,14.0703139596776,12.2695162893285));
#392=CARTESIAN_POINT('',(-1.7347234759768E-15,0.248173661794058,12.542998828743));
#393=CARTESIAN_POINT('',(-2.95937027512416E-15,-22.38500746,2.));
#394=CARTESIAN_POINT('',(-2.95937027512416E-15,-24.5889684882366,-22.6678420293131));
#395=CARTESIAN_POINT('',(-2.95937027512416E-15,-2.25327410197643,-33.3672172858743));
#396=CARTESIAN_POINT('',(-2.95937027512416E-15,15.5876789392168,-16.1898988345249));
#397=CARTESIAN_POINT('',(-2.95937027512416E-15,33.4286319804101,0.987419616824422));
#398=CARTESIAN_POINT('',(-2.95937027512416E-15,23.5832069980994,23.7124604641986));
#399=CARTESIAN_POINT('',(-2.95937027512416E-15,-1.15042773680734,22.4447115153356));
#400=CARTESIAN_POINT('',(10.,-22.38500746,2.));
#401=CARTESIAN_POINT('',(10.,-24.5889684882366,-22.6678420293131));
#402=CARTESIAN_POINT('',(10.,-2.25327410197643,-33.3672172858743));
#403=CARTESIAN_POINT('',(10.,15.5876789392168,-16.1898988345249));
#404=CARTESIAN_POINT('',(10.,33.4286319804101,0.987419616824422));
#405=CARTESIAN_POINT('',(10.,23.5832069980994,23.7124604641986));
#406=CARTESIAN_POINT('',(10.,-1.15042773680734,22.4447115153356));
#407=CARTESIAN_POINT('',(10.,-12.38500746,2.));
#408=CARTESIAN_POINT('',(10.,-14.5889684882366,-11.6480368881299));
#409=CARTESIAN_POINT('',(10.,-2.57588835842189,-18.4899855073752));
#410=CARTESIAN_POINT('',(10.,8.03830764135321,-9.63192712011559));
#411=CARTESIAN_POINT('',(10.,18.6525036411283,-0.773868732856024));
#412=CARTESIAN_POINT('',(10.,14.0703139596776,12.2695162893285));
#413=CARTESIAN_POINT('',(10.,0.248173661794058,12.542998828743));
#414=CARTESIAN_POINT('',(10.,0.248173661794056,12.542998828743));
#415=CARTESIAN_POINT('',(10.,-6.30646796768495,12.6726878638091));
#416=CARTESIAN_POINT('',(10.,-11.3398600085853,8.4720794912854));
#417=CARTESIAN_POINT('',(10.,-12.38500746,2.));
#418=CARTESIAN_POINT('',(10.,1.64677506039546,2.6412861421503));
#419=CARTESIAN_POINT('',(10.,0.266508320432811,3.50184752086308));
#420=CARTESIAN_POINT('',(10.,-1.33986000858532,3.246342234212));
#421=CARTESIAN_POINT('',(10.,-2.38500746,2.));
#422=CARTESIAN_POINT('',(-5.10076676829453E-16,1.64677506039546,2.6412861421503));
#423=CARTESIAN_POINT('',(-5.10076676829454E-16,0.266508320432811,3.50184752086308));
#424=CARTESIAN_POINT('',(-5.10076676829454E-16,-1.33986000858532,3.246342234212));
#425=CARTESIAN_POINT('',(-5.10076676829453E-16,-2.38500746,2.));
#426=CARTESIAN_POINT('',(-1.7347234759768E-15,0.248173661794056,12.542998828743));
#427=CARTESIAN_POINT('',(-1.73472347597681E-15,-6.30646796768495,12.6726878638091));
#428=CARTESIAN_POINT('',(-1.73472347597681E-15,-11.3398600085853,8.4720794912854));
#429=CARTESIAN_POINT('',(-1.7347234759768E-15,-12.38500746,2.));
#430=CARTESIAN_POINT('',(-2.95937027512416E-15,-1.15042773680734,22.4447115153356));
#431=CARTESIAN_POINT('',(-2.95937027512416E-15,-12.8794442558027,21.8435282067552));
#432=CARTESIAN_POINT('',(-2.95937027512416E-15,-21.3398600085853,13.6978167483588));
#433=CARTESIAN_POINT('',(-2.95937027512416E-15,-22.38500746,2.));
#434=CARTESIAN_POINT('',(10.,-1.15042773680734,22.4447115153356));
#435=CARTESIAN_POINT('',(10.,-12.8794442558027,21.8435282067552));
#436=CARTESIAN_POINT('',(10.,-21.3398600085853,13.6978167483588));
#437=CARTESIAN_POINT('',(10.,-22.38500746,2.));
#438=CARTESIAN_POINT('',(10.,0.248173661794056,12.542998828743));
#439=CARTESIAN_POINT('',(10.,-6.30646796768495,12.6726878638091));
#440=CARTESIAN_POINT('',(10.,-11.3398600085853,8.4720794912854));
#441=CARTESIAN_POINT('',(10.,-12.38500746,2.));
#442=CARTESIAN_POINT('',(68.,0.,0.));
#443=CARTESIAN_POINT('',(68.,0.,5.875));
#444=CARTESIAN_POINT('',(68.,0.,0.));
#445=CARTESIAN_POINT('',(66.,0.,0.));
#446=CARTESIAN_POINT('',(66.,0.,7.875));
#447=CARTESIAN_POINT('',(68.,0.,0.));
#448=CARTESIAN_POINT('',(50.0825317547306,0.,0.));
#449=CARTESIAN_POINT('',(50.0825317547306,0.,7.875));
#450=CARTESIAN_POINT('',(0.,0.,0.));
#451=CARTESIAN_POINT('',(49.,0.,0.));
#452=CARTESIAN_POINT('',(49.,0.,8.5));
#453=CARTESIAN_POINT('',(50.0825317547306,0.,0.));
#454=CARTESIAN_POINT('',(44.2800426762176,0.,0.));
#455=CARTESIAN_POINT('',(44.2800426762176,0.,8.5));
#456=CARTESIAN_POINT('',(0.,0.,0.));
#457=CARTESIAN_POINT('',(43.5352914270615,0.,0.));
#458=CARTESIAN_POINT('',(43.5352914270615,0.,8.30044450422656));
#459=CARTESIAN_POINT('',(44.2800426762176,0.,0.));
#460=CARTESIAN_POINT('',(42.8004445042265,0.,0.));
#461=CARTESIAN_POINT('',(42.8004445042265,0.,9.03529142706151));
#462=CARTESIAN_POINT('',(43.38,0.,0.));
#463=CARTESIAN_POINT('',(43.,0.,0.));
#464=CARTESIAN_POINT('',(43.,0.,9.78004267621759));
#465=CARTESIAN_POINT('',(42.8004445042265,0.,0.));
#466=CARTESIAN_POINT('',(43.,0.,0.));
#467=CARTESIAN_POINT('',(43.,0.,14.));
#468=CARTESIAN_POINT('',(43.,9.78004267621759,0.));
#469=CARTESIAN_POINT('',(42.5,0.,0.));
#470=CARTESIAN_POINT('',(42.5,0.,14.5));
#471=CARTESIAN_POINT('',(43.,0.,0.));
#472=CARTESIAN_POINT('',(38.2,0.,0.));
#473=CARTESIAN_POINT('',(38.2,0.,14.5));
#474=CARTESIAN_POINT('',(0.,0.,0.));
#475=CARTESIAN_POINT('',(38.,0.,0.));
#476=CARTESIAN_POINT('',(38.,0.,14.3));
#477=CARTESIAN_POINT('',(38.2,0.,0.));
#478=CARTESIAN_POINT('',(12.0324477530691,0.,0.));
#479=CARTESIAN_POINT('',(12.0324477530691,0.,14.3));
#480=CARTESIAN_POINT('',(0.,0.,0.));
#481=CARTESIAN_POINT('',(10.3223470364408,0.,0.));
#482=CARTESIAN_POINT('',(10.3223470364408,0.,14.6015368960705));
#483=CARTESIAN_POINT('',(12.0324477530691,0.,0.));
#484=CARTESIAN_POINT('',(6.8667718468035,0.,0.));
#485=CARTESIAN_POINT('',(6.8667718468035,0.,15.8592634073672));
#486=CARTESIAN_POINT('',(10.3223470364408,0.,0.));
#487=CARTESIAN_POINT('',(2.9999999999754,0.,0.));
#488=CARTESIAN_POINT('',(2.9999999999754,0.,9.32188134108555));
#489=CARTESIAN_POINT('',(4.74833008467828,8.7728157347533,0.));
#490=CARTESIAN_POINT('',(5.25166991532173,8.7728157347533,0.));
#491=CARTESIAN_POINT('',(5.50086752761044,8.79671600355418,0.));
#492=CARTESIAN_POINT('',(5.99421635638632,8.89226810372585,0.));
#493=CARTESIAN_POINT('',(6.23417707936747,8.963319884978,0.));
#494=CARTESIAN_POINT('',(6.69478812179395,9.14901018251133,0.));
#495=CARTESIAN_POINT('',(6.91838184485345,9.26514045259555,0.));
#496=CARTESIAN_POINT('',(7.33775442358779,9.53853518740172,0.));
#497=CARTESIAN_POINT('',(7.53155435756695,9.69392232131173,0.));
#498=CARTESIAN_POINT('',(7.88751364486931,10.0419206754725,0.));
#499=CARTESIAN_POINT('',(8.05052064495388,10.236509373183,0.));
#500=CARTESIAN_POINT('',(8.33027866802387,10.6479632116795,0.));
#501=CARTESIAN_POINT('',(8.44894301430871,10.8661643383776,0.));
#502=CARTESIAN_POINT('',(8.64277606609533,11.3281419963297,0.));
#503=CARTESIAN_POINT('',(8.71614922434795,11.5688719598523,0.));
#504=CARTESIAN_POINT('',(8.81296267356371,12.0557028114517,0.));
#505=CARTESIAN_POINT('',(8.83726201457541,12.3057184748401,0.));
#506=CARTESIAN_POINT('',(8.83515534780441,12.8071349177926,0.));
#507=CARTESIAN_POINT('',(8.80917015185299,13.0541388417611,0.));
#508=CARTESIAN_POINT('',(8.70888381095872,13.5409680583798,0.));
#509=CARTESIAN_POINT('',(8.63325363997394,13.7831825692497,0.));
#510=CARTESIAN_POINT('',(8.43838093221931,14.2415817181423,0.));
#511=CARTESIAN_POINT('',(8.31936160272882,14.4593168602206,0.));
#512=CARTESIAN_POINT('',(8.0381053268712,14.8718308359113,0.));
#513=CARTESIAN_POINT('',(7.87559757231803,15.0657823159845,0.));
#514=CARTESIAN_POINT('',(7.521200544147,15.4135466603053,0.));
#515=CARTESIAN_POINT('',(7.32781587650468,15.569790410526,0.));
#516=CARTESIAN_POINT('',(6.90757776094123,15.845806215188,0.));
#517=CARTESIAN_POINT('',(6.68651283905616,15.9616230426032,0.));
#518=CARTESIAN_POINT('',(6.22684608009631,16.1488708331313,0.));
#519=CARTESIAN_POINT('',(5.98526994796857,16.2210693894476,0.));
#520=CARTESIAN_POINT('',(5.49421114422208,16.3168610292263,0.));
#521=CARTESIAN_POINT('',(5.24707793633491,16.3405398456006,0.));
#522=CARTESIAN_POINT('',(4.74966129483872,16.3403299878193,0.));
#523=CARTESIAN_POINT('',(4.49714494570865,16.3156569225658,0.));
#524=CARTESIAN_POINT('',(4.00874589999766,16.219405320919,0.));
#525=CARTESIAN_POINT('',(3.77092372005573,16.1482436267153,0.));
#526=CARTESIAN_POINT('',(3.30821631718817,15.9591900614095,0.));
#527=CARTESIAN_POINT('',(3.08485124165165,15.8412701600262,0.));
#528=CARTESIAN_POINT('',(2.67020749751075,15.5680453430921,0.));
#529=CARTESIAN_POINT('',(2.47614585726373,15.411539712968,0.));
#530=CARTESIAN_POINT('',(2.11768819651197,15.0585809618357,0.));
#531=CARTESIAN_POINT('',(1.95854399061115,14.8674105831329,0.));
#532=CARTESIAN_POINT('',(1.67914509564987,14.4566238861687,0.));
#533=CARTESIAN_POINT('',(1.5579271167612,14.2343284472928,0.));
#534=CARTESIAN_POINT('',(1.3636957321603,13.7745248440257,0.));
#535=CARTESIAN_POINT('',(1.29007921745509,13.537420003352,0.));
#536=CARTESIAN_POINT('',(1.19003088726593,13.0487471251877,0.));
#537=CARTESIAN_POINT('',(1.16426069219925,12.7966022670635,0.));
#538=CARTESIAN_POINT('',(1.1632707475159,12.2997190088558,0.));
#539=CARTESIAN_POINT('',(1.18727428811298,12.0522099262813,0.));
#540=CARTESIAN_POINT('',(1.28625776599398,11.5591321998001,0.));
#541=CARTESIAN_POINT('',(1.35994640129155,11.3206934029767,0.));
#542=CARTESIAN_POINT('',(1.5527086180783,10.8632098658114,0.));
#543=CARTESIAN_POINT('',(1.67358967019929,10.6412463760009,0.));
#544=CARTESIAN_POINT('',(1.95553789105043,10.2286631574705,0.));
#545=CARTESIAN_POINT('',(2.11527156111429,10.0388282136521,0.));
#546=CARTESIAN_POINT('',(2.47144888512691,9.69136184971207,0.));
#547=CARTESIAN_POINT('',(2.66983031016545,9.53300265074977,0.));
#548=CARTESIAN_POINT('',(3.08694113265999,9.26227676819697,0.));
#549=CARTESIAN_POINT('',(3.30717236965145,9.14795299568618,0.));
#550=CARTESIAN_POINT('',(3.77104339020856,8.96148630987946,0.));
#551=CARTESIAN_POINT('',(4.01324048670656,8.89053015879353,0.));
#552=CARTESIAN_POINT('',(4.50070380607159,8.79671085677219,0.));
#553=CARTESIAN_POINT('',(4.74833008467828,8.7728157347533,0.));
#554=CARTESIAN_POINT('',(5.25166991532173,8.7728157347533,0.));
#555=CARTESIAN_POINT('',(0.,0.,0.));
#556=CARTESIAN_POINT('',(2.9999999999877,9.32188134107085,0.));
#557=MECHANICAL_DESIGN_GEOMETRIC_PRESENTATION_REPRESENTATION('',(#54,#55),
#558);
#558=(
GEOMETRIC_REPRESENTATION_CONTEXT(3)
GLOBAL_UNCERTAINTY_ASSIGNED_CONTEXT((#559))
GLOBAL_UNIT_ASSIGNED_CONTEXT((#565,#561,#560))
REPRESENTATION_CONTEXT('AEMR-RD10T3-D35-M16-L43-Z04-H',
'TOP_LEVEL_ASSEMBLY_PART')
);
#559=UNCERTAINTY_MEASURE_WITH_UNIT(LENGTH_MEASURE(2.E-5),#565,
'DISTANCE_ACCURACY_VALUE','Maximum Tolerance applied to model');
#560=(
NAMED_UNIT(*)
SI_UNIT($,.STERADIAN.)
SOLID_ANGLE_UNIT()
);
#561=(
CONVERSION_BASED_UNIT('DEGREE',#563)
NAMED_UNIT(#562)
PLANE_ANGLE_UNIT()
);
#562=DIMENSIONAL_EXPONENTS(0.,0.,0.,0.,0.,0.,0.);
#563=PLANE_ANGLE_MEASURE_WITH_UNIT(PLANE_ANGLE_MEASURE(0.0174532925),#564);
#564=(
NAMED_UNIT(*)
PLANE_ANGLE_UNIT()
SI_UNIT($,.RADIAN.)
);
#565=(
LENGTH_UNIT()
NAMED_UNIT(*)
SI_UNIT(.MILLI.,.METRE.)
);
ENDSEC;
END-ISO-10303-21;
