ISO-10303-21;
HEADER;
/* Generated by software containing ST-Developer
 * from STEP Tools, Inc. (www.steptools.com) 
 */
/* OPTION: using custom schema-name function */

FILE_DESCRIPTION(
/* description */ (''),
/* implementation_level */ '2;1');

FILE_NAME(
/* name */ 'AEMR-RD1204-D32-M16-L43-Z03-H.stp',
/* time_stamp */ '2023-10-21T11:08:44+03:00',
/* author */ (''),
/* organization */ (''),
/* preprocessor_version */ 'ST-DEVELOPER v19.4',
/* originating_system */ 'SIEMENS PLM Software NX2306.5001',
/* authorisation */ '');

FILE_SCHEMA (('AUTOMOTIVE_DESIGN { 1 0 10303 214 3 1 1 1 }'));
ENDSEC;

DATA;
#10=PROPERTY_DEFINITION_REPRESENTATION(#14,#12);
#11=PROPERTY_DEFINITION_REPRESENTATION(#15,#13);
#12=REPRESENTATION('',(#16),#538);
#13=REPRESENTATION('',(#17),#538);
#14=PROPERTY_DEFINITION('pmi validation property','',#21);
#15=PROPERTY_DEFINITION('pmi validation property','',#21);
#16=VALUE_REPRESENTATION_ITEM('number of annotations',COUNT_MEASURE(0.));
#17=VALUE_REPRESENTATION_ITEM('number of views',COUNT_MEASURE(0.));
#18=SHAPE_REPRESENTATION_RELATIONSHIP('None',
'relationship between AEMR-RD1204-D32-M16-L43-Z03-H-LIGHT_x_t_objects-
None and AEMR-RD1204-D32-M16-L43-Z03-H-LIGHT_x_t_objects-None',#30,#19);
#19=ADVANCED_BREP_SHAPE_REPRESENTATION(
'AEMR-RD1204-D32-M16-L43-Z03-H-LIGHT_x_t_objects-None',(#50,#51),#538);
#20=SHAPE_DEFINITION_REPRESENTATION(#21,#30);
#21=PRODUCT_DEFINITION_SHAPE('','',#22);
#22=PRODUCT_DEFINITION(' ','',#24,#23);
#23=PRODUCT_DEFINITION_CONTEXT('part definition',#29,'design');
#24=PRODUCT_DEFINITION_FORMATION_WITH_SPECIFIED_SOURCE(' ',' ',#26,
 .NOT_KNOWN.);
#25=PRODUCT_RELATED_PRODUCT_CATEGORY('part','',(#26));
#26=PRODUCT('AEMR-RD1204-D32-M16-L43-Z03-H-LIGHT_x_t_objects',
'AEMR-RD1204-D32-M16-L43-Z03-H-LIGHT_x_t_objects',' ',(#27));
#27=PRODUCT_CONTEXT(' ',#29,'mechanical');
#28=APPLICATION_PROTOCOL_DEFINITION('international standard',
'automotive_design',2010,#29);
#29=APPLICATION_CONTEXT(
'core data for automotive mechanical design processes');
#30=SHAPE_REPRESENTATION(
'AEMR-RD1204-D32-M16-L43-Z03-H-LIGHT_x_t_objects-None',(#243),#538);
#31=DRAUGHTING_PRE_DEFINED_COLOUR('yellow');
#32=(
BOUNDED_SURFACE()
B_SPLINE_SURFACE(3,3,((#460,#461,#462,#463,#464,#465,#466),(#467,#468,#469,
#470,#471,#472,#473),(#474,#475,#476,#477,#478,#479,#480),(#481,#482,#483,
#484,#485,#486,#487),(#488,#489,#490,#491,#492,#493,#494),(#495,#496,#497,
#498,#499,#500,#501),(#502,#503,#504,#505,#506,#507,#508)),
 .UNSPECIFIED.,.T.,.F.,.F.)
B_SPLINE_SURFACE_WITH_KNOTS((1,3,3,3,1),(4,3,4),(-0.5,0.,0.5,1.,1.5),(0.,
0.5,1.),.UNSPECIFIED.)
GEOMETRIC_REPRESENTATION_ITEM()
RATIONAL_B_SPLINE_SURFACE(((1.,0.56622389131261,0.56622389131261,1.,0.56622389131261,
0.56622389131261,1.),(0.333333333333334,0.188741297104204,0.188741297104204,
0.333333333333334,0.188741297104204,0.188741297104204,0.333333333333334),
(0.333333333333334,0.188741297104204,0.188741297104204,0.333333333333334,
0.188741297104204,0.188741297104204,0.333333333333334),(1.,0.56622389131261,
0.56622389131261,1.,0.56622389131261,0.56622389131261,1.),(0.333333333333334,
0.188741297104204,0.188741297104204,0.333333333333334,0.188741297104204,
0.188741297104204,0.333333333333334),(0.333333333333334,0.188741297104204,
0.188741297104204,0.333333333333334,0.188741297104204,0.188741297104204,
0.333333333333334),(1.,0.56622389131261,0.56622389131261,1.,0.56622389131261,
0.56622389131261,1.)))
REPRESENTATION_ITEM('')
SURFACE()
);
#33=(
BOUNDED_SURFACE()
B_SPLINE_SURFACE(3,3,((#509,#510,#511,#512),(#513,#514,#515,#516),(#517,
#518,#519,#520),(#521,#522,#523,#524),(#525,#526,#527,#528),(#529,#530,
#531,#532),(#533,#534,#535,#536)),.UNSPECIFIED.,.T.,.F.,.F.)
B_SPLINE_SURFACE_WITH_KNOTS((1,3,3,3,1),(4,4),(-0.5,0.,0.5,1.,1.5),(0.,
1.),.UNSPECIFIED.)
GEOMETRIC_REPRESENTATION_ITEM()
RATIONAL_B_SPLINE_SURFACE(((1.,0.837285964012303,0.837285964012303,1.),
(0.333333333333334,0.279095321337435,0.279095321337435,0.333333333333334),
(0.333333333333334,0.279095321337435,0.279095321337435,0.333333333333334),
(1.,0.837285964012303,0.837285964012303,1.),(0.333333333333334,0.279095321337435,
0.279095321337435,0.333333333333334),(0.333333333333334,0.279095321337435,
0.279095321337435,0.333333333333334),(1.,0.837285964012303,0.837285964012303,
1.)))
REPRESENTATION_ITEM('')
SURFACE()
);
#34=PRESENTATION_LAYER_ASSIGNMENT('1','Layer 1',(#50,#51));
#35=STYLED_ITEM('',(#37),#50);
#36=STYLED_ITEM('',(#38),#51);
#37=PRESENTATION_STYLE_ASSIGNMENT((#39));
#38=PRESENTATION_STYLE_ASSIGNMENT((#40));
#39=SURFACE_STYLE_USAGE(.BOTH.,#41);
#40=SURFACE_STYLE_USAGE(.BOTH.,#42);
#41=SURFACE_SIDE_STYLE('',(#43));
#42=SURFACE_SIDE_STYLE('',(#44));
#43=SURFACE_STYLE_FILL_AREA(#45);
#44=SURFACE_STYLE_FILL_AREA(#46);
#45=FILL_AREA_STYLE('',(#47));
#46=FILL_AREA_STYLE('',(#48));
#47=FILL_AREA_STYLE_COLOUR('',#49);
#48=FILL_AREA_STYLE_COLOUR('',#31);
#49=COLOUR_RGB('silver gray',0.6,0.6,0.6);
#50=MANIFOLD_SOLID_BREP('',#52);
#51=MANIFOLD_SOLID_BREP('',#53);
#52=CLOSED_SHELL('',(#72,#73,#74,#75,#76,#77,#78,#79,#80,#81,#82,#83,#84,
#85,#86,#87));
#53=CLOSED_SHELL('',(#88,#89));
#54=FACE_OUTER_BOUND('',#142,.T.);
#55=FACE_OUTER_BOUND('',#143,.T.);
#56=SURFACE_OF_REVOLUTION('',#58,#57);
#57=AXIS1_PLACEMENT('',#438,#314);
#58=B_SPLINE_CURVE_WITH_KNOTS('',3,(#372,#373,#374,#375,#376,#377,#378,
#379,#380,#381,#382,#383,#384,#385,#386,#387,#388,#389,#390,#391,#392,#393,
#394,#395,#396,#397,#398,#399,#400,#401,#402,#403,#404,#405,#406,#407,#408,
#409,#410,#411,#412,#413,#414,#415,#416,#417,#418,#419,#420,#421,#422,#423,
#424,#425,#426,#427,#428,#429,#430,#431,#432,#433,#434,#435,#436,#437),
 .UNSPECIFIED.,.T.,.F.,(2,2,2,2,2,2,2,2,2,2,2,2,2,2,2,2,2,2,2,2,2,2,2,2,
2,2,2,2,2,2,2,2,2,2,2),(-0.03125,0.,0.0625,0.09375,0.125,0.15625,0.1875,
0.21875,0.25,0.28125,0.3125,0.34375,0.375,0.40625,0.4375,0.46875,0.5,0.53125,
0.5625,0.59375,0.625,0.65625,0.6875,0.71875,0.75,0.78125,0.8125,0.84375,
0.875,0.890625,0.90625,0.9375,0.96875,1.,1.0625),.UNSPECIFIED.);
#59=CYLINDRICAL_SURFACE('',#254,14.5);
#60=CYLINDRICAL_SURFACE('',#258,14.);
#61=CYLINDRICAL_SURFACE('',#268,7.875);
#62=CYLINDRICAL_SURFACE('',#272,8.5);
#63=PLANE('',#250);
#64=PLANE('',#262);
#65=PLANE('',#264);
#66=CONICAL_SURFACE('',#248,9.03529142706151,75.);
#67=CONICAL_SURFACE('',#252,14.,44.9999999999996);
#68=CONICAL_SURFACE('',#256,14.5,44.9999999999992);
#69=CONICAL_SURFACE('',#266,5.875,45.0000000000002);
#70=CONICAL_SURFACE('',#270,7.875,30.0000000000004);
#71=CONICAL_SURFACE('',#273,8.5,14.9999999999999);
#72=ADVANCED_FACE('',(#92,#93),#90,.F.);
#73=ADVANCED_FACE('',(#94,#95),#66,.F.);
#74=ADVANCED_FACE('',(#96,#97),#63,.F.);
#75=ADVANCED_FACE('',(#98,#99),#67,.T.);
#76=ADVANCED_FACE('',(#100,#101),#59,.T.);
#77=ADVANCED_FACE('',(#102,#103),#68,.T.);
#78=ADVANCED_FACE('',(#104,#105),#60,.T.);
#79=ADVANCED_FACE('',(#106,#107),#91,.F.);
#80=ADVANCED_FACE('',(#108,#109),#56,.T.);
#81=ADVANCED_FACE('',(#54),#64,.F.);
#82=ADVANCED_FACE('',(#55),#65,.F.);
#83=ADVANCED_FACE('',(#110,#111),#69,.T.);
#84=ADVANCED_FACE('',(#112,#113),#61,.T.);
#85=ADVANCED_FACE('',(#114,#115),#70,.T.);
#86=ADVANCED_FACE('',(#116,#117),#62,.T.);
#87=ADVANCED_FACE('',(#118,#119),#71,.T.);
#88=ADVANCED_FACE('',(#120,#121),#32,.F.);
#89=ADVANCED_FACE('',(#122,#123),#33,.F.);
#90=TOROIDAL_SURFACE('',#246,8.88,0.6);
#91=TOROIDAL_SURFACE('',#260,19.,5.);
#92=FACE_BOUND('',#124,.T.);
#93=FACE_BOUND('',#125,.T.);
#94=FACE_BOUND('',#126,.T.);
#95=FACE_BOUND('',#127,.T.);
#96=FACE_BOUND('',#128,.T.);
#97=FACE_BOUND('',#129,.T.);
#98=FACE_BOUND('',#130,.T.);
#99=FACE_BOUND('',#131,.T.);
#100=FACE_BOUND('',#132,.T.);
#101=FACE_BOUND('',#133,.T.);
#102=FACE_BOUND('',#134,.T.);
#103=FACE_BOUND('',#135,.T.);
#104=FACE_BOUND('',#136,.T.);
#105=FACE_BOUND('',#137,.T.);
#106=FACE_BOUND('',#138,.T.);
#107=FACE_BOUND('',#139,.T.);
#108=FACE_BOUND('',#140,.T.);
#109=FACE_BOUND('',#141,.T.);
#110=FACE_BOUND('',#144,.T.);
#111=FACE_BOUND('',#145,.T.);
#112=FACE_BOUND('',#146,.T.);
#113=FACE_BOUND('',#147,.T.);
#114=FACE_BOUND('',#148,.T.);
#115=FACE_BOUND('',#149,.T.);
#116=FACE_BOUND('',#150,.T.);
#117=FACE_BOUND('',#151,.T.);
#118=FACE_BOUND('',#152,.T.);
#119=FACE_BOUND('',#153,.T.);
#120=FACE_BOUND('',#154,.T.);
#121=FACE_BOUND('',#155,.T.);
#122=FACE_BOUND('',#156,.T.);
#123=FACE_BOUND('',#157,.T.);
#124=EDGE_LOOP('',(#158));
#125=EDGE_LOOP('',(#159));
#126=EDGE_LOOP('',(#160));
#127=EDGE_LOOP('',(#161));
#128=EDGE_LOOP('',(#162));
#129=EDGE_LOOP('',(#163));
#130=EDGE_LOOP('',(#164));
#131=EDGE_LOOP('',(#165));
#132=EDGE_LOOP('',(#166));
#133=EDGE_LOOP('',(#167));
#134=EDGE_LOOP('',(#168));
#135=EDGE_LOOP('',(#169));
#136=EDGE_LOOP('',(#170));
#137=EDGE_LOOP('',(#171));
#138=EDGE_LOOP('',(#172));
#139=EDGE_LOOP('',(#173));
#140=EDGE_LOOP('',(#174));
#141=EDGE_LOOP('',(#175));
#142=EDGE_LOOP('',(#176));
#143=EDGE_LOOP('',(#177));
#144=EDGE_LOOP('',(#178));
#145=EDGE_LOOP('',(#179));
#146=EDGE_LOOP('',(#180));
#147=EDGE_LOOP('',(#181));
#148=EDGE_LOOP('',(#182));
#149=EDGE_LOOP('',(#183));
#150=EDGE_LOOP('',(#184));
#151=EDGE_LOOP('',(#185));
#152=EDGE_LOOP('',(#186));
#153=EDGE_LOOP('',(#187));
#154=EDGE_LOOP('',(#188));
#155=EDGE_LOOP('',(#189));
#156=EDGE_LOOP('',(#190));
#157=EDGE_LOOP('',(#191));
#158=ORIENTED_EDGE('',*,*,#209,.F.);
#159=ORIENTED_EDGE('',*,*,#210,.T.);
#160=ORIENTED_EDGE('',*,*,#211,.F.);
#161=ORIENTED_EDGE('',*,*,#209,.T.);
#162=ORIENTED_EDGE('',*,*,#212,.F.);
#163=ORIENTED_EDGE('',*,*,#211,.T.);
#164=ORIENTED_EDGE('',*,*,#213,.F.);
#165=ORIENTED_EDGE('',*,*,#212,.T.);
#166=ORIENTED_EDGE('',*,*,#214,.F.);
#167=ORIENTED_EDGE('',*,*,#213,.T.);
#168=ORIENTED_EDGE('',*,*,#215,.F.);
#169=ORIENTED_EDGE('',*,*,#214,.T.);
#170=ORIENTED_EDGE('',*,*,#216,.F.);
#171=ORIENTED_EDGE('',*,*,#215,.T.);
#172=ORIENTED_EDGE('',*,*,#217,.F.);
#173=ORIENTED_EDGE('',*,*,#216,.T.);
#174=ORIENTED_EDGE('',*,*,#218,.F.);
#175=ORIENTED_EDGE('',*,*,#217,.T.);
#176=ORIENTED_EDGE('',*,*,#218,.T.);
#177=ORIENTED_EDGE('',*,*,#219,.F.);
#178=ORIENTED_EDGE('',*,*,#220,.F.);
#179=ORIENTED_EDGE('',*,*,#219,.T.);
#180=ORIENTED_EDGE('',*,*,#221,.F.);
#181=ORIENTED_EDGE('',*,*,#220,.T.);
#182=ORIENTED_EDGE('',*,*,#222,.F.);
#183=ORIENTED_EDGE('',*,*,#221,.T.);
#184=ORIENTED_EDGE('',*,*,#223,.F.);
#185=ORIENTED_EDGE('',*,*,#222,.T.);
#186=ORIENTED_EDGE('',*,*,#210,.F.);
#187=ORIENTED_EDGE('',*,*,#223,.T.);
#188=ORIENTED_EDGE('',*,*,#224,.T.);
#189=ORIENTED_EDGE('',*,*,#225,.T.);
#190=ORIENTED_EDGE('',*,*,#225,.F.);
#191=ORIENTED_EDGE('',*,*,#224,.F.);
#192=VERTEX_POINT('',#345);
#193=VERTEX_POINT('',#347);
#194=VERTEX_POINT('',#350);
#195=VERTEX_POINT('',#353);
#196=VERTEX_POINT('',#356);
#197=VERTEX_POINT('',#359);
#198=VERTEX_POINT('',#362);
#199=VERTEX_POINT('',#365);
#200=VERTEX_POINT('',#368);
#201=VERTEX_POINT('',#371);
#202=VERTEX_POINT('',#441);
#203=VERTEX_POINT('',#444);
#204=VERTEX_POINT('',#447);
#205=VERTEX_POINT('',#450);
#206=VERTEX_POINT('',#453);
#207=VERTEX_POINT('',#457);
#208=VERTEX_POINT('',#459);
#209=EDGE_CURVE('',#192,#192,#226,.T.);
#210=EDGE_CURVE('',#193,#193,#227,.T.);
#211=EDGE_CURVE('',#194,#194,#228,.T.);
#212=EDGE_CURVE('',#195,#195,#229,.T.);
#213=EDGE_CURVE('',#196,#196,#230,.T.);
#214=EDGE_CURVE('',#197,#197,#231,.T.);
#215=EDGE_CURVE('',#198,#198,#232,.T.);
#216=EDGE_CURVE('',#199,#199,#233,.T.);
#217=EDGE_CURVE('',#200,#200,#234,.T.);
#218=EDGE_CURVE('',#201,#201,#235,.T.);
#219=EDGE_CURVE('',#202,#202,#236,.T.);
#220=EDGE_CURVE('',#203,#203,#237,.T.);
#221=EDGE_CURVE('',#204,#204,#238,.T.);
#222=EDGE_CURVE('',#205,#205,#239,.T.);
#223=EDGE_CURVE('',#206,#206,#240,.T.);
#224=EDGE_CURVE('',#207,#207,#241,.T.);
#225=EDGE_CURVE('',#208,#208,#242,.T.);
#226=CIRCLE('',#244,9.03529142706151);
#227=CIRCLE('',#245,8.30044450422656);
#228=CIRCLE('',#247,9.78004267621761);
#229=CIRCLE('',#249,14.);
#230=CIRCLE('',#251,14.5);
#231=CIRCLE('',#253,14.5);
#232=CIRCLE('',#255,14.);
#233=CIRCLE('',#257,14.);
#234=CIRCLE('',#259,14.2269167777194);
#235=CIRCLE('',#261,6.58958725157887);
#236=CIRCLE('',#263,5.875);
#237=CIRCLE('',#265,7.875);
#238=CIRCLE('',#267,7.875);
#239=CIRCLE('',#269,8.5);
#240=CIRCLE('',#271,8.5);
#241=CIRCLE('',#274,6.);
#242=CIRCLE('',#275,6.);
#243=AXIS2_PLACEMENT_3D('',#343,#276,#277);
#244=AXIS2_PLACEMENT_3D('',#344,#278,#279);
#245=AXIS2_PLACEMENT_3D('',#346,#280,#281);
#246=AXIS2_PLACEMENT_3D('',#348,#282,#283);
#247=AXIS2_PLACEMENT_3D('',#349,#284,#285);
#248=AXIS2_PLACEMENT_3D('',#351,#286,#287);
#249=AXIS2_PLACEMENT_3D('',#352,#288,#289);
#250=AXIS2_PLACEMENT_3D('',#354,#290,#291);
#251=AXIS2_PLACEMENT_3D('',#355,#292,#293);
#252=AXIS2_PLACEMENT_3D('',#357,#294,#295);
#253=AXIS2_PLACEMENT_3D('',#358,#296,#297);
#254=AXIS2_PLACEMENT_3D('',#360,#298,#299);
#255=AXIS2_PLACEMENT_3D('',#361,#300,#301);
#256=AXIS2_PLACEMENT_3D('',#363,#302,#303);
#257=AXIS2_PLACEMENT_3D('',#364,#304,#305);
#258=AXIS2_PLACEMENT_3D('',#366,#306,#307);
#259=AXIS2_PLACEMENT_3D('',#367,#308,#309);
#260=AXIS2_PLACEMENT_3D('',#369,#310,#311);
#261=AXIS2_PLACEMENT_3D('',#370,#312,#313);
#262=AXIS2_PLACEMENT_3D('',#439,#315,#316);
#263=AXIS2_PLACEMENT_3D('',#440,#317,#318);
#264=AXIS2_PLACEMENT_3D('',#442,#319,#320);
#265=AXIS2_PLACEMENT_3D('',#443,#321,#322);
#266=AXIS2_PLACEMENT_3D('',#445,#323,#324);
#267=AXIS2_PLACEMENT_3D('',#446,#325,#326);
#268=AXIS2_PLACEMENT_3D('',#448,#327,#328);
#269=AXIS2_PLACEMENT_3D('',#449,#329,#330);
#270=AXIS2_PLACEMENT_3D('',#451,#331,#332);
#271=AXIS2_PLACEMENT_3D('',#452,#333,#334);
#272=AXIS2_PLACEMENT_3D('',#454,#335,#336);
#273=AXIS2_PLACEMENT_3D('',#455,#337,#338);
#274=AXIS2_PLACEMENT_3D('',#456,#339,#340);
#275=AXIS2_PLACEMENT_3D('',#458,#341,#342);
#276=DIRECTION('',(0.,0.,1.));
#277=DIRECTION('',(1.,0.,0.));
#278=DIRECTION('',(-1.,0.,0.));
#279=DIRECTION('',(0.,0.,1.));
#280=DIRECTION('',(-1.,0.,0.));
#281=DIRECTION('',(0.,0.,1.));
#282=DIRECTION('',(-1.,0.,0.));
#283=DIRECTION('',(0.,0.,1.));
#284=DIRECTION('',(-1.,0.,0.));
#285=DIRECTION('',(0.,0.,1.));
#286=DIRECTION('',(1.,0.,0.));
#287=DIRECTION('',(-1.66930253628555E-17,0.,-1.));
#288=DIRECTION('',(-1.,0.,0.));
#289=DIRECTION('',(0.,0.,1.));
#290=DIRECTION('',(-1.,0.,0.));
#291=DIRECTION('',(0.,0.,1.));
#292=DIRECTION('',(-1.,0.,0.));
#293=DIRECTION('',(0.,0.,1.));
#294=DIRECTION('',(-1.,0.,0.));
#295=DIRECTION('',(4.10585438101025E-17,0.,1.));
#296=DIRECTION('',(-1.,0.,0.));
#297=DIRECTION('',(0.,0.,1.));
#298=DIRECTION('',(-1.,0.,0.));
#299=DIRECTION('',(0.,0.,1.));
#300=DIRECTION('',(-1.,0.,0.));
#301=DIRECTION('',(0.,0.,1.));
#302=DIRECTION('',(1.,0.,0.));
#303=DIRECTION('',(-2.05191539790264E-17,0.,-1.));
#304=DIRECTION('',(-1.,0.,0.));
#305=DIRECTION('',(0.,0.,1.));
#306=DIRECTION('',(-1.,0.,0.));
#307=DIRECTION('',(0.,0.,1.));
#308=DIRECTION('',(-1.,0.,0.));
#309=DIRECTION('',(0.,0.,1.));
#310=DIRECTION('',(-1.,0.,0.));
#311=DIRECTION('',(0.,0.,1.));
#312=DIRECTION('',(-1.,0.,0.));
#313=DIRECTION('',(0.,0.,1.));
#314=DIRECTION('',(-1.,0.,0.));
#315=DIRECTION('',(1.,0.,0.));
#316=DIRECTION('',(0.,0.,-1.));
#317=DIRECTION('',(-1.,0.,0.));
#318=DIRECTION('',(0.,0.,1.));
#319=DIRECTION('',(-1.,0.,0.));
#320=DIRECTION('',(0.,0.,1.));
#321=DIRECTION('',(-1.,0.,0.));
#322=DIRECTION('',(0.,0.,1.));
#323=DIRECTION('',(-1.,0.,0.));
#324=DIRECTION('',(5.51869280290865E-17,0.,1.));
#325=DIRECTION('',(-1.,0.,0.));
#326=DIRECTION('',(0.,0.,1.));
#327=DIRECTION('',(-1.,0.,0.));
#328=DIRECTION('',(0.,0.,1.));
#329=DIRECTION('',(-1.,0.,0.));
#330=DIRECTION('',(0.,0.,1.));
#331=DIRECTION('',(-1.,0.,0.));
#332=DIRECTION('',(7.11407480423621E-17,0.,1.));
#333=DIRECTION('',(-1.,0.,0.));
#334=DIRECTION('',(0.,0.,1.));
#335=DIRECTION('',(-1.,0.,0.));
#336=DIRECTION('',(0.,0.,1.));
#337=DIRECTION('',(1.,0.,0.));
#338=DIRECTION('',(-2.00800554861772E-16,0.,-1.));
#339=DIRECTION('',(0.,0.989743318610787,0.142857142857143));
#340=DIRECTION('',(1.,0.,0.));
#341=DIRECTION('',(0.,0.,-1.));
#342=DIRECTION('',(1.,0.,0.));
#343=CARTESIAN_POINT('',(0.,0.,0.));
#344=CARTESIAN_POINT('',(42.8004445042265,0.,0.));
#345=CARTESIAN_POINT('',(42.8004445042265,0.,9.03529142706151));
#346=CARTESIAN_POINT('',(43.5352914270615,0.,0.));
#347=CARTESIAN_POINT('',(43.5352914270615,0.,8.30044450422656));
#348=CARTESIAN_POINT('',(43.38,0.,0.));
#349=CARTESIAN_POINT('',(43.,0.,0.));
#350=CARTESIAN_POINT('',(43.,0.,9.78004267621761));
#351=CARTESIAN_POINT('',(42.8004445042265,0.,0.));
#352=CARTESIAN_POINT('',(43.,0.,0.));
#353=CARTESIAN_POINT('',(43.,0.,14.));
#354=CARTESIAN_POINT('',(43.,14.,0.));
#355=CARTESIAN_POINT('',(42.5,0.,0.));
#356=CARTESIAN_POINT('',(42.5,0.,14.5));
#357=CARTESIAN_POINT('',(43.,0.,0.));
#358=CARTESIAN_POINT('',(38.5,0.,0.));
#359=CARTESIAN_POINT('',(38.5,0.,14.5));
#360=CARTESIAN_POINT('',(0.,0.,0.));
#361=CARTESIAN_POINT('',(38.,0.,0.));
#362=CARTESIAN_POINT('',(38.,0.,14.));
#363=CARTESIAN_POINT('',(38.5,0.,0.));
#364=CARTESIAN_POINT('',(9.66212931013911,0.,0.));
#365=CARTESIAN_POINT('',(9.66212931013911,0.,14.));
#366=CARTESIAN_POINT('',(0.,0.,0.));
#367=CARTESIAN_POINT('',(8.1729427693783,0.,0.));
#368=CARTESIAN_POINT('',(8.1729427693783,0.,14.2269167777194));
#369=CARTESIAN_POINT('',(9.66212931013911,0.,0.));
#370=CARTESIAN_POINT('',(3.50000000000064,0.,0.));
#371=CARTESIAN_POINT('',(3.50000000000064,0.,6.58958725157887));
#372=CARTESIAN_POINT('',(5.7015036581518,5.93105849416218,0.));
#373=CARTESIAN_POINT('',(6.59699268369642,5.93105849416218,0.));
#374=CARTESIAN_POINT('',(7.19301429306027,6.03360478077504,0.));
#375=CARTESIAN_POINT('',(8.02527483437343,6.33827881337027,0.));
#376=CARTESIAN_POINT('',(8.2958780950446,6.46646116844386,0.));
#377=CARTESIAN_POINT('',(8.80558079231097,6.77280330494716,0.));
#378=CARTESIAN_POINT('',(9.04255915332005,6.94905512261437,0.));
#379=CARTESIAN_POINT('',(9.47926546929947,7.34966304277743,0.));
#380=CARTESIAN_POINT('',(9.67898887597803,7.57536782207173,0.));
#381=CARTESIAN_POINT('',(10.0211537903299,8.05644494816427,0.));
#382=CARTESIAN_POINT('',(10.1665901510825,8.31440620605287,0.));
#383=CARTESIAN_POINT('',(10.4023698367226,8.86398712385358,0.));
#384=CARTESIAN_POINT('',(10.4888643595724,9.14631269123679,0.));
#385=CARTESIAN_POINT('',(10.6022382813179,9.72527189569763,0.));
#386=CARTESIAN_POINT('',(10.6287526972149,10.0255781548194,0.));
#387=CARTESIAN_POINT('',(10.6192690502899,10.6175252349006,0.));
#388=CARTESIAN_POINT('',(10.5843037164344,10.9100506272497,0.));
#389=CARTESIAN_POINT('',(10.4549967711781,11.4883272757974,0.));
#390=CARTESIAN_POINT('',(10.3597662528074,11.7738075418162,0.));
#391=CARTESIAN_POINT('',(10.1187634131869,12.3119389810574,0.));
#392=CARTESIAN_POINT('',(9.97238897441156,12.5681440882985,0.));
#393=CARTESIAN_POINT('',(9.62695070445983,13.0543641680659,0.));
#394=CARTESIAN_POINT('',(9.43173720377153,13.2784636223625,0.));
#395=CARTESIAN_POINT('',(9.0042192519824,13.6839053924901,0.));
#396=CARTESIAN_POINT('',(8.76917121082823,13.8675988005077,0.));
#397=CARTESIAN_POINT('',(8.26695564644964,14.1872480988796,0.));
#398=CARTESIAN_POINT('',(8.00407953698207,14.3210090080606,0.));
#399=CARTESIAN_POINT('',(7.45558003114038,14.5381515874934,0.));
#400=CARTESIAN_POINT('',(7.16671225940496,14.6219280628338,0.));
#401=CARTESIAN_POINT('',(6.58466903387414,14.7321699119819,0.));
#402=CARTESIAN_POINT('',(6.29124650142377,14.7595150213325,0.));
#403=CARTESIAN_POINT('',(5.69962447197418,14.7589413819926,0.));
#404=CARTESIAN_POINT('',(5.39988858998388,14.7301564526571,0.));
#405=CARTESIAN_POINT('',(4.82000913227139,14.6184553535428,0.));
#406=CARTESIAN_POINT('',(4.53686553286139,14.5358457258984,0.));
#407=CARTESIAN_POINT('',(3.98450743697929,14.3157820247894,0.));
#408=CARTESIAN_POINT('',(3.71850687376928,14.1790164393938,0.));
#409=CARTESIAN_POINT('',(3.22191289088327,13.8608535508764,0.));
#410=CARTESIAN_POINT('',(2.98788070293552,13.6776088120969,0.));
#411=CARTESIAN_POINT('',(2.55629810233752,13.2658649996507,0.));
#412=CARTESIAN_POINT('',(2.36340871818386,13.0421784707256,0.));
#413=CARTESIAN_POINT('',(2.02268149320631,12.5597613475027,0.));
#414=CARTESIAN_POINT('',(1.87378487248956,12.297988437649,0.));
#415=CARTESIAN_POINT('',(1.63378263839294,11.7565550374209,0.));
#416=CARTESIAN_POINT('',(1.54139062337289,11.476250252928,0.));
#417=CARTESIAN_POINT('',(1.41348379702285,10.8958883780669,0.));
#418=CARTESIAN_POINT('',(1.37917803914219,10.5980235185123,0.));
#419=CARTESIAN_POINT('',(1.37228389920614,10.0078034440402,0.));
#420=CARTESIAN_POINT('',(1.39955478283843,9.70967264543326,0.));
#421=CARTESIAN_POINT('',(1.51637500793464,9.1264042099888,0.));
#422=CARTESIAN_POINT('',(1.60453359646401,8.84490812942182,0.));
#423=CARTESIAN_POINT('',(1.8400512501001,8.302091205217,0.));
#424=CARTESIAN_POINT('',(1.98916004605588,8.03969507365705,0.));
#425=CARTESIAN_POINT('',(2.33297222622779,7.56095065310193,0.));
#426=CARTESIAN_POINT('',(2.52880316443656,7.34108794350678,0.));
#427=CARTESIAN_POINT('',(2.8584037838178,7.04053117128911,0.));
#428=CARTESIAN_POINT('',(2.97438367681177,6.94533732159342,0.));
#429=CARTESIAN_POINT('',(3.21231145980034,6.76933096161758,0.));
#430=CARTESIAN_POINT('',(3.33495980912899,6.68783851435235,0.));
#431=CARTESIAN_POINT('',(3.71341909347477,6.46194067211934,0.));
#432=CARTESIAN_POINT('',(3.97965982554978,6.33596556569024,0.));
#433=CARTESIAN_POINT('',(4.53935273875211,6.13210016740767,0.));
#434=CARTESIAN_POINT('',(4.8268402746292,6.05662480228961,0.));
#435=CARTESIAN_POINT('',(5.40720388938926,5.9563613486239,0.));
#436=CARTESIAN_POINT('',(5.7015036581518,5.93105849416218,0.));
#437=CARTESIAN_POINT('',(6.59699268369642,5.93105849416218,0.));
#438=CARTESIAN_POINT('',(0.,0.,0.));
#439=CARTESIAN_POINT('',(3.50000000000201,6.58958725157728,0.));
#440=CARTESIAN_POINT('',(68.,0.,0.));
#441=CARTESIAN_POINT('',(68.,0.,5.875));
#442=CARTESIAN_POINT('',(68.,0.,0.));
#443=CARTESIAN_POINT('',(66.,0.,0.));
#444=CARTESIAN_POINT('',(66.,0.,7.875));
#445=CARTESIAN_POINT('',(68.,0.,0.));
#446=CARTESIAN_POINT('',(50.0825317547305,0.,0.));
#447=CARTESIAN_POINT('',(50.0825317547305,0.,7.875));
#448=CARTESIAN_POINT('',(0.,0.,0.));
#449=CARTESIAN_POINT('',(49.,0.,0.));
#450=CARTESIAN_POINT('',(49.,0.,8.5));
#451=CARTESIAN_POINT('',(50.0825317547305,0.,0.));
#452=CARTESIAN_POINT('',(44.2800426762176,0.,0.));
#453=CARTESIAN_POINT('',(44.2800426762176,0.,8.5));
#454=CARTESIAN_POINT('',(0.,0.,0.));
#455=CARTESIAN_POINT('',(44.2800426762176,0.,0.));
#456=CARTESIAN_POINT('',(6.,0.568870934364431,10.0587465549265));
#457=CARTESIAN_POINT('',(12.,0.568870934364431,10.0587465549265));
#458=CARTESIAN_POINT('',(6.,-9.87430992,2.));
#459=CARTESIAN_POINT('',(12.,-9.87430992,2.));
#460=CARTESIAN_POINT('',(12.,-9.87430992,2.));
#461=CARTESIAN_POINT('',(12.,-12.0807341482708,-8.89345832247143));
#462=CARTESIAN_POINT('',(12.,-2.6443730697874,-14.7663478748984));
#463=CARTESIAN_POINT('',(12.,6.15496934906921,-7.9761111268731));
#464=CARTESIAN_POINT('',(12.,14.9543117679258,-1.18587437884783));
#465=CARTESIAN_POINT('',(12.,11.6658019867771,9.43116124875613));
#466=CARTESIAN_POINT('',(12.,0.568870934364433,10.0587465549265));
#467=CARTESIAN_POINT('',(12.,2.12569008,2.));
#468=CARTESIAN_POINT('',(12.,-0.0807341482708144,4.34508704715346));
#469=CARTESIAN_POINT('',(12.,-3.04885810094983,3.09689582167537));
#470=CARTESIAN_POINT('',(12.,-2.91617800315224,-0.120267078377375));
#471=CARTESIAN_POINT('',(12.,-2.78349790535464,-3.33742997843012));
#472=CARTESIAN_POINT('',(12.,0.277325873350851,-4.33697934166258));
#473=CARTESIAN_POINT('',(12.,2.28315664865014,-1.81817326840294));
#474=CARTESIAN_POINT('',(1.46957615897682E-15,2.12569008,2.));
#475=CARTESIAN_POINT('',(1.46957615897682E-15,-0.0807341482708144,4.34508704715346));
#476=CARTESIAN_POINT('',(1.46957615897682E-15,-3.04885810094983,3.09689582167537));
#477=CARTESIAN_POINT('',(1.46957615897682E-15,-2.91617800315224,-0.120267078377375));
#478=CARTESIAN_POINT('',(1.46957615897682E-15,-2.78349790535464,-3.33742997843012));
#479=CARTESIAN_POINT('',(1.46957615897682E-15,0.277325873350851,-4.33697934166258));
#480=CARTESIAN_POINT('',(1.46957615897682E-15,2.28315664865014,-1.81817326840294));
#481=CARTESIAN_POINT('',(0.,-9.87430992,2.));
#482=CARTESIAN_POINT('',(0.,-12.0807341482708,-8.89345832247143));
#483=CARTESIAN_POINT('',(0.,-2.6443730697874,-14.7663478748984));
#484=CARTESIAN_POINT('',(0.,6.15496934906921,-7.9761111268731));
#485=CARTESIAN_POINT('',(0.,14.9543117679258,-1.18587437884783));
#486=CARTESIAN_POINT('',(0.,11.6658019867771,9.43116124875613));
#487=CARTESIAN_POINT('',(0.,0.568870934364433,10.0587465549265));
#488=CARTESIAN_POINT('',(-1.46957615897682E-15,-21.87430992,2.));
#489=CARTESIAN_POINT('',(-1.46957615897682E-15,-24.0807341482708,-22.1320036920963));
#490=CARTESIAN_POINT('',(-1.46957615897682E-15,-2.23988803862497,-32.6295915714721));
#491=CARTESIAN_POINT('',(-1.46957615897682E-15,15.2261167012906,-15.8319551753688));
#492=CARTESIAN_POINT('',(-1.46957615897682E-15,32.6921214412063,0.965681220734472));
#493=CARTESIAN_POINT('',(-1.46957615897682E-15,23.0542781002034,23.1993018391748));
#494=CARTESIAN_POINT('',(-1.46957615897682E-15,-1.14541477992128,21.9356663782559));
#495=CARTESIAN_POINT('',(12.,-21.87430992,2.));
#496=CARTESIAN_POINT('',(12.,-24.0807341482708,-22.1320036920963));
#497=CARTESIAN_POINT('',(12.,-2.23988803862497,-32.6295915714721));
#498=CARTESIAN_POINT('',(12.,15.2261167012906,-15.8319551753688));
#499=CARTESIAN_POINT('',(12.,32.6921214412063,0.965681220734472));
#500=CARTESIAN_POINT('',(12.,23.0542781002034,23.1993018391748));
#501=CARTESIAN_POINT('',(12.,-1.14541477992128,21.9356663782559));
#502=CARTESIAN_POINT('',(12.,-9.87430992,2.));
#503=CARTESIAN_POINT('',(12.,-12.0807341482708,-8.89345832247143));
#504=CARTESIAN_POINT('',(12.,-2.6443730697874,-14.7663478748984));
#505=CARTESIAN_POINT('',(12.,6.15496934906921,-7.9761111268731));
#506=CARTESIAN_POINT('',(12.,14.9543117679258,-1.18587437884783));
#507=CARTESIAN_POINT('',(12.,11.6658019867771,9.43116124875613));
#508=CARTESIAN_POINT('',(12.,0.568870934364433,10.0587465549265));
#509=CARTESIAN_POINT('',(12.,0.568870934364431,10.0587465549265));
#510=CARTESIAN_POINT('',(12.,-4.67425637453278,10.3552708499683));
#511=CARTESIAN_POINT('',(12.,-8.83180879319126,7.14698960902937));
#512=CARTESIAN_POINT('',(12.,-9.87430992,2.));
#513=CARTESIAN_POINT('',(12.,2.28315664865014,-1.81817326840294));
#514=CARTESIAN_POINT('',(12.,3.23088048917194,-0.628076578953619));
#515=CARTESIAN_POINT('',(12.,3.16819120680874,0.891982848176918));
#516=CARTESIAN_POINT('',(12.,2.12569008,2.));
#517=CARTESIAN_POINT('',(1.46957615897682E-15,2.28315664865014,-1.81817326840294));
#518=CARTESIAN_POINT('',(1.46957615897682E-15,3.23088048917194,-0.628076578953619));
#519=CARTESIAN_POINT('',(1.46957615897682E-15,3.16819120680874,0.891982848176918));
#520=CARTESIAN_POINT('',(1.46957615897682E-15,2.12569008,2.));
#521=CARTESIAN_POINT('',(0.,0.568870934364431,10.0587465549265));
#522=CARTESIAN_POINT('',(0.,-4.67425637453278,10.3552708499683));
#523=CARTESIAN_POINT('',(0.,-8.83180879319126,7.14698960902937));
#524=CARTESIAN_POINT('',(0.,-9.87430992,2.));
#525=CARTESIAN_POINT('',(-1.46957615897682E-15,-1.14541477992128,21.9356663782559));
#526=CARTESIAN_POINT('',(-1.46957615897682E-15,-12.5793932382375,21.3386182788903));
#527=CARTESIAN_POINT('',(-1.46957615897682E-15,-20.8318087931912,13.4019963698818));
#528=CARTESIAN_POINT('',(-1.46957615897682E-15,-21.87430992,2.));
#529=CARTESIAN_POINT('',(12.,-1.14541477992128,21.9356663782559));
#530=CARTESIAN_POINT('',(12.,-12.5793932382375,21.3386182788903));
#531=CARTESIAN_POINT('',(12.,-20.8318087931912,13.4019963698818));
#532=CARTESIAN_POINT('',(12.,-21.87430992,2.));
#533=CARTESIAN_POINT('',(12.,0.568870934364431,10.0587465549265));
#534=CARTESIAN_POINT('',(12.,-4.67425637453278,10.3552708499683));
#535=CARTESIAN_POINT('',(12.,-8.83180879319126,7.14698960902937));
#536=CARTESIAN_POINT('',(12.,-9.87430992,2.));
#537=MECHANICAL_DESIGN_GEOMETRIC_PRESENTATION_REPRESENTATION('',(#35,#36),
#538);
#538=(
GEOMETRIC_REPRESENTATION_CONTEXT(3)
GLOBAL_UNCERTAINTY_ASSIGNED_CONTEXT((#539))
GLOBAL_UNIT_ASSIGNED_CONTEXT((#545,#541,#540))
REPRESENTATION_CONTEXT('AEMR-RD1204-D32-M16-L43-Z03-H',
'TOP_LEVEL_ASSEMBLY_PART')
);
#539=UNCERTAINTY_MEASURE_WITH_UNIT(LENGTH_MEASURE(2.E-5),#545,
'DISTANCE_ACCURACY_VALUE','Maximum Tolerance applied to model');
#540=(
NAMED_UNIT(*)
SI_UNIT($,.STERADIAN.)
SOLID_ANGLE_UNIT()
);
#541=(
CONVERSION_BASED_UNIT('DEGREE',#543)
NAMED_UNIT(#542)
PLANE_ANGLE_UNIT()
);
#542=DIMENSIONAL_EXPONENTS(0.,0.,0.,0.,0.,0.,0.);
#543=PLANE_ANGLE_MEASURE_WITH_UNIT(PLANE_ANGLE_MEASURE(0.0174532925),#544);
#544=(
NAMED_UNIT(*)
PLANE_ANGLE_UNIT()
SI_UNIT($,.RADIAN.)
);
#545=(
LENGTH_UNIT()
NAMED_UNIT(*)
SI_UNIT(.MILLI.,.METRE.)
);
ENDSEC;
END-ISO-10303-21;
