ISO-10303-21;
HEADER;
/* Generated by software containing ST-Developer
 * from STEP Tools, Inc. (www.steptools.com) 
 */
/* OPTION: using custom schema-name function */

FILE_DESCRIPTION(
/* description */ (''),
/* implementation_level */ '2;1');

FILE_NAME(
/* name */ 'AEMR-RD1204-D42-M16-L43-Z04-H.stp',
/* time_stamp */ '2023-10-21T11:16:31+03:00',
/* author */ (''),
/* organization */ (''),
/* preprocessor_version */ 'ST-DEVELOPER v19.4',
/* originating_system */ 'SIEMENS PLM Software NX2306.5001',
/* authorisation */ '');

FILE_SCHEMA (('AUTOMOTIVE_DESIGN { 1 0 10303 214 3 1 1 1 }'));
ENDSEC;

DATA;
#10=PROPERTY_DEFINITION_REPRESENTATION(#14,#12);
#11=PROPERTY_DEFINITION_REPRESENTATION(#15,#13);
#12=REPRESENTATION('',(#16),#514);
#13=REPRESENTATION('',(#17),#514);
#14=PROPERTY_DEFINITION('pmi validation property','',#21);
#15=PROPERTY_DEFINITION('pmi validation property','',#21);
#16=VALUE_REPRESENTATION_ITEM('number of annotations',COUNT_MEASURE(0.));
#17=VALUE_REPRESENTATION_ITEM('number of views',COUNT_MEASURE(0.));
#18=SHAPE_REPRESENTATION_RELATIONSHIP('None',
'relationship between AEMR-RD1204-D42-M16-L43-Z04-H-LIGHT_x_t_objects-
None and AEMR-RD1204-D42-M16-L43-Z04-H-LIGHT_x_t_objects-None',#30,#19);
#19=ADVANCED_BREP_SHAPE_REPRESENTATION(
'AEMR-RD1204-D42-M16-L43-Z04-H-LIGHT_x_t_objects-None',(#49,#50),#514);
#20=SHAPE_DEFINITION_REPRESENTATION(#21,#30);
#21=PRODUCT_DEFINITION_SHAPE('','',#22);
#22=PRODUCT_DEFINITION(' ','',#24,#23);
#23=PRODUCT_DEFINITION_CONTEXT('part definition',#29,'design');
#24=PRODUCT_DEFINITION_FORMATION_WITH_SPECIFIED_SOURCE(' ',' ',#26,
 .NOT_KNOWN.);
#25=PRODUCT_RELATED_PRODUCT_CATEGORY('part','',(#26));
#26=PRODUCT('AEMR-RD1204-D42-M16-L43-Z04-H-LIGHT_x_t_objects',
'AEMR-RD1204-D42-M16-L43-Z04-H-LIGHT_x_t_objects',' ',(#27));
#27=PRODUCT_CONTEXT(' ',#29,'mechanical');
#28=APPLICATION_PROTOCOL_DEFINITION('international standard',
'automotive_design',2010,#29);
#29=APPLICATION_CONTEXT(
'core data for automotive mechanical design processes');
#30=SHAPE_REPRESENTATION(
'AEMR-RD1204-D42-M16-L43-Z04-H-LIGHT_x_t_objects-None',(#243),#514);
#31=DRAUGHTING_PRE_DEFINED_COLOUR('yellow');
#32=(
BOUNDED_SURFACE()
B_SPLINE_SURFACE(3,3,((#464,#465,#466,#467,#468,#469,#470),(#471,#472,#473,
#474,#475,#476,#477),(#478,#479,#480,#481,#482,#483,#484),(#485,#486,#487,
#488,#489,#490,#491),(#492,#493,#494,#495,#496,#497,#498),(#499,#500,#501,
#502,#503,#504,#505),(#506,#507,#508,#509,#510,#511,#512)),
 .UNSPECIFIED.,.T.,.T.,.F.)
B_SPLINE_SURFACE_WITH_KNOTS((1,3,3,3,1),(1,3,3,3,1),(-0.5,0.,0.5,1.,1.5),
(-0.5,0.,0.5,1.,1.5),.UNSPECIFIED.)
GEOMETRIC_REPRESENTATION_ITEM()
RATIONAL_B_SPLINE_SURFACE(((1.,0.333333333333334,0.333333333333334,1.,0.333333333333334,
0.333333333333334,1.),(0.333333333333334,0.111111111111111,0.111111111111111,
0.333333333333334,0.111111111111111,0.111111111111111,0.333333333333334),
(0.333333333333334,0.111111111111111,0.111111111111111,0.333333333333334,
0.111111111111111,0.111111111111111,0.333333333333334),(1.,0.333333333333334,
0.333333333333334,1.,0.333333333333334,0.333333333333334,1.),(0.333333333333334,
0.111111111111111,0.111111111111111,0.333333333333334,0.111111111111111,
0.111111111111111,0.333333333333334),(0.333333333333334,0.111111111111111,
0.111111111111111,0.333333333333334,0.111111111111111,0.111111111111111,
0.333333333333334),(1.,0.333333333333334,0.333333333333334,1.,0.333333333333334,
0.333333333333334,1.)))
REPRESENTATION_ITEM('')
SURFACE()
);
#33=PRESENTATION_LAYER_ASSIGNMENT('1','Layer 1',(#49,#50));
#34=STYLED_ITEM('',(#36),#49);
#35=STYLED_ITEM('',(#37),#50);
#36=PRESENTATION_STYLE_ASSIGNMENT((#38));
#37=PRESENTATION_STYLE_ASSIGNMENT((#39));
#38=SURFACE_STYLE_USAGE(.BOTH.,#40);
#39=SURFACE_STYLE_USAGE(.BOTH.,#41);
#40=SURFACE_SIDE_STYLE('',(#42));
#41=SURFACE_SIDE_STYLE('',(#43));
#42=SURFACE_STYLE_FILL_AREA(#44);
#43=SURFACE_STYLE_FILL_AREA(#45);
#44=FILL_AREA_STYLE('',(#46));
#45=FILL_AREA_STYLE('',(#47));
#46=FILL_AREA_STYLE_COLOUR('',#48);
#47=FILL_AREA_STYLE_COLOUR('',#31);
#48=COLOUR_RGB('silver gray',0.6,0.6,0.6);
#49=MANIFOLD_SOLID_BREP('',#51);
#50=MANIFOLD_SOLID_BREP('',#52);
#51=CLOSED_SHELL('',(#71,#72,#73,#74,#75,#76,#77,#78,#79,#80,#81,#82,#83,
#84,#85,#86,#87));
#52=CLOSED_SHELL('',(#88));
#53=TOROIDAL_SURFACE('',#260,8.88,0.6);
#54=TOROIDAL_SURFACE('',#274,29.3,15.);
#55=CYLINDRICAL_SURFACE('',#252,7.875);
#56=CYLINDRICAL_SURFACE('',#256,8.5);
#57=CYLINDRICAL_SURFACE('',#268,14.5);
#58=CYLINDRICAL_SURFACE('',#272,14.3);
#59=CONICAL_SURFACE('',#250,5.875,45.0000000000002);
#60=CONICAL_SURFACE('',#254,7.875,30.0000000000004);
#61=CONICAL_SURFACE('',#258,8.5,14.9999999999999);
#62=CONICAL_SURFACE('',#262,9.03529142706151,75.);
#63=CONICAL_SURFACE('',#266,14.,44.9999999999999);
#64=CONICAL_SURFACE('',#270,14.5,44.9999999999992);
#65=CONICAL_SURFACE('',#275,15.2046106882113,19.9999999999997);
#66=PLANE('',#246);
#67=PLANE('',#248);
#68=PLANE('',#264);
#69=FACE_OUTER_BOUND('',#126,.T.);
#70=FACE_OUTER_BOUND('',#127,.T.);
#71=ADVANCED_FACE('',(#92,#93),#89,.T.);
#72=ADVANCED_FACE('',(#69),#66,.F.);
#73=ADVANCED_FACE('',(#70),#67,.F.);
#74=ADVANCED_FACE('',(#94,#95),#59,.T.);
#75=ADVANCED_FACE('',(#96,#97),#55,.T.);
#76=ADVANCED_FACE('',(#98,#99),#60,.T.);
#77=ADVANCED_FACE('',(#100,#101),#56,.T.);
#78=ADVANCED_FACE('',(#102,#103),#61,.T.);
#79=ADVANCED_FACE('',(#104,#105),#53,.F.);
#80=ADVANCED_FACE('',(#106,#107),#62,.F.);
#81=ADVANCED_FACE('',(#108,#109),#68,.F.);
#82=ADVANCED_FACE('',(#110,#111),#63,.T.);
#83=ADVANCED_FACE('',(#112,#113),#57,.T.);
#84=ADVANCED_FACE('',(#114,#115),#64,.T.);
#85=ADVANCED_FACE('',(#116,#117),#58,.T.);
#86=ADVANCED_FACE('',(#118,#119),#54,.F.);
#87=ADVANCED_FACE('',(#120,#121),#65,.T.);
#88=ADVANCED_FACE('',(#122,#123),#32,.F.);
#89=SURFACE_OF_REVOLUTION('',#91,#90);
#90=AXIS1_PLACEMENT('',#417,#283);
#91=B_SPLINE_CURVE_WITH_KNOTS('',3,(#351,#352,#353,#354,#355,#356,#357,
#358,#359,#360,#361,#362,#363,#364,#365,#366,#367,#368,#369,#370,#371,#372,
#373,#374,#375,#376,#377,#378,#379,#380,#381,#382,#383,#384,#385,#386,#387,
#388,#389,#390,#391,#392,#393,#394,#395,#396,#397,#398,#399,#400,#401,#402,
#403,#404,#405,#406,#407,#408,#409,#410,#411,#412,#413,#414,#415,#416),
 .UNSPECIFIED.,.T.,.F.,(2,2,2,2,2,2,2,2,2,2,2,2,2,2,2,2,2,2,2,2,2,2,2,2,
2,2,2,2,2,2,2,2,2,2,2),(-0.03125,0.,0.03125,0.0625,0.09375,0.125,0.15625,
0.1875,0.21875,0.25,0.28125,0.3125,0.34375,0.375,0.40625,0.4375,0.46875,
0.5,0.53125,0.5625,0.59375,0.625,0.65625,0.6875,0.71875,0.75,0.78125,0.8125,
0.84375,0.875,0.90625,0.9375,0.96875,1.,1.03125),.UNSPECIFIED.);
#92=FACE_BOUND('',#124,.T.);
#93=FACE_BOUND('',#125,.T.);
#94=FACE_BOUND('',#128,.T.);
#95=FACE_BOUND('',#129,.T.);
#96=FACE_BOUND('',#130,.T.);
#97=FACE_BOUND('',#131,.T.);
#98=FACE_BOUND('',#132,.T.);
#99=FACE_BOUND('',#133,.T.);
#100=FACE_BOUND('',#134,.T.);
#101=FACE_BOUND('',#135,.T.);
#102=FACE_BOUND('',#136,.T.);
#103=FACE_BOUND('',#137,.T.);
#104=FACE_BOUND('',#138,.T.);
#105=FACE_BOUND('',#139,.T.);
#106=FACE_BOUND('',#140,.T.);
#107=FACE_BOUND('',#141,.T.);
#108=FACE_BOUND('',#142,.T.);
#109=FACE_BOUND('',#143,.T.);
#110=FACE_BOUND('',#144,.T.);
#111=FACE_BOUND('',#145,.T.);
#112=FACE_BOUND('',#146,.T.);
#113=FACE_BOUND('',#147,.T.);
#114=FACE_BOUND('',#148,.T.);
#115=FACE_BOUND('',#149,.T.);
#116=FACE_BOUND('',#150,.T.);
#117=FACE_BOUND('',#151,.T.);
#118=FACE_BOUND('',#152,.T.);
#119=FACE_BOUND('',#153,.T.);
#120=FACE_BOUND('',#154,.T.);
#121=FACE_BOUND('',#155,.T.);
#122=FACE_BOUND('',#156,.T.);
#123=FACE_BOUND('',#157,.T.);
#124=EDGE_LOOP('',(#158));
#125=EDGE_LOOP('',(#159));
#126=EDGE_LOOP('',(#160));
#127=EDGE_LOOP('',(#161));
#128=EDGE_LOOP('',(#162));
#129=EDGE_LOOP('',(#163));
#130=EDGE_LOOP('',(#164));
#131=EDGE_LOOP('',(#165));
#132=EDGE_LOOP('',(#166));
#133=EDGE_LOOP('',(#167));
#134=EDGE_LOOP('',(#168));
#135=EDGE_LOOP('',(#169));
#136=EDGE_LOOP('',(#170));
#137=EDGE_LOOP('',(#171));
#138=EDGE_LOOP('',(#172));
#139=EDGE_LOOP('',(#173));
#140=EDGE_LOOP('',(#174));
#141=EDGE_LOOP('',(#175));
#142=EDGE_LOOP('',(#176));
#143=EDGE_LOOP('',(#177));
#144=EDGE_LOOP('',(#178));
#145=EDGE_LOOP('',(#179));
#146=EDGE_LOOP('',(#180));
#147=EDGE_LOOP('',(#181));
#148=EDGE_LOOP('',(#182));
#149=EDGE_LOOP('',(#183));
#150=EDGE_LOOP('',(#184));
#151=EDGE_LOOP('',(#185));
#152=EDGE_LOOP('',(#186));
#153=EDGE_LOOP('',(#187));
#154=EDGE_LOOP('',(#188));
#155=EDGE_LOOP('',(#189));
#156=EDGE_LOOP('',(#190));
#157=EDGE_LOOP('',(#191));
#158=ORIENTED_EDGE('',*,*,#209,.F.);
#159=ORIENTED_EDGE('',*,*,#210,.T.);
#160=ORIENTED_EDGE('',*,*,#209,.T.);
#161=ORIENTED_EDGE('',*,*,#211,.F.);
#162=ORIENTED_EDGE('',*,*,#212,.F.);
#163=ORIENTED_EDGE('',*,*,#211,.T.);
#164=ORIENTED_EDGE('',*,*,#213,.F.);
#165=ORIENTED_EDGE('',*,*,#212,.T.);
#166=ORIENTED_EDGE('',*,*,#214,.F.);
#167=ORIENTED_EDGE('',*,*,#213,.T.);
#168=ORIENTED_EDGE('',*,*,#215,.F.);
#169=ORIENTED_EDGE('',*,*,#214,.T.);
#170=ORIENTED_EDGE('',*,*,#216,.F.);
#171=ORIENTED_EDGE('',*,*,#215,.T.);
#172=ORIENTED_EDGE('',*,*,#217,.F.);
#173=ORIENTED_EDGE('',*,*,#216,.T.);
#174=ORIENTED_EDGE('',*,*,#218,.F.);
#175=ORIENTED_EDGE('',*,*,#217,.T.);
#176=ORIENTED_EDGE('',*,*,#219,.F.);
#177=ORIENTED_EDGE('',*,*,#218,.T.);
#178=ORIENTED_EDGE('',*,*,#220,.F.);
#179=ORIENTED_EDGE('',*,*,#219,.T.);
#180=ORIENTED_EDGE('',*,*,#221,.F.);
#181=ORIENTED_EDGE('',*,*,#220,.T.);
#182=ORIENTED_EDGE('',*,*,#222,.F.);
#183=ORIENTED_EDGE('',*,*,#221,.T.);
#184=ORIENTED_EDGE('',*,*,#223,.F.);
#185=ORIENTED_EDGE('',*,*,#222,.T.);
#186=ORIENTED_EDGE('',*,*,#224,.F.);
#187=ORIENTED_EDGE('',*,*,#223,.T.);
#188=ORIENTED_EDGE('',*,*,#210,.F.);
#189=ORIENTED_EDGE('',*,*,#224,.T.);
#190=ORIENTED_EDGE('',*,*,#225,.T.);
#191=ORIENTED_EDGE('',*,*,#225,.F.);
#192=VERTEX_POINT('',#348);
#193=VERTEX_POINT('',#350);
#194=VERTEX_POINT('',#420);
#195=VERTEX_POINT('',#423);
#196=VERTEX_POINT('',#426);
#197=VERTEX_POINT('',#429);
#198=VERTEX_POINT('',#432);
#199=VERTEX_POINT('',#435);
#200=VERTEX_POINT('',#438);
#201=VERTEX_POINT('',#441);
#202=VERTEX_POINT('',#444);
#203=VERTEX_POINT('',#447);
#204=VERTEX_POINT('',#450);
#205=VERTEX_POINT('',#453);
#206=VERTEX_POINT('',#456);
#207=VERTEX_POINT('',#459);
#208=VERTEX_POINT('',#463);
#209=EDGE_CURVE('',#192,#192,#226,.T.);
#210=EDGE_CURVE('',#193,#193,#227,.T.);
#211=EDGE_CURVE('',#194,#194,#228,.T.);
#212=EDGE_CURVE('',#195,#195,#229,.T.);
#213=EDGE_CURVE('',#196,#196,#230,.T.);
#214=EDGE_CURVE('',#197,#197,#231,.T.);
#215=EDGE_CURVE('',#198,#198,#232,.T.);
#216=EDGE_CURVE('',#199,#199,#233,.T.);
#217=EDGE_CURVE('',#200,#200,#234,.T.);
#218=EDGE_CURVE('',#201,#201,#235,.T.);
#219=EDGE_CURVE('',#202,#202,#236,.T.);
#220=EDGE_CURVE('',#203,#203,#237,.T.);
#221=EDGE_CURVE('',#204,#204,#238,.T.);
#222=EDGE_CURVE('',#205,#205,#239,.T.);
#223=EDGE_CURVE('',#206,#206,#240,.T.);
#224=EDGE_CURVE('',#207,#207,#241,.T.);
#225=EDGE_CURVE('',#208,#208,#242,.T.);
#226=CIRCLE('',#244,11.5263390504607);
#227=CIRCLE('',#245,19.3774654632071);
#228=CIRCLE('',#247,5.875);
#229=CIRCLE('',#249,7.875);
#230=CIRCLE('',#251,7.875);
#231=CIRCLE('',#253,8.5);
#232=CIRCLE('',#255,8.5);
#233=CIRCLE('',#257,8.30044450422656);
#234=CIRCLE('',#259,9.03529142706151);
#235=CIRCLE('',#261,9.78004267621758);
#236=CIRCLE('',#263,14.);
#237=CIRCLE('',#265,14.5);
#238=CIRCLE('',#267,14.5);
#239=CIRCLE('',#269,14.3);
#240=CIRCLE('',#271,14.3);
#241=CIRCLE('',#273,15.2046106882113);
#242=CIRCLE('',#276,6.);
#243=AXIS2_PLACEMENT_3D('',#346,#277,#278);
#244=AXIS2_PLACEMENT_3D('',#347,#279,#280);
#245=AXIS2_PLACEMENT_3D('',#349,#281,#282);
#246=AXIS2_PLACEMENT_3D('',#418,#284,#285);
#247=AXIS2_PLACEMENT_3D('',#419,#286,#287);
#248=AXIS2_PLACEMENT_3D('',#421,#288,#289);
#249=AXIS2_PLACEMENT_3D('',#422,#290,#291);
#250=AXIS2_PLACEMENT_3D('',#424,#292,#293);
#251=AXIS2_PLACEMENT_3D('',#425,#294,#295);
#252=AXIS2_PLACEMENT_3D('',#427,#296,#297);
#253=AXIS2_PLACEMENT_3D('',#428,#298,#299);
#254=AXIS2_PLACEMENT_3D('',#430,#300,#301);
#255=AXIS2_PLACEMENT_3D('',#431,#302,#303);
#256=AXIS2_PLACEMENT_3D('',#433,#304,#305);
#257=AXIS2_PLACEMENT_3D('',#434,#306,#307);
#258=AXIS2_PLACEMENT_3D('',#436,#308,#309);
#259=AXIS2_PLACEMENT_3D('',#437,#310,#311);
#260=AXIS2_PLACEMENT_3D('',#439,#312,#313);
#261=AXIS2_PLACEMENT_3D('',#440,#314,#315);
#262=AXIS2_PLACEMENT_3D('',#442,#316,#317);
#263=AXIS2_PLACEMENT_3D('',#443,#318,#319);
#264=AXIS2_PLACEMENT_3D('',#445,#320,#321);
#265=AXIS2_PLACEMENT_3D('',#446,#322,#323);
#266=AXIS2_PLACEMENT_3D('',#448,#324,#325);
#267=AXIS2_PLACEMENT_3D('',#449,#326,#327);
#268=AXIS2_PLACEMENT_3D('',#451,#328,#329);
#269=AXIS2_PLACEMENT_3D('',#452,#330,#331);
#270=AXIS2_PLACEMENT_3D('',#454,#332,#333);
#271=AXIS2_PLACEMENT_3D('',#455,#334,#335);
#272=AXIS2_PLACEMENT_3D('',#457,#336,#337);
#273=AXIS2_PLACEMENT_3D('',#458,#338,#339);
#274=AXIS2_PLACEMENT_3D('',#460,#340,#341);
#275=AXIS2_PLACEMENT_3D('',#461,#342,#343);
#276=AXIS2_PLACEMENT_3D('',#462,#344,#345);
#277=DIRECTION('',(0.,0.,1.));
#278=DIRECTION('',(1.,0.,0.));
#279=DIRECTION('',(-1.,0.,0.));
#280=DIRECTION('',(0.,0.,1.));
#281=DIRECTION('',(-1.,0.,0.));
#282=DIRECTION('',(0.,0.,1.));
#283=DIRECTION('',(-1.,0.,0.));
#284=DIRECTION('',(1.,0.,0.));
#285=DIRECTION('',(0.,0.,-1.));
#286=DIRECTION('',(-1.,0.,0.));
#287=DIRECTION('',(0.,0.,1.));
#288=DIRECTION('',(-1.,0.,0.));
#289=DIRECTION('',(0.,0.,1.));
#290=DIRECTION('',(-1.,0.,0.));
#291=DIRECTION('',(0.,0.,1.));
#292=DIRECTION('',(-1.,0.,0.));
#293=DIRECTION('',(5.51869280290865E-17,0.,1.));
#294=DIRECTION('',(-1.,0.,0.));
#295=DIRECTION('',(0.,0.,1.));
#296=DIRECTION('',(-1.,0.,0.));
#297=DIRECTION('',(0.,0.,1.));
#298=DIRECTION('',(-1.,0.,0.));
#299=DIRECTION('',(0.,0.,1.));
#300=DIRECTION('',(-1.,0.,0.));
#301=DIRECTION('',(7.11407480423621E-17,0.,1.));
#302=DIRECTION('',(-1.,0.,0.));
#303=DIRECTION('',(0.,0.,1.));
#304=DIRECTION('',(-1.,0.,0.));
#305=DIRECTION('',(0.,0.,1.));
#306=DIRECTION('',(-1.,0.,0.));
#307=DIRECTION('',(0.,0.,1.));
#308=DIRECTION('',(1.,0.,0.));
#309=DIRECTION('',(-2.00800554861772E-16,0.,-1.));
#310=DIRECTION('',(-1.,0.,0.));
#311=DIRECTION('',(0.,0.,1.));
#312=DIRECTION('',(-1.,0.,0.));
#313=DIRECTION('',(0.,0.,1.));
#314=DIRECTION('',(-1.,0.,0.));
#315=DIRECTION('',(0.,0.,1.));
#316=DIRECTION('',(1.,0.,0.));
#317=DIRECTION('',(-1.66930253628555E-17,0.,-1.));
#318=DIRECTION('',(-1.,0.,0.));
#319=DIRECTION('',(0.,0.,1.));
#320=DIRECTION('',(-1.,0.,0.));
#321=DIRECTION('',(0.,0.,1.));
#322=DIRECTION('',(-1.,0.,0.));
#323=DIRECTION('',(0.,0.,1.));
#324=DIRECTION('',(-1.,0.,0.));
#325=DIRECTION('',(4.10585438101021E-17,0.,1.));
#326=DIRECTION('',(-1.,0.,0.));
#327=DIRECTION('',(0.,0.,1.));
#328=DIRECTION('',(-1.,0.,0.));
#329=DIRECTION('',(0.,0.,1.));
#330=DIRECTION('',(-1.,0.,0.));
#331=DIRECTION('',(0.,0.,1.));
#332=DIRECTION('',(1.,0.,0.));
#333=DIRECTION('',(1.36794359860176E-17,0.,-1.));
#334=DIRECTION('',(-1.,0.,0.));
#335=DIRECTION('',(0.,0.,1.));
#336=DIRECTION('',(-1.,0.,0.));
#337=DIRECTION('',(0.,0.,1.));
#338=DIRECTION('',(-1.,0.,0.));
#339=DIRECTION('',(0.,0.,1.));
#340=DIRECTION('',(-1.,0.,0.));
#341=DIRECTION('',(0.,0.,1.));
#342=DIRECTION('',(-1.,0.,0.));
#343=DIRECTION('',(1.28099893686753E-16,0.,1.));
#344=DIRECTION('',(0.,0.,1.));
#345=DIRECTION('',(1.,0.,0.));
#346=CARTESIAN_POINT('',(0.,0.,0.));
#347=CARTESIAN_POINT('',(3.5,0.,0.));
#348=CARTESIAN_POINT('',(3.5,0.,11.5263390504607));
#349=CARTESIAN_POINT('',(8.03055554874198,0.,0.));
#350=CARTESIAN_POINT('',(8.03055554874198,0.,19.3774654632071));
#351=CARTESIAN_POINT('',(5.69841504421281,10.824315006838,0.));
#352=CARTESIAN_POINT('',(6.30158495578719,10.824315006838,0.));
#353=CARTESIAN_POINT('',(6.60039686973365,10.8521806635321,0.));
#354=CARTESIAN_POINT('',(7.19210980308818,10.9637300618954,0.));
#355=CARTESIAN_POINT('',(7.48065249992345,11.0468651658724,0.));
#356=CARTESIAN_POINT('',(8.03492741784768,11.2646972885504,0.));
#357=CARTESIAN_POINT('',(8.30421287751696,11.4010755314646,0.));
#358=CARTESIAN_POINT('',(8.81058254435564,11.7235310278054,0.));
#359=CARTESIAN_POINT('',(9.04503650254839,11.9072901811404,0.));
#360=CARTESIAN_POINT('',(9.47622257795008,12.3201841615299,0.));
#361=CARTESIAN_POINT('',(9.67387169146898,12.5515714084854,0.));
#362=CARTESIAN_POINT('',(10.0132067510903,13.0419874101218,0.));
#363=CARTESIAN_POINT('',(10.1572926305684,13.3027024450194,0.));
#364=CARTESIAN_POINT('',(10.3925626901685,13.8562003620449,0.));
#365=CARTESIAN_POINT('',(10.4810457845736,14.1437856897208,0.));
#366=CARTESIAN_POINT('',(10.5976481743731,14.727279018951,0.));
#367=CARTESIAN_POINT('',(10.6265263833787,15.0281977423921,0.));
#368=CARTESIAN_POINT('',(10.6223871086713,15.6281112103605,0.));
#369=CARTESIAN_POINT('',(10.5900873349658,15.9238855921393,0.));
#370=CARTESIAN_POINT('',(10.4666925231468,16.5073000058912,0.));
#371=CARTESIAN_POINT('',(10.374055079935,16.7972420614429,0.));
#372=CARTESIAN_POINT('',(10.1369376782068,17.3443673950194,0.));
#373=CARTESIAN_POINT('',(9.99235870595252,17.6043409633426,0.));
#374=CARTESIAN_POINT('',(9.6509176068383,18.096983198924,0.));
#375=CARTESIAN_POINT('',(9.45478728152775,18.3273536299465,0.));
#376=CARTESIAN_POINT('',(9.02717800059314,18.7409085813461,0.));
#377=CARTESIAN_POINT('',(8.7938119589144,18.9268422983664,0.));
#378=CARTESIAN_POINT('',(8.28749557281065,19.2548525583276,0.));
#379=CARTESIAN_POINT('',(8.02264500536382,19.3917269202873,0.));
#380=CARTESIAN_POINT('',(7.47063991884954,19.6137219698094,0.));
#381=CARTESIAN_POINT('',(7.18042284114452,19.6993227067817,0.));
#382=CARTESIAN_POINT('',(6.59196119020861,19.8126421887776,0.));
#383=CARTESIAN_POINT('',(6.29574496498211,19.840669637687,0.));
#384=CARTESIAN_POINT('',(5.69940420384274,19.8403611292639,0.));
#385=CARTESIAN_POINT('',(5.39673710296197,19.8111080896734,0.));
#386=CARTESIAN_POINT('',(4.8111065550526,19.6970272196391,0.));
#387=CARTESIAN_POINT('',(4.52573537312852,19.6126652334442,0.));
#388=CARTESIAN_POINT('',(3.97012326287786,19.3884097071328,0.));
#389=CARTESIAN_POINT('',(3.70166810916906,19.2484788203057,0.));
#390=CARTESIAN_POINT('',(3.20263019761691,18.9238720660224,0.));
#391=CARTESIAN_POINT('',(2.96874667230815,18.7377891008577,0.));
#392=CARTESIAN_POINT('',(2.53613190885131,18.3177240240581,0.));
#393=CARTESIAN_POINT('',(2.34365075029309,18.0899426465876,0.));
#394=CARTESIAN_POINT('',(2.00507608909049,17.5998243922797,0.));
#395=CARTESIAN_POINT('',(1.85782248717626,17.334284699916,0.));
#396=CARTESIAN_POINT('',(1.62144207216605,16.7847602476836,0.));
#397=CARTESIAN_POINT('',(1.53145724757096,16.5009973283934,0.));
#398=CARTESIAN_POINT('',(1.40861494041524,15.9152414349632,0.));
#399=CARTESIAN_POINT('',(1.37668441132413,15.6133873110671,0.));
#400=CARTESIAN_POINT('',(1.37426478575646,15.0178715318309,0.));
#401=CARTESIAN_POINT('',(1.40300172317314,14.7202078097059,0.));
#402=CARTESIAN_POINT('',(1.5226798536588,14.1291042929899,0.));
#403=CARTESIAN_POINT('',(1.61166348725627,13.844684149793,0.));
#404=CARTESIAN_POINT('',(1.84570947541856,13.2972628370119,0.));
#405=CARTESIAN_POINT('',(1.99307403971261,13.0314105928955,0.));
#406=CARTESIAN_POINT('',(2.33457085343955,12.5409358963526,0.));
#407=CARTESIAN_POINT('',(2.52813092158083,12.3154263804206,0.));
#408=CARTESIAN_POINT('',(2.95997936789956,11.9030889943375,0.));
#409=CARTESIAN_POINT('',(3.19980620963631,11.716146287097,0.));
#410=CARTESIAN_POINT('',(3.70264831033846,11.3975024015758,0.));
#411=CARTESIAN_POINT('',(3.96798316614267,11.2631914005413,0.));
#412=CARTESIAN_POINT('',(4.52640705267004,11.0444592761116,0.));
#413=CARTESIAN_POINT('',(4.81680636114408,10.961705853406,0.));
#414=CARTESIAN_POINT('',(5.40152256825794,10.8521685730461,0.));
#415=CARTESIAN_POINT('',(5.69841504421281,10.824315006838,0.));
#416=CARTESIAN_POINT('',(6.30158495578719,10.824315006838,0.));
#417=CARTESIAN_POINT('',(0.,0.,0.));
#418=CARTESIAN_POINT('',(3.5,11.5263390504607,0.));
#419=CARTESIAN_POINT('',(68.,0.,0.));
#420=CARTESIAN_POINT('',(68.,0.,5.875));
#421=CARTESIAN_POINT('',(68.,0.,0.));
#422=CARTESIAN_POINT('',(66.,0.,0.));
#423=CARTESIAN_POINT('',(66.,0.,7.875));
#424=CARTESIAN_POINT('',(68.,0.,0.));
#425=CARTESIAN_POINT('',(50.0825317547305,0.,0.));
#426=CARTESIAN_POINT('',(50.0825317547305,0.,7.875));
#427=CARTESIAN_POINT('',(0.,0.,0.));
#428=CARTESIAN_POINT('',(49.,0.,0.));
#429=CARTESIAN_POINT('',(49.,0.,8.5));
#430=CARTESIAN_POINT('',(50.0825317547305,0.,0.));
#431=CARTESIAN_POINT('',(44.2800426762176,0.,0.));
#432=CARTESIAN_POINT('',(44.2800426762176,0.,8.5));
#433=CARTESIAN_POINT('',(0.,0.,0.));
#434=CARTESIAN_POINT('',(43.5352914270615,0.,0.));
#435=CARTESIAN_POINT('',(43.5352914270615,0.,8.30044450422656));
#436=CARTESIAN_POINT('',(44.2800426762176,0.,0.));
#437=CARTESIAN_POINT('',(42.8004445042265,0.,0.));
#438=CARTESIAN_POINT('',(42.8004445042265,0.,9.03529142706151));
#439=CARTESIAN_POINT('',(43.38,0.,0.));
#440=CARTESIAN_POINT('',(43.,0.,0.));
#441=CARTESIAN_POINT('',(43.,0.,9.78004267621758));
#442=CARTESIAN_POINT('',(42.8004445042265,0.,0.));
#443=CARTESIAN_POINT('',(43.,0.,0.));
#444=CARTESIAN_POINT('',(43.,0.,14.));
#445=CARTESIAN_POINT('',(43.,14.,0.));
#446=CARTESIAN_POINT('',(42.5,0.,0.));
#447=CARTESIAN_POINT('',(42.5,0.,14.5));
#448=CARTESIAN_POINT('',(43.,0.,0.));
#449=CARTESIAN_POINT('',(38.2,0.,0.));
#450=CARTESIAN_POINT('',(38.2,0.,14.5));
#451=CARTESIAN_POINT('',(0.,0.,0.));
#452=CARTESIAN_POINT('',(38.,0.,0.));
#453=CARTESIAN_POINT('',(38.,0.,14.3));
#454=CARTESIAN_POINT('',(38.2,0.,0.));
#455=CARTESIAN_POINT('',(24.6256819675915,0.,0.));
#456=CARTESIAN_POINT('',(24.6256819675915,0.,14.3));
#457=CARTESIAN_POINT('',(0.,0.,0.));
#458=CARTESIAN_POINT('',(19.4953798177065,0.,0.));
#459=CARTESIAN_POINT('',(19.4953798177065,0.,15.2046106882113));
#460=CARTESIAN_POINT('',(24.6256819675915,0.,0.));
#461=CARTESIAN_POINT('',(19.4953798177065,0.,0.));
#462=CARTESIAN_POINT('',(6.,-14.94629597,1.5));
#463=CARTESIAN_POINT('',(12.,-14.94629597,1.5));
#464=CARTESIAN_POINT('',(12.,-14.94629597,1.5));
#465=CARTESIAN_POINT('',(12.,-17.94629597,-28.39259194));
#466=CARTESIAN_POINT('',(12.,11.94629597,-31.3925919399999));
#467=CARTESIAN_POINT('',(12.,14.94629597,-1.5));
#468=CARTESIAN_POINT('',(12.,17.94629597,28.39259194));
#469=CARTESIAN_POINT('',(12.,-11.94629597,31.3925919399999));
#470=CARTESIAN_POINT('',(12.,-14.94629597,1.5));
#471=CARTESIAN_POINT('',(12.,-2.94629597,1.5));
#472=CARTESIAN_POINT('',(12.,-5.94629597000001,-4.39259194000001));
#473=CARTESIAN_POINT('',(12.,-0.0537040299999986,-7.39259194000001));
#474=CARTESIAN_POINT('',(12.,2.94629597,-1.5));
#475=CARTESIAN_POINT('',(12.,5.94629597000001,4.39259194000001));
#476=CARTESIAN_POINT('',(12.,0.0537040299999986,7.39259194000001));
#477=CARTESIAN_POINT('',(12.,-2.94629597,1.5));
#478=CARTESIAN_POINT('',(1.46957615897682E-15,-2.94629597,1.5));
#479=CARTESIAN_POINT('',(1.46957615897682E-15,-5.94629597000001,-4.39259194000001));
#480=CARTESIAN_POINT('',(1.46957615897682E-15,-0.0537040299999986,-7.39259194000001));
#481=CARTESIAN_POINT('',(1.46957615897682E-15,2.94629597,-1.5));
#482=CARTESIAN_POINT('',(1.46957615897682E-15,5.94629597000001,4.39259194000001));
#483=CARTESIAN_POINT('',(1.46957615897682E-15,0.0537040299999986,7.39259194000001));
#484=CARTESIAN_POINT('',(1.46957615897682E-15,-2.94629597,1.5));
#485=CARTESIAN_POINT('',(0.,-14.94629597,1.5));
#486=CARTESIAN_POINT('',(0.,-17.94629597,-28.39259194));
#487=CARTESIAN_POINT('',(0.,11.94629597,-31.3925919399999));
#488=CARTESIAN_POINT('',(0.,14.94629597,-1.5));
#489=CARTESIAN_POINT('',(0.,17.94629597,28.39259194));
#490=CARTESIAN_POINT('',(0.,-11.94629597,31.3925919399999));
#491=CARTESIAN_POINT('',(0.,-14.94629597,1.5));
#492=CARTESIAN_POINT('',(-1.46957615897682E-15,-26.94629597,1.5));
#493=CARTESIAN_POINT('',(-1.46957615897682E-15,-29.94629597,-52.3925919400001));
#494=CARTESIAN_POINT('',(-1.46957615897682E-15,23.94629597,-55.3925919400001));
#495=CARTESIAN_POINT('',(-1.46957615897682E-15,26.94629597,-1.5));
#496=CARTESIAN_POINT('',(-1.46957615897682E-15,29.94629597,52.3925919400001));
#497=CARTESIAN_POINT('',(-1.46957615897682E-15,-23.94629597,55.3925919400001));
#498=CARTESIAN_POINT('',(-1.46957615897682E-15,-26.94629597,1.5));
#499=CARTESIAN_POINT('',(12.,-26.94629597,1.5));
#500=CARTESIAN_POINT('',(12.,-29.94629597,-52.3925919400001));
#501=CARTESIAN_POINT('',(12.,23.94629597,-55.3925919400001));
#502=CARTESIAN_POINT('',(12.,26.94629597,-1.5));
#503=CARTESIAN_POINT('',(12.,29.94629597,52.3925919400001));
#504=CARTESIAN_POINT('',(12.,-23.94629597,55.3925919400001));
#505=CARTESIAN_POINT('',(12.,-26.94629597,1.5));
#506=CARTESIAN_POINT('',(12.,-14.94629597,1.5));
#507=CARTESIAN_POINT('',(12.,-17.94629597,-28.39259194));
#508=CARTESIAN_POINT('',(12.,11.94629597,-31.3925919399999));
#509=CARTESIAN_POINT('',(12.,14.94629597,-1.5));
#510=CARTESIAN_POINT('',(12.,17.94629597,28.39259194));
#511=CARTESIAN_POINT('',(12.,-11.94629597,31.3925919399999));
#512=CARTESIAN_POINT('',(12.,-14.94629597,1.5));
#513=MECHANICAL_DESIGN_GEOMETRIC_PRESENTATION_REPRESENTATION('',(#34,#35),
#514);
#514=(
GEOMETRIC_REPRESENTATION_CONTEXT(3)
GLOBAL_UNCERTAINTY_ASSIGNED_CONTEXT((#515))
GLOBAL_UNIT_ASSIGNED_CONTEXT((#521,#517,#516))
REPRESENTATION_CONTEXT('AEMR-RD1204-D42-M16-L43-Z04-H',
'TOP_LEVEL_ASSEMBLY_PART')
);
#515=UNCERTAINTY_MEASURE_WITH_UNIT(LENGTH_MEASURE(2.E-5),#521,
'DISTANCE_ACCURACY_VALUE','Maximum Tolerance applied to model');
#516=(
NAMED_UNIT(*)
SI_UNIT($,.STERADIAN.)
SOLID_ANGLE_UNIT()
);
#517=(
CONVERSION_BASED_UNIT('DEGREE',#519)
NAMED_UNIT(#518)
PLANE_ANGLE_UNIT()
);
#518=DIMENSIONAL_EXPONENTS(0.,0.,0.,0.,0.,0.,0.);
#519=PLANE_ANGLE_MEASURE_WITH_UNIT(PLANE_ANGLE_MEASURE(0.0174532925),#520);
#520=(
NAMED_UNIT(*)
PLANE_ANGLE_UNIT()
SI_UNIT($,.RADIAN.)
);
#521=(
LENGTH_UNIT()
NAMED_UNIT(*)
SI_UNIT(.MILLI.,.METRE.)
);
ENDSEC;
END-ISO-10303-21;
