ISO-10303-21;
HEADER;
/* Generated by software containing ST-Developer
 * from STEP Tools, Inc. (www.steptools.com) 
 */
/* OPTION: using custom schema-name function */

FILE_DESCRIPTION(
/* description */ (''),
/* implementation_level */ '2;1');

FILE_NAME(
/* name */ 'AEMR-RD12T3-D25-M12-L35-Z02-H.stp',
/* time_stamp */ '2023-10-21T11:21:04+03:00',
/* author */ (''),
/* organization */ (''),
/* preprocessor_version */ 'ST-DEVELOPER v19.4',
/* originating_system */ 'SIEMENS PLM Software NX2306.5001',
/* authorisation */ '');

FILE_SCHEMA (('AUTOMOTIVE_DESIGN { 1 0 10303 214 3 1 1 1 }'));
ENDSEC;

DATA;
#10=PROPERTY_DEFINITION_REPRESENTATION(#14,#12);
#11=PROPERTY_DEFINITION_REPRESENTATION(#15,#13);
#12=REPRESENTATION('',(#16),#520);
#13=REPRESENTATION('',(#17),#520);
#14=PROPERTY_DEFINITION('pmi validation property','',#21);
#15=PROPERTY_DEFINITION('pmi validation property','',#21);
#16=VALUE_REPRESENTATION_ITEM('number of annotations',COUNT_MEASURE(0.));
#17=VALUE_REPRESENTATION_ITEM('number of views',COUNT_MEASURE(0.));
#18=SHAPE_REPRESENTATION_RELATIONSHIP('None',
'relationship between AEMR-RD12T3-D25-M12-L35-Z02-H-LIGHT_x_t_objects-
None and AEMR-RD12T3-D25-M12-L35-Z02-H-LIGHT_x_t_objects-None',#30,#19);
#19=ADVANCED_BREP_SHAPE_REPRESENTATION(
'AEMR-RD12T3-D25-M12-L35-Z02-H-LIGHT_x_t_objects-None',(#49,#50),#520);
#20=SHAPE_DEFINITION_REPRESENTATION(#21,#30);
#21=PRODUCT_DEFINITION_SHAPE('','',#22);
#22=PRODUCT_DEFINITION(' ','',#24,#23);
#23=PRODUCT_DEFINITION_CONTEXT('part definition',#29,'design');
#24=PRODUCT_DEFINITION_FORMATION_WITH_SPECIFIED_SOURCE(' ',' ',#26,
 .NOT_KNOWN.);
#25=PRODUCT_RELATED_PRODUCT_CATEGORY('part','',(#26));
#26=PRODUCT('AEMR-RD12T3-D25-M12-L35-Z02-H-LIGHT_x_t_objects',
'AEMR-RD12T3-D25-M12-L35-Z02-H-LIGHT_x_t_objects',' ',(#27));
#27=PRODUCT_CONTEXT(' ',#29,'mechanical');
#28=APPLICATION_PROTOCOL_DEFINITION('international standard',
'automotive_design',2010,#29);
#29=APPLICATION_CONTEXT(
'core data for automotive mechanical design processes');
#30=SHAPE_REPRESENTATION(
'AEMR-RD12T3-D25-M12-L35-Z02-H-LIGHT_x_t_objects-None',(#243),#520);
#31=DRAUGHTING_PRE_DEFINED_COLOUR('yellow');
#32=(
BOUNDED_SURFACE()
B_SPLINE_SURFACE(3,3,((#470,#471,#472,#473,#474,#475,#476),(#477,#478,#479,
#480,#481,#482,#483),(#484,#485,#486,#487,#488,#489,#490),(#491,#492,#493,
#494,#495,#496,#497),(#498,#499,#500,#501,#502,#503,#504),(#505,#506,#507,
#508,#509,#510,#511),(#512,#513,#514,#515,#516,#517,#518)),
 .UNSPECIFIED.,.T.,.T.,.F.)
B_SPLINE_SURFACE_WITH_KNOTS((1,3,3,3,1),(1,3,3,3,1),(-0.5,0.,0.5,1.,1.5),
(-0.5,0.,0.5,1.,1.5),.UNSPECIFIED.)
GEOMETRIC_REPRESENTATION_ITEM()
RATIONAL_B_SPLINE_SURFACE(((1.,0.333333333333334,0.333333333333334,1.,0.333333333333334,
0.333333333333334,1.),(0.333333333333334,0.111111111111111,0.111111111111111,
0.333333333333334,0.111111111111111,0.111111111111111,0.333333333333334),
(0.333333333333334,0.111111111111111,0.111111111111111,0.333333333333334,
0.111111111111111,0.111111111111111,0.333333333333334),(1.,0.333333333333334,
0.333333333333334,1.,0.333333333333334,0.333333333333334,1.),(0.333333333333334,
0.111111111111111,0.111111111111111,0.333333333333334,0.111111111111111,
0.111111111111111,0.333333333333334),(0.333333333333334,0.111111111111111,
0.111111111111111,0.333333333333334,0.111111111111111,0.111111111111111,
0.333333333333334),(1.,0.333333333333334,0.333333333333334,1.,0.333333333333334,
0.333333333333334,1.)))
REPRESENTATION_ITEM('')
SURFACE()
);
#33=PRESENTATION_LAYER_ASSIGNMENT('1','Layer 1',(#49,#50));
#34=STYLED_ITEM('',(#36),#49);
#35=STYLED_ITEM('',(#37),#50);
#36=PRESENTATION_STYLE_ASSIGNMENT((#38));
#37=PRESENTATION_STYLE_ASSIGNMENT((#39));
#38=SURFACE_STYLE_USAGE(.BOTH.,#40);
#39=SURFACE_STYLE_USAGE(.BOTH.,#41);
#40=SURFACE_SIDE_STYLE('',(#42));
#41=SURFACE_SIDE_STYLE('',(#43));
#42=SURFACE_STYLE_FILL_AREA(#44);
#43=SURFACE_STYLE_FILL_AREA(#45);
#44=FILL_AREA_STYLE('',(#46));
#45=FILL_AREA_STYLE('',(#47));
#46=FILL_AREA_STYLE_COLOUR('',#48);
#47=FILL_AREA_STYLE_COLOUR('',#31);
#48=COLOUR_RGB('silver gray',0.6,0.6,0.6);
#49=MANIFOLD_SOLID_BREP('',#51);
#50=MANIFOLD_SOLID_BREP('',#52);
#51=CLOSED_SHELL('',(#67,#68,#69,#70,#71,#72,#73,#74,#75,#76,#77,#78,#79,
#80,#81,#82,#83));
#52=CLOSED_SHELL('',(#84));
#53=PLANE('',#258);
#54=PLANE('',#260);
#55=PLANE('',#275);
#56=FACE_OUTER_BOUND('',#138,.T.);
#57=FACE_OUTER_BOUND('',#139,.T.);
#58=SURFACE_OF_REVOLUTION('',#60,#59);
#59=AXIS1_PLACEMENT('',#441,#307);
#60=B_SPLINE_CURVE_WITH_KNOTS('',3,(#369,#370,#371,#372,#373,#374,#375,
#376,#377,#378,#379,#380,#381,#382,#383,#384,#385,#386,#387,#388,#389,#390,
#391,#392,#393,#394,#395,#396,#397,#398,#399,#400,#401,#402,#403,#404,#405,
#406,#407,#408,#409,#410,#411,#412,#413,#414,#415,#416,#417,#418,#419,#420,
#421,#422,#423,#424,#425,#426,#427,#428,#429,#430,#431,#432,#433,#434,#435,
#436,#437,#438,#439,#440),.UNSPECIFIED.,.T.,.F.,(2,2,2,2,2,2,2,2,2,2,2,
2,2,2,2,2,2,2,2,2,2,2,2,2,2,2,2,2,2,2,2,2,2,2,2,2,2,2),(-0.03125,0.,0.0312500000000003,
0.0625000000000008,0.093750000000001,0.125000000000001,0.140625000000001,
0.15625,0.1875,0.21875,0.25,0.28125,0.3125,0.34375,0.375,0.40625,0.4375,
0.46875,0.5,0.53125,0.5625,0.59375,0.625,0.65625,0.6875,0.71875,0.75,0.78125,
0.8125,0.828125,0.84375,0.875,0.890625,0.90625,0.9375,0.96875,1.,1.03125),
 .UNSPECIFIED.);
#61=TOROIDAL_SURFACE('',#254,15.3,5.);
#62=TOROIDAL_SURFACE('',#272,6.63,0.6);
#63=CYLINDRICAL_SURFACE('',#248,10.5);
#64=CYLINDRICAL_SURFACE('',#252,10.3);
#65=CYLINDRICAL_SURFACE('',#264,5.875);
#66=CYLINDRICAL_SURFACE('',#268,6.25);
#67=ADVANCED_FACE('',(#92,#93),#85,.T.);
#68=ADVANCED_FACE('',(#94,#95),#63,.T.);
#69=ADVANCED_FACE('',(#96,#97),#86,.T.);
#70=ADVANCED_FACE('',(#98,#99),#64,.T.);
#71=ADVANCED_FACE('',(#100,#101),#61,.F.);
#72=ADVANCED_FACE('',(#102,#103),#87,.T.);
#73=ADVANCED_FACE('',(#104,#105),#58,.T.);
#74=ADVANCED_FACE('',(#56),#53,.F.);
#75=ADVANCED_FACE('',(#57),#54,.F.);
#76=ADVANCED_FACE('',(#106,#107),#88,.T.);
#77=ADVANCED_FACE('',(#108,#109),#65,.T.);
#78=ADVANCED_FACE('',(#110,#111),#89,.T.);
#79=ADVANCED_FACE('',(#112,#113),#66,.T.);
#80=ADVANCED_FACE('',(#114,#115),#90,.T.);
#81=ADVANCED_FACE('',(#116,#117),#62,.F.);
#82=ADVANCED_FACE('',(#118,#119),#91,.F.);
#83=ADVANCED_FACE('',(#120,#121),#55,.F.);
#84=ADVANCED_FACE('',(#122,#123),#32,.F.);
#85=CONICAL_SURFACE('',#246,10.,45.);
#86=CONICAL_SURFACE('',#250,10.5,30.);
#87=CONICAL_SURFACE('',#256,10.4703708685547,15.0000000003759);
#88=CONICAL_SURFACE('',#262,4.375,45.0000000000001);
#89=CONICAL_SURFACE('',#266,5.875,29.9999999999999);
#90=CONICAL_SURFACE('',#270,6.25,14.9999999999999);
#91=CONICAL_SURFACE('',#274,6.78529142706151,75.0000000000001);
#92=FACE_BOUND('',#124,.T.);
#93=FACE_BOUND('',#125,.T.);
#94=FACE_BOUND('',#126,.T.);
#95=FACE_BOUND('',#127,.T.);
#96=FACE_BOUND('',#128,.T.);
#97=FACE_BOUND('',#129,.T.);
#98=FACE_BOUND('',#130,.T.);
#99=FACE_BOUND('',#131,.T.);
#100=FACE_BOUND('',#132,.T.);
#101=FACE_BOUND('',#133,.T.);
#102=FACE_BOUND('',#134,.T.);
#103=FACE_BOUND('',#135,.T.);
#104=FACE_BOUND('',#136,.T.);
#105=FACE_BOUND('',#137,.T.);
#106=FACE_BOUND('',#140,.T.);
#107=FACE_BOUND('',#141,.T.);
#108=FACE_BOUND('',#142,.T.);
#109=FACE_BOUND('',#143,.T.);
#110=FACE_BOUND('',#144,.T.);
#111=FACE_BOUND('',#145,.T.);
#112=FACE_BOUND('',#146,.T.);
#113=FACE_BOUND('',#147,.T.);
#114=FACE_BOUND('',#148,.T.);
#115=FACE_BOUND('',#149,.T.);
#116=FACE_BOUND('',#150,.T.);
#117=FACE_BOUND('',#151,.T.);
#118=FACE_BOUND('',#152,.T.);
#119=FACE_BOUND('',#153,.T.);
#120=FACE_BOUND('',#154,.T.);
#121=FACE_BOUND('',#155,.T.);
#122=FACE_BOUND('',#156,.T.);
#123=FACE_BOUND('',#157,.T.);
#124=EDGE_LOOP('',(#158));
#125=EDGE_LOOP('',(#159));
#126=EDGE_LOOP('',(#160));
#127=EDGE_LOOP('',(#161));
#128=EDGE_LOOP('',(#162));
#129=EDGE_LOOP('',(#163));
#130=EDGE_LOOP('',(#164));
#131=EDGE_LOOP('',(#165));
#132=EDGE_LOOP('',(#166));
#133=EDGE_LOOP('',(#167));
#134=EDGE_LOOP('',(#168));
#135=EDGE_LOOP('',(#169));
#136=EDGE_LOOP('',(#170));
#137=EDGE_LOOP('',(#171));
#138=EDGE_LOOP('',(#172));
#139=EDGE_LOOP('',(#173));
#140=EDGE_LOOP('',(#174));
#141=EDGE_LOOP('',(#175));
#142=EDGE_LOOP('',(#176));
#143=EDGE_LOOP('',(#177));
#144=EDGE_LOOP('',(#178));
#145=EDGE_LOOP('',(#179));
#146=EDGE_LOOP('',(#180));
#147=EDGE_LOOP('',(#181));
#148=EDGE_LOOP('',(#182));
#149=EDGE_LOOP('',(#183));
#150=EDGE_LOOP('',(#184));
#151=EDGE_LOOP('',(#185));
#152=EDGE_LOOP('',(#186));
#153=EDGE_LOOP('',(#187));
#154=EDGE_LOOP('',(#188));
#155=EDGE_LOOP('',(#189));
#156=EDGE_LOOP('',(#190));
#157=EDGE_LOOP('',(#191));
#158=ORIENTED_EDGE('',*,*,#209,.F.);
#159=ORIENTED_EDGE('',*,*,#210,.T.);
#160=ORIENTED_EDGE('',*,*,#211,.F.);
#161=ORIENTED_EDGE('',*,*,#209,.T.);
#162=ORIENTED_EDGE('',*,*,#212,.F.);
#163=ORIENTED_EDGE('',*,*,#211,.T.);
#164=ORIENTED_EDGE('',*,*,#213,.F.);
#165=ORIENTED_EDGE('',*,*,#212,.T.);
#166=ORIENTED_EDGE('',*,*,#214,.F.);
#167=ORIENTED_EDGE('',*,*,#213,.T.);
#168=ORIENTED_EDGE('',*,*,#215,.F.);
#169=ORIENTED_EDGE('',*,*,#214,.T.);
#170=ORIENTED_EDGE('',*,*,#216,.F.);
#171=ORIENTED_EDGE('',*,*,#215,.T.);
#172=ORIENTED_EDGE('',*,*,#216,.T.);
#173=ORIENTED_EDGE('',*,*,#217,.F.);
#174=ORIENTED_EDGE('',*,*,#218,.F.);
#175=ORIENTED_EDGE('',*,*,#217,.T.);
#176=ORIENTED_EDGE('',*,*,#219,.F.);
#177=ORIENTED_EDGE('',*,*,#218,.T.);
#178=ORIENTED_EDGE('',*,*,#220,.F.);
#179=ORIENTED_EDGE('',*,*,#219,.T.);
#180=ORIENTED_EDGE('',*,*,#221,.F.);
#181=ORIENTED_EDGE('',*,*,#220,.T.);
#182=ORIENTED_EDGE('',*,*,#222,.F.);
#183=ORIENTED_EDGE('',*,*,#221,.T.);
#184=ORIENTED_EDGE('',*,*,#223,.F.);
#185=ORIENTED_EDGE('',*,*,#222,.T.);
#186=ORIENTED_EDGE('',*,*,#224,.F.);
#187=ORIENTED_EDGE('',*,*,#223,.T.);
#188=ORIENTED_EDGE('',*,*,#210,.F.);
#189=ORIENTED_EDGE('',*,*,#224,.T.);
#190=ORIENTED_EDGE('',*,*,#225,.T.);
#191=ORIENTED_EDGE('',*,*,#225,.F.);
#192=VERTEX_POINT('',#348);
#193=VERTEX_POINT('',#350);
#194=VERTEX_POINT('',#353);
#195=VERTEX_POINT('',#356);
#196=VERTEX_POINT('',#359);
#197=VERTEX_POINT('',#362);
#198=VERTEX_POINT('',#365);
#199=VERTEX_POINT('',#368);
#200=VERTEX_POINT('',#444);
#201=VERTEX_POINT('',#447);
#202=VERTEX_POINT('',#450);
#203=VERTEX_POINT('',#453);
#204=VERTEX_POINT('',#456);
#205=VERTEX_POINT('',#459);
#206=VERTEX_POINT('',#462);
#207=VERTEX_POINT('',#465);
#208=VERTEX_POINT('',#469);
#209=EDGE_CURVE('',#192,#192,#226,.T.);
#210=EDGE_CURVE('',#193,#193,#227,.T.);
#211=EDGE_CURVE('',#194,#194,#228,.T.);
#212=EDGE_CURVE('',#195,#195,#229,.T.);
#213=EDGE_CURVE('',#196,#196,#230,.T.);
#214=EDGE_CURVE('',#197,#197,#231,.T.);
#215=EDGE_CURVE('',#198,#198,#232,.T.);
#216=EDGE_CURVE('',#199,#199,#233,.T.);
#217=EDGE_CURVE('',#200,#200,#234,.T.);
#218=EDGE_CURVE('',#201,#201,#235,.T.);
#219=EDGE_CURVE('',#202,#202,#236,.T.);
#220=EDGE_CURVE('',#203,#203,#237,.T.);
#221=EDGE_CURVE('',#204,#204,#238,.T.);
#222=EDGE_CURVE('',#205,#205,#239,.T.);
#223=EDGE_CURVE('',#206,#206,#240,.T.);
#224=EDGE_CURVE('',#207,#207,#241,.T.);
#225=EDGE_CURVE('',#208,#208,#242,.T.);
#226=CIRCLE('',#244,10.5);
#227=CIRCLE('',#245,10.);
#228=CIRCLE('',#247,10.5);
#229=CIRCLE('',#249,10.3);
#230=CIRCLE('',#251,10.3);
#231=CIRCLE('',#253,10.4703708685547);
#232=CIRCLE('',#255,11.0324470682466);
#233=CIRCLE('',#257,3.21862658046815);
#234=CIRCLE('',#259,4.375);
#235=CIRCLE('',#261,5.875);
#236=CIRCLE('',#263,5.875);
#237=CIRCLE('',#265,6.25);
#238=CIRCLE('',#267,6.25);
#239=CIRCLE('',#269,6.05044450422656);
#240=CIRCLE('',#271,6.78529142706151);
#241=CIRCLE('',#273,7.53004267621759);
#242=CIRCLE('',#276,6.);
#243=AXIS2_PLACEMENT_3D('',#346,#277,#278);
#244=AXIS2_PLACEMENT_3D('',#347,#279,#280);
#245=AXIS2_PLACEMENT_3D('',#349,#281,#282);
#246=AXIS2_PLACEMENT_3D('',#351,#283,#284);
#247=AXIS2_PLACEMENT_3D('',#352,#285,#286);
#248=AXIS2_PLACEMENT_3D('',#354,#287,#288);
#249=AXIS2_PLACEMENT_3D('',#355,#289,#290);
#250=AXIS2_PLACEMENT_3D('',#357,#291,#292);
#251=AXIS2_PLACEMENT_3D('',#358,#293,#294);
#252=AXIS2_PLACEMENT_3D('',#360,#295,#296);
#253=AXIS2_PLACEMENT_3D('',#361,#297,#298);
#254=AXIS2_PLACEMENT_3D('',#363,#299,#300);
#255=AXIS2_PLACEMENT_3D('',#364,#301,#302);
#256=AXIS2_PLACEMENT_3D('',#366,#303,#304);
#257=AXIS2_PLACEMENT_3D('',#367,#305,#306);
#258=AXIS2_PLACEMENT_3D('',#442,#308,#309);
#259=AXIS2_PLACEMENT_3D('',#443,#310,#311);
#260=AXIS2_PLACEMENT_3D('',#445,#312,#313);
#261=AXIS2_PLACEMENT_3D('',#446,#314,#315);
#262=AXIS2_PLACEMENT_3D('',#448,#316,#317);
#263=AXIS2_PLACEMENT_3D('',#449,#318,#319);
#264=AXIS2_PLACEMENT_3D('',#451,#320,#321);
#265=AXIS2_PLACEMENT_3D('',#452,#322,#323);
#266=AXIS2_PLACEMENT_3D('',#454,#324,#325);
#267=AXIS2_PLACEMENT_3D('',#455,#326,#327);
#268=AXIS2_PLACEMENT_3D('',#457,#328,#329);
#269=AXIS2_PLACEMENT_3D('',#458,#330,#331);
#270=AXIS2_PLACEMENT_3D('',#460,#332,#333);
#271=AXIS2_PLACEMENT_3D('',#461,#334,#335);
#272=AXIS2_PLACEMENT_3D('',#463,#336,#337);
#273=AXIS2_PLACEMENT_3D('',#464,#338,#339);
#274=AXIS2_PLACEMENT_3D('',#466,#340,#341);
#275=AXIS2_PLACEMENT_3D('',#467,#342,#343);
#276=AXIS2_PLACEMENT_3D('',#468,#344,#345);
#277=DIRECTION('',(0.,0.,1.));
#278=DIRECTION('',(1.,0.,0.));
#279=DIRECTION('',(-1.,0.,0.));
#280=DIRECTION('',(0.,0.,1.));
#281=DIRECTION('',(-1.,0.,0.));
#282=DIRECTION('',(0.,0.,1.));
#283=DIRECTION('',(-1.,0.,0.));
#284=DIRECTION('',(2.74807679362663E-17,0.,1.));
#285=DIRECTION('',(-1.,0.,0.));
#286=DIRECTION('',(0.,0.,1.));
#287=DIRECTION('',(-1.,0.,0.));
#288=DIRECTION('',(0.,0.,1.));
#289=DIRECTION('',(-1.,0.,0.));
#290=DIRECTION('',(0.,0.,1.));
#291=DIRECTION('',(1.,0.,0.));
#292=DIRECTION('',(8.2626920277351E-17,0.,-1.));
#293=DIRECTION('',(-1.,0.,0.));
#294=DIRECTION('',(0.,0.,1.));
#295=DIRECTION('',(-1.,0.,0.));
#296=DIRECTION('',(0.,0.,1.));
#297=DIRECTION('',(-1.,0.,0.));
#298=DIRECTION('',(0.,0.,1.));
#299=DIRECTION('',(-1.,0.,0.));
#300=DIRECTION('',(0.,0.,1.));
#301=DIRECTION('',(-1.,0.,0.));
#302=DIRECTION('',(0.,0.,1.));
#303=DIRECTION('',(-1.,0.,0.));
#304=DIRECTION('',(-1.86918274208966E-17,0.,1.));
#305=DIRECTION('',(-1.,0.,0.));
#306=DIRECTION('',(0.,0.,1.));
#307=DIRECTION('',(-1.,0.,0.));
#308=DIRECTION('',(1.,0.,0.));
#309=DIRECTION('',(0.,0.,-1.));
#310=DIRECTION('',(-1.,0.,0.));
#311=DIRECTION('',(0.,0.,1.));
#312=DIRECTION('',(-1.,0.,0.));
#313=DIRECTION('',(0.,0.,1.));
#314=DIRECTION('',(-1.,0.,0.));
#315=DIRECTION('',(0.,0.,1.));
#316=DIRECTION('',(-1.,0.,0.));
#317=DIRECTION('',(4.83606793551715E-17,0.,1.));
#318=DIRECTION('',(-1.,0.,0.));
#319=DIRECTION('',(0.,0.,1.));
#320=DIRECTION('',(-1.,0.,0.));
#321=DIRECTION('',(0.,0.,1.));
#322=DIRECTION('',(-1.,0.,0.));
#323=DIRECTION('',(0.,0.,1.));
#324=DIRECTION('',(-1.,0.,0.));
#325=DIRECTION('',(-7.13847043721063E-17,0.,1.));
#326=DIRECTION('',(-1.,0.,0.));
#327=DIRECTION('',(0.,0.,1.));
#328=DIRECTION('',(-1.,0.,0.));
#329=DIRECTION('',(0.,0.,1.));
#330=DIRECTION('',(-1.,0.,0.));
#331=DIRECTION('',(0.,0.,1.));
#332=DIRECTION('',(1.,0.,0.));
#333=DIRECTION('',(-2.27754300008934E-16,0.,-1.));
#334=DIRECTION('',(-1.,0.,0.));
#335=DIRECTION('',(0.,0.,1.));
#336=DIRECTION('',(-1.,0.,0.));
#337=DIRECTION('',(0.,0.,1.));
#338=DIRECTION('',(-1.,0.,0.));
#339=DIRECTION('',(0.,0.,1.));
#340=DIRECTION('',(1.,0.,0.));
#341=DIRECTION('',(-1.8558967871768E-17,0.,-1.));
#342=DIRECTION('',(-1.,0.,0.));
#343=DIRECTION('',(0.,0.,1.));
#344=DIRECTION('',(0.,0.,1.));
#345=DIRECTION('',(1.,0.,0.));
#346=CARTESIAN_POINT('',(0.,0.,0.));
#347=CARTESIAN_POINT('',(34.5,0.,0.));
#348=CARTESIAN_POINT('',(34.5,0.,10.5));
#349=CARTESIAN_POINT('',(35.,0.,0.));
#350=CARTESIAN_POINT('',(35.,0.,10.));
#351=CARTESIAN_POINT('',(35.,0.,0.));
#352=CARTESIAN_POINT('',(30.3464101615138,0.,0.));
#353=CARTESIAN_POINT('',(30.3464101615138,0.,10.5));
#354=CARTESIAN_POINT('',(0.,0.,0.));
#355=CARTESIAN_POINT('',(30.,0.,0.));
#356=CARTESIAN_POINT('',(30.,0.,10.3));
#357=CARTESIAN_POINT('',(30.3464101615138,0.,0.));
#358=CARTESIAN_POINT('',(11.1210944625595,0.,0.));
#359=CARTESIAN_POINT('',(11.1210944625595,0.,10.3));
#360=CARTESIAN_POINT('',(0.,0.,0.));
#361=CARTESIAN_POINT('',(9.82699923704689,0.,0.));
#362=CARTESIAN_POINT('',(9.82699923704689,0.,10.4703708685547));
#363=CARTESIAN_POINT('',(11.1210944625595,0.,0.));
#364=CARTESIAN_POINT('',(7.72930230212647,0.,0.));
#365=CARTESIAN_POINT('',(7.72930230212647,0.,11.0324470682466));
#366=CARTESIAN_POINT('',(9.82699923704689,0.,0.));
#367=CARTESIAN_POINT('',(3.,0.,0.));
#368=CARTESIAN_POINT('',(3.,0.,3.21862658046815));
#369=CARTESIAN_POINT('',(5.69298510977134,2.47751646477944,0.));
#370=CARTESIAN_POINT('',(6.30701489022867,2.47751646477944,0.));
#371=CARTESIAN_POINT('',(6.61321083188748,2.49486230967567,0.));
#372=CARTESIAN_POINT('',(7.21942161870784,2.56833071715647,0.));
#373=CARTESIAN_POINT('',(7.52041501983971,2.62457547392804,0.));
#374=CARTESIAN_POINT('',(8.11451291088162,2.78982561855324,0.));
#375=CARTESIAN_POINT('',(8.40098820652175,2.89724657213544,0.));
#376=CARTESIAN_POINT('',(8.94781437483311,3.17335191221793,0.));
#377=CARTESIAN_POINT('',(9.20853891120384,3.34361192059594,0.));
#378=CARTESIAN_POINT('',(9.55811902775837,3.63779868191897,0.));
#379=CARTESIAN_POINT('',(9.66860409179283,3.74267481470458,0.));
#380=CARTESIAN_POINT('',(9.87725822818936,3.966317291634,0.));
#381=CARTESIAN_POINT('',(9.97606960067155,4.08603211812316,0.));
#382=CARTESIAN_POINT('',(10.2473263881814,4.45842699703951,0.));
#383=CARTESIAN_POINT('',(10.3955449289847,4.72381461728742,0.));
#384=CARTESIAN_POINT('',(10.6311798186776,5.28650956567721,0.));
#385=CARTESIAN_POINT('',(10.7180485128178,5.5859791148772,0.));
#386=CARTESIAN_POINT('',(10.8236946438912,6.1853059093578,0.));
#387=CARTESIAN_POINT('',(10.8444100948232,6.48881469800196,0.));
#388=CARTESIAN_POINT('',(10.8223944007316,7.10343100218725,0.));
#389=CARTESIAN_POINT('',(10.7794555605453,7.40775600505386,0.));
#390=CARTESIAN_POINT('',(10.6356634737987,7.99825966150912,0.));
#391=CARTESIAN_POINT('',(10.533693920761,8.28863948346789,0.));
#392=CARTESIAN_POINT('',(10.2740125035666,8.84544240827715,0.));
#393=CARTESIAN_POINT('',(10.11898036168,9.1072551603231,0.));
#394=CARTESIAN_POINT('',(9.76075645269305,9.59916726151031,0.));
#395=CARTESIAN_POINT('',(9.55489055574714,9.83143613519559,0.));
#396=CARTESIAN_POINT('',(9.10769832237285,10.2480898382507,0.));
#397=CARTESIAN_POINT('',(8.86669849271484,10.4333429090747,0.));
#398=CARTESIAN_POINT('',(8.35035182875454,10.7583119142327,0.));
#399=CARTESIAN_POINT('',(8.07289130704789,10.8982819333539,0.));
#400=CARTESIAN_POINT('',(7.50554253943406,11.1205620596872,0.));
#401=CARTESIAN_POINT('',(7.21332608044101,11.2047526385672,0.));
#402=CARTESIAN_POINT('',(6.61159992894811,11.3185751891386,0.));
#403=CARTESIAN_POINT('',(6.30350054121485,11.3472349699222,0.));
#404=CARTESIAN_POINT('',(5.69513844681078,11.3471506674257,0.));
#405=CARTESIAN_POINT('',(5.39179911068036,11.3191011149459,0.));
#406=CARTESIAN_POINT('',(4.78686642556263,11.2049053968945,0.));
#407=CARTESIAN_POINT('',(4.49262708144134,11.1199378244985,0.));
#408=CARTESIAN_POINT('',(3.92634268562445,10.8978885100934,0.));
#409=CARTESIAN_POINT('',(3.65123562793597,10.7593175605903,0.));
#410=CARTESIAN_POINT('',(3.13156501856078,10.4322434657258,0.));
#411=CARTESIAN_POINT('',(2.89036159362345,10.246422576545,0.));
#412=CARTESIAN_POINT('',(2.44466225275659,9.83087839366593,0.));
#413=CARTESIAN_POINT('',(2.23855306648734,9.59845377367283,0.));
#414=CARTESIAN_POINT('',(1.87916001869817,9.10446518656794,0.));
#415=CARTESIAN_POINT('',(1.72434000475163,8.84231788851157,0.));
#416=CARTESIAN_POINT('',(1.46571064201286,8.28695121514822,0.));
#417=CARTESIAN_POINT('',(1.36317238026594,7.9947391410969,0.));
#418=CARTESIAN_POINT('',(1.21957321766819,7.40248847810946,0.));
#419=CARTESIAN_POINT('',(1.17697553114916,7.09728072759618,0.));
#420=CARTESIAN_POINT('',(1.15580030885134,6.48302457300882,0.));
#421=CARTESIAN_POINT('',(1.17685758384839,6.17872621923052,0.));
#422=CARTESIAN_POINT('',(1.2843395556299,5.5759747446041,0.));
#423=CARTESIAN_POINT('',(1.371721622681,5.27782460241147,0.));
#424=CARTESIAN_POINT('',(1.54937787287807,4.85625672282275,0.));
#425=CARTESIAN_POINT('',(1.61653338811538,4.71913712608836,0.));
#426=CARTESIAN_POINT('',(1.76744500888404,4.45201573214706,0.));
#427=CARTESIAN_POINT('',(1.85165733552512,4.32158738549606,0.));
#428=CARTESIAN_POINT('',(2.12329118607466,3.95166829553221,0.));
#429=CARTESIAN_POINT('',(2.33116628053707,3.72993831932495,0.));
#430=CARTESIAN_POINT('',(2.68351233103173,3.4349969030715,0.));
#431=CARTESIAN_POINT('',(2.80842380413968,3.34269667635733,0.));
#432=CARTESIAN_POINT('',(3.0650688096229,3.17535025581588,0.));
#433=CARTESIAN_POINT('',(3.19745658008361,3.09965075388444,0.));
#434=CARTESIAN_POINT('',(3.6058286106703,2.89453728424754,0.));
#435=CARTESIAN_POINT('',(3.89583162894349,2.78643244472105,0.));
#436=CARTESIAN_POINT('',(4.48612960907682,2.62328585613692,0.));
#437=CARTESIAN_POINT('',(4.78505202800077,2.56765336856525,0.));
#438=CARTESIAN_POINT('',(5.38848339631721,2.49479354497042,0.));
#439=CARTESIAN_POINT('',(5.69298510977134,2.47751646477944,0.));
#440=CARTESIAN_POINT('',(6.30701489022867,2.47751646477944,0.));
#441=CARTESIAN_POINT('',(0.,0.,0.));
#442=CARTESIAN_POINT('',(3.,3.21862658046815,0.));
#443=CARTESIAN_POINT('',(57.,0.,0.));
#444=CARTESIAN_POINT('',(57.,0.,4.375));
#445=CARTESIAN_POINT('',(57.,0.,0.));
#446=CARTESIAN_POINT('',(55.5,0.,0.));
#447=CARTESIAN_POINT('',(55.5,0.,5.875));
#448=CARTESIAN_POINT('',(57.,0.,0.));
#449=CARTESIAN_POINT('',(41.6495190528384,0.,0.));
#450=CARTESIAN_POINT('',(41.6495190528384,0.,5.875));
#451=CARTESIAN_POINT('',(0.,0.,0.));
#452=CARTESIAN_POINT('',(41.,0.,0.));
#453=CARTESIAN_POINT('',(41.,0.,6.25));
#454=CARTESIAN_POINT('',(41.6495190528384,0.,0.));
#455=CARTESIAN_POINT('',(36.2800426762176,0.,0.));
#456=CARTESIAN_POINT('',(36.2800426762176,0.,6.25));
#457=CARTESIAN_POINT('',(0.,0.,0.));
#458=CARTESIAN_POINT('',(35.5352914270615,0.,0.));
#459=CARTESIAN_POINT('',(35.5352914270615,0.,6.05044450422656));
#460=CARTESIAN_POINT('',(36.2800426762176,0.,0.));
#461=CARTESIAN_POINT('',(34.8004445042265,0.,0.));
#462=CARTESIAN_POINT('',(34.8004445042265,0.,6.78529142706151));
#463=CARTESIAN_POINT('',(35.38,0.,0.));
#464=CARTESIAN_POINT('',(35.,0.,0.));
#465=CARTESIAN_POINT('',(35.,0.,7.53004267621759));
#466=CARTESIAN_POINT('',(34.8004445042265,0.,0.));
#467=CARTESIAN_POINT('',(35.,7.53004267621759,0.));
#468=CARTESIAN_POINT('',(6.,-6.33863574,2.));
#469=CARTESIAN_POINT('',(12.,-6.33863574,2.));
#470=CARTESIAN_POINT('',(12.,-6.33863574,2.));
#471=CARTESIAN_POINT('',(12.,-10.33863574,-10.67727148));
#472=CARTESIAN_POINT('',(12.,2.33863574,-14.67727148));
#473=CARTESIAN_POINT('',(12.,6.33863574,-2.));
#474=CARTESIAN_POINT('',(12.,10.33863574,10.67727148));
#475=CARTESIAN_POINT('',(12.,-2.33863574,14.67727148));
#476=CARTESIAN_POINT('',(12.,-6.33863574,2.));
#477=CARTESIAN_POINT('',(12.,5.66136426000001,2.));
#478=CARTESIAN_POINT('',(12.,1.66136426000001,13.32272852));
#479=CARTESIAN_POINT('',(12.,-9.66136426000003,9.32272852000002));
#480=CARTESIAN_POINT('',(12.,-5.66136426000001,-2.));
#481=CARTESIAN_POINT('',(12.,-1.66136426000001,-13.32272852));
#482=CARTESIAN_POINT('',(12.,9.66136426000003,-9.32272852000002));
#483=CARTESIAN_POINT('',(12.,5.66136426000001,2.));
#484=CARTESIAN_POINT('',(6.02214420988422E-16,5.66136426000001,2.));
#485=CARTESIAN_POINT('',(6.02214420988422E-16,1.66136426000001,13.32272852));
#486=CARTESIAN_POINT('',(6.02214420988422E-16,-9.66136426000003,9.32272852000002));
#487=CARTESIAN_POINT('',(6.02214420988422E-16,-5.66136426000001,-2.));
#488=CARTESIAN_POINT('',(6.02214420988422E-16,-1.66136426000001,-13.32272852));
#489=CARTESIAN_POINT('',(6.02214420988422E-16,9.66136426000003,-9.32272852000002));
#490=CARTESIAN_POINT('',(6.02214420988422E-16,5.66136426000001,2.));
#491=CARTESIAN_POINT('',(-8.67361737988404E-16,-6.33863574,2.));
#492=CARTESIAN_POINT('',(-8.67361737988404E-16,-10.33863574,-10.67727148));
#493=CARTESIAN_POINT('',(-8.67361737988404E-16,2.33863574,-14.67727148));
#494=CARTESIAN_POINT('',(-8.67361737988404E-16,6.33863574,-2.));
#495=CARTESIAN_POINT('',(-8.67361737988404E-16,10.33863574,10.67727148));
#496=CARTESIAN_POINT('',(-8.67361737988404E-16,-2.33863574,14.67727148));
#497=CARTESIAN_POINT('',(-8.67361737988404E-16,-6.33863574,2.));
#498=CARTESIAN_POINT('',(-2.33693789696523E-15,-18.33863574,2.));
#499=CARTESIAN_POINT('',(-2.33693789696523E-15,-22.33863574,-34.67727148));
#500=CARTESIAN_POINT('',(-2.33693789696523E-15,14.33863574,-38.67727148));
#501=CARTESIAN_POINT('',(-2.33693789696523E-15,18.33863574,-2.));
#502=CARTESIAN_POINT('',(-2.33693789696523E-15,22.33863574,34.67727148));
#503=CARTESIAN_POINT('',(-2.33693789696523E-15,-14.33863574,38.67727148));
#504=CARTESIAN_POINT('',(-2.33693789696523E-15,-18.33863574,2.));
#505=CARTESIAN_POINT('',(12.,-18.33863574,2.));
#506=CARTESIAN_POINT('',(12.,-22.33863574,-34.67727148));
#507=CARTESIAN_POINT('',(12.,14.33863574,-38.67727148));
#508=CARTESIAN_POINT('',(12.,18.33863574,-2.));
#509=CARTESIAN_POINT('',(12.,22.33863574,34.67727148));
#510=CARTESIAN_POINT('',(12.,-14.33863574,38.67727148));
#511=CARTESIAN_POINT('',(12.,-18.33863574,2.));
#512=CARTESIAN_POINT('',(12.,-6.33863574,2.));
#513=CARTESIAN_POINT('',(12.,-10.33863574,-10.67727148));
#514=CARTESIAN_POINT('',(12.,2.33863574,-14.67727148));
#515=CARTESIAN_POINT('',(12.,6.33863574,-2.));
#516=CARTESIAN_POINT('',(12.,10.33863574,10.67727148));
#517=CARTESIAN_POINT('',(12.,-2.33863574,14.67727148));
#518=CARTESIAN_POINT('',(12.,-6.33863574,2.));
#519=MECHANICAL_DESIGN_GEOMETRIC_PRESENTATION_REPRESENTATION('',(#34,#35),
#520);
#520=(
GEOMETRIC_REPRESENTATION_CONTEXT(3)
GLOBAL_UNCERTAINTY_ASSIGNED_CONTEXT((#521))
GLOBAL_UNIT_ASSIGNED_CONTEXT((#527,#523,#522))
REPRESENTATION_CONTEXT('AEMR-RD12T3-D25-M12-L35-Z02-H',
'TOP_LEVEL_ASSEMBLY_PART')
);
#521=UNCERTAINTY_MEASURE_WITH_UNIT(LENGTH_MEASURE(2.E-5),#527,
'DISTANCE_ACCURACY_VALUE','Maximum Tolerance applied to model');
#522=(
NAMED_UNIT(*)
SI_UNIT($,.STERADIAN.)
SOLID_ANGLE_UNIT()
);
#523=(
CONVERSION_BASED_UNIT('DEGREE',#525)
NAMED_UNIT(#524)
PLANE_ANGLE_UNIT()
);
#524=DIMENSIONAL_EXPONENTS(0.,0.,0.,0.,0.,0.,0.);
#525=PLANE_ANGLE_MEASURE_WITH_UNIT(PLANE_ANGLE_MEASURE(0.0174532925),#526);
#526=(
NAMED_UNIT(*)
PLANE_ANGLE_UNIT()
SI_UNIT($,.RADIAN.)
);
#527=(
LENGTH_UNIT()
NAMED_UNIT(*)
SI_UNIT(.MILLI.,.METRE.)
);
ENDSEC;
END-ISO-10303-21;
