ISO-10303-21;
HEADER;
/* Generated by software containing ST-Developer
 * from STEP Tools, Inc. (www.steptools.com) 
 */
/* OPTION: using custom schema-name function */

FILE_DESCRIPTION(
/* description */ (''),
/* implementation_level */ '2;1');

FILE_NAME(
/* name */ 'AEMR-RD12T3-D32-M16-L43-Z03-H.stp',
/* time_stamp */ '2023-10-21T11:23:18+03:00',
/* author */ (''),
/* organization */ (''),
/* preprocessor_version */ 'ST-DEVELOPER v19.4',
/* originating_system */ 'SIEMENS PLM Software NX2306.5001',
/* authorisation */ '');

FILE_SCHEMA (('AUTOMOTIVE_DESIGN { 1 0 10303 214 3 1 1 1 }'));
ENDSEC;

DATA;
#10=PROPERTY_DEFINITION_REPRESENTATION(#14,#12);
#11=PROPERTY_DEFINITION_REPRESENTATION(#15,#13);
#12=REPRESENTATION('',(#16),#516);
#13=REPRESENTATION('',(#17),#516);
#14=PROPERTY_DEFINITION('pmi validation property','',#21);
#15=PROPERTY_DEFINITION('pmi validation property','',#21);
#16=VALUE_REPRESENTATION_ITEM('number of annotations',COUNT_MEASURE(0.));
#17=VALUE_REPRESENTATION_ITEM('number of views',COUNT_MEASURE(0.));
#18=SHAPE_REPRESENTATION_RELATIONSHIP('None',
'relationship between AEMR-RD12T3-D32-M16-L43-Z03-H-LIGHT_x_t_objects-
None and AEMR-RD12T3-D32-M16-L43-Z03-H-LIGHT_x_t_objects-None',#30,#19);
#19=ADVANCED_BREP_SHAPE_REPRESENTATION(
'AEMR-RD12T3-D32-M16-L43-Z03-H-LIGHT_x_t_objects-None',(#69,#70),#516);
#20=SHAPE_DEFINITION_REPRESENTATION(#21,#30);
#21=PRODUCT_DEFINITION_SHAPE('','',#22);
#22=PRODUCT_DEFINITION(' ','',#24,#23);
#23=PRODUCT_DEFINITION_CONTEXT('part definition',#29,'design');
#24=PRODUCT_DEFINITION_FORMATION_WITH_SPECIFIED_SOURCE(' ',' ',#26,
 .NOT_KNOWN.);
#25=PRODUCT_RELATED_PRODUCT_CATEGORY('part','',(#26));
#26=PRODUCT('AEMR-RD12T3-D32-M16-L43-Z03-H-LIGHT_x_t_objects',
'AEMR-RD12T3-D32-M16-L43-Z03-H-LIGHT_x_t_objects',' ',(#27));
#27=PRODUCT_CONTEXT(' ',#29,'mechanical');
#28=APPLICATION_PROTOCOL_DEFINITION('international standard',
'automotive_design',2010,#29);
#29=APPLICATION_CONTEXT(
'core data for automotive mechanical design processes');
#30=SHAPE_REPRESENTATION(
'AEMR-RD12T3-D32-M16-L43-Z03-H-LIGHT_x_t_objects-None',(#243),#516);
#31=COLOUR_RGB('silver gray',0.6,0.6,0.6);
#32=PLANE('',#259);
#33=PLANE('',#261);
#34=PLANE('',#276);
#35=FACE_OUTER_BOUND('',#140,.T.);
#36=FACE_OUTER_BOUND('',#141,.T.);
#37=SURFACE_OF_REVOLUTION('',#39,#38);
#38=AXIS1_PLACEMENT('',#488,#309);
#39=B_SPLINE_CURVE_WITH_KNOTS('',3,(#420,#421,#422,#423,#424,#425,#426,
#427,#428,#429,#430,#431,#432,#433,#434,#435,#436,#437,#438,#439,#440,#441,
#442,#443,#444,#445,#446,#447,#448,#449,#450,#451,#452,#453,#454,#455,#456,
#457,#458,#459,#460,#461,#462,#463,#464,#465,#466,#467,#468,#469,#470,#471,
#472,#473,#474,#475,#476,#477,#478,#479,#480,#481,#482,#483,#484,#485,#486,
#487),.UNSPECIFIED.,.T.,.F.,(2,2,2,2,2,2,2,2,2,2,2,2,2,2,2,2,2,2,2,2,2,
2,2,2,2,2,2,2,2,2,2,2,2,2,2,2),(-0.03125,0.,0.03125,0.0625,0.09375,0.125,
0.15625,0.1875,0.21875,0.234375,0.25,0.28125,0.3125,0.34375,0.375,0.40625,
0.4375,0.46875,0.5,0.53125,0.5625,0.59375,0.625,0.65625,0.6875,0.71875,
0.75,0.78125,0.8125,0.84375,0.875,0.90625,0.9375,0.96875,1.,1.03125),
 .UNSPECIFIED.);
#40=TOROIDAL_SURFACE('',#255,19.25,5.);
#41=TOROIDAL_SURFACE('',#273,8.88,0.6);
#42=CYLINDRICAL_SURFACE('',#249,14.5);
#43=CYLINDRICAL_SURFACE('',#253,14.25);
#44=CYLINDRICAL_SURFACE('',#265,7.875);
#45=CYLINDRICAL_SURFACE('',#269,8.5);
#46=CONICAL_SURFACE('',#247,14.,45.);
#47=CONICAL_SURFACE('',#251,14.5,45.0000000000002);
#48=CONICAL_SURFACE('',#257,14.4203708685547,15.0000000018806);
#49=CONICAL_SURFACE('',#263,5.875,45.0000000000002);
#50=CONICAL_SURFACE('',#267,7.875,30.);
#51=CONICAL_SURFACE('',#271,8.5,15.0000000000002);
#52=CONICAL_SURFACE('',#275,9.03529142706152,75.);
#53=PRESENTATION_LAYER_ASSIGNMENT('1','Layer 1',(#69,#70));
#54=STYLED_ITEM('',(#56),#69);
#55=STYLED_ITEM('',(#57),#70);
#56=PRESENTATION_STYLE_ASSIGNMENT((#58));
#57=PRESENTATION_STYLE_ASSIGNMENT((#59));
#58=SURFACE_STYLE_USAGE(.BOTH.,#60);
#59=SURFACE_STYLE_USAGE(.BOTH.,#61);
#60=SURFACE_SIDE_STYLE('',(#62));
#61=SURFACE_SIDE_STYLE('',(#63));
#62=SURFACE_STYLE_FILL_AREA(#64);
#63=SURFACE_STYLE_FILL_AREA(#65);
#64=FILL_AREA_STYLE('',(#66));
#65=FILL_AREA_STYLE('',(#67));
#66=FILL_AREA_STYLE_COLOUR('',#68);
#67=FILL_AREA_STYLE_COLOUR('',#31);
#68=DRAUGHTING_PRE_DEFINED_COLOUR('yellow');
#69=MANIFOLD_SOLID_BREP('',#71);
#70=MANIFOLD_SOLID_BREP('',#72);
#71=CLOSED_SHELL('',(#73));
#72=CLOSED_SHELL('',(#74,#75,#76,#77,#78,#79,#80,#81,#82,#83,#84,#85,#86,
#87,#88,#89,#90));
#73=ADVANCED_FACE('',(#92,#93),#91,.F.);
#74=ADVANCED_FACE('',(#94,#95),#46,.T.);
#75=ADVANCED_FACE('',(#96,#97),#42,.T.);
#76=ADVANCED_FACE('',(#98,#99),#47,.T.);
#77=ADVANCED_FACE('',(#100,#101),#43,.T.);
#78=ADVANCED_FACE('',(#102,#103),#40,.F.);
#79=ADVANCED_FACE('',(#104,#105),#48,.T.);
#80=ADVANCED_FACE('',(#106,#107),#37,.T.);
#81=ADVANCED_FACE('',(#35),#32,.F.);
#82=ADVANCED_FACE('',(#36),#33,.F.);
#83=ADVANCED_FACE('',(#108,#109),#49,.T.);
#84=ADVANCED_FACE('',(#110,#111),#44,.T.);
#85=ADVANCED_FACE('',(#112,#113),#50,.T.);
#86=ADVANCED_FACE('',(#114,#115),#45,.T.);
#87=ADVANCED_FACE('',(#116,#117),#51,.T.);
#88=ADVANCED_FACE('',(#118,#119),#41,.F.);
#89=ADVANCED_FACE('',(#120,#121),#52,.F.);
#90=ADVANCED_FACE('',(#122,#123),#34,.F.);
#91=(
BOUNDED_SURFACE()
B_SPLINE_SURFACE(3,3,((#349,#350,#351,#352,#353,#354,#355),(#356,#357,#358,
#359,#360,#361,#362),(#363,#364,#365,#366,#367,#368,#369),(#370,#371,#372,
#373,#374,#375,#376),(#377,#378,#379,#380,#381,#382,#383),(#384,#385,#386,
#387,#388,#389,#390),(#391,#392,#393,#394,#395,#396,#397)),
 .UNSPECIFIED.,.T.,.T.,.F.)
B_SPLINE_SURFACE_WITH_KNOTS((1,3,3,3,1),(1,3,3,3,1),(-0.5,0.,0.5,1.,1.5),
(-0.5,0.,0.5,1.,1.5),.UNSPECIFIED.)
GEOMETRIC_REPRESENTATION_ITEM()
RATIONAL_B_SPLINE_SURFACE(((1.,0.333333333333334,0.333333333333334,1.,0.333333333333334,
0.333333333333334,1.),(0.333333333333334,0.111111111111111,0.111111111111111,
0.333333333333334,0.111111111111111,0.111111111111111,0.333333333333334),
(0.333333333333334,0.111111111111111,0.111111111111111,0.333333333333334,
0.111111111111111,0.111111111111111,0.333333333333334),(1.,0.333333333333334,
0.333333333333334,1.,0.333333333333334,0.333333333333334,1.),(0.333333333333334,
0.111111111111111,0.111111111111111,0.333333333333334,0.111111111111111,
0.111111111111111,0.333333333333334),(0.333333333333334,0.111111111111111,
0.111111111111111,0.333333333333334,0.111111111111111,0.111111111111111,
0.333333333333334),(1.,0.333333333333334,0.333333333333334,1.,0.333333333333334,
0.333333333333334,1.)))
REPRESENTATION_ITEM('')
SURFACE()
);
#92=FACE_BOUND('',#124,.T.);
#93=FACE_BOUND('',#125,.T.);
#94=FACE_BOUND('',#126,.T.);
#95=FACE_BOUND('',#127,.T.);
#96=FACE_BOUND('',#128,.T.);
#97=FACE_BOUND('',#129,.T.);
#98=FACE_BOUND('',#130,.T.);
#99=FACE_BOUND('',#131,.T.);
#100=FACE_BOUND('',#132,.T.);
#101=FACE_BOUND('',#133,.T.);
#102=FACE_BOUND('',#134,.T.);
#103=FACE_BOUND('',#135,.T.);
#104=FACE_BOUND('',#136,.T.);
#105=FACE_BOUND('',#137,.T.);
#106=FACE_BOUND('',#138,.T.);
#107=FACE_BOUND('',#139,.T.);
#108=FACE_BOUND('',#142,.T.);
#109=FACE_BOUND('',#143,.T.);
#110=FACE_BOUND('',#144,.T.);
#111=FACE_BOUND('',#145,.T.);
#112=FACE_BOUND('',#146,.T.);
#113=FACE_BOUND('',#147,.T.);
#114=FACE_BOUND('',#148,.T.);
#115=FACE_BOUND('',#149,.T.);
#116=FACE_BOUND('',#150,.T.);
#117=FACE_BOUND('',#151,.T.);
#118=FACE_BOUND('',#152,.T.);
#119=FACE_BOUND('',#153,.T.);
#120=FACE_BOUND('',#154,.T.);
#121=FACE_BOUND('',#155,.T.);
#122=FACE_BOUND('',#156,.T.);
#123=FACE_BOUND('',#157,.T.);
#124=EDGE_LOOP('',(#158));
#125=EDGE_LOOP('',(#159));
#126=EDGE_LOOP('',(#160));
#127=EDGE_LOOP('',(#161));
#128=EDGE_LOOP('',(#162));
#129=EDGE_LOOP('',(#163));
#130=EDGE_LOOP('',(#164));
#131=EDGE_LOOP('',(#165));
#132=EDGE_LOOP('',(#166));
#133=EDGE_LOOP('',(#167));
#134=EDGE_LOOP('',(#168));
#135=EDGE_LOOP('',(#169));
#136=EDGE_LOOP('',(#170));
#137=EDGE_LOOP('',(#171));
#138=EDGE_LOOP('',(#172));
#139=EDGE_LOOP('',(#173));
#140=EDGE_LOOP('',(#174));
#141=EDGE_LOOP('',(#175));
#142=EDGE_LOOP('',(#176));
#143=EDGE_LOOP('',(#177));
#144=EDGE_LOOP('',(#178));
#145=EDGE_LOOP('',(#179));
#146=EDGE_LOOP('',(#180));
#147=EDGE_LOOP('',(#181));
#148=EDGE_LOOP('',(#182));
#149=EDGE_LOOP('',(#183));
#150=EDGE_LOOP('',(#184));
#151=EDGE_LOOP('',(#185));
#152=EDGE_LOOP('',(#186));
#153=EDGE_LOOP('',(#187));
#154=EDGE_LOOP('',(#188));
#155=EDGE_LOOP('',(#189));
#156=EDGE_LOOP('',(#190));
#157=EDGE_LOOP('',(#191));
#158=ORIENTED_EDGE('',*,*,#209,.T.);
#159=ORIENTED_EDGE('',*,*,#209,.F.);
#160=ORIENTED_EDGE('',*,*,#210,.F.);
#161=ORIENTED_EDGE('',*,*,#211,.T.);
#162=ORIENTED_EDGE('',*,*,#212,.F.);
#163=ORIENTED_EDGE('',*,*,#210,.T.);
#164=ORIENTED_EDGE('',*,*,#213,.F.);
#165=ORIENTED_EDGE('',*,*,#212,.T.);
#166=ORIENTED_EDGE('',*,*,#214,.F.);
#167=ORIENTED_EDGE('',*,*,#213,.T.);
#168=ORIENTED_EDGE('',*,*,#215,.F.);
#169=ORIENTED_EDGE('',*,*,#214,.T.);
#170=ORIENTED_EDGE('',*,*,#216,.F.);
#171=ORIENTED_EDGE('',*,*,#215,.T.);
#172=ORIENTED_EDGE('',*,*,#217,.F.);
#173=ORIENTED_EDGE('',*,*,#216,.T.);
#174=ORIENTED_EDGE('',*,*,#217,.T.);
#175=ORIENTED_EDGE('',*,*,#218,.F.);
#176=ORIENTED_EDGE('',*,*,#219,.F.);
#177=ORIENTED_EDGE('',*,*,#218,.T.);
#178=ORIENTED_EDGE('',*,*,#220,.F.);
#179=ORIENTED_EDGE('',*,*,#219,.T.);
#180=ORIENTED_EDGE('',*,*,#221,.F.);
#181=ORIENTED_EDGE('',*,*,#220,.T.);
#182=ORIENTED_EDGE('',*,*,#222,.F.);
#183=ORIENTED_EDGE('',*,*,#221,.T.);
#184=ORIENTED_EDGE('',*,*,#223,.F.);
#185=ORIENTED_EDGE('',*,*,#222,.T.);
#186=ORIENTED_EDGE('',*,*,#224,.F.);
#187=ORIENTED_EDGE('',*,*,#223,.T.);
#188=ORIENTED_EDGE('',*,*,#225,.F.);
#189=ORIENTED_EDGE('',*,*,#224,.T.);
#190=ORIENTED_EDGE('',*,*,#211,.F.);
#191=ORIENTED_EDGE('',*,*,#225,.T.);
#192=VERTEX_POINT('',#348);
#193=VERTEX_POINT('',#399);
#194=VERTEX_POINT('',#401);
#195=VERTEX_POINT('',#404);
#196=VERTEX_POINT('',#407);
#197=VERTEX_POINT('',#410);
#198=VERTEX_POINT('',#413);
#199=VERTEX_POINT('',#416);
#200=VERTEX_POINT('',#419);
#201=VERTEX_POINT('',#491);
#202=VERTEX_POINT('',#494);
#203=VERTEX_POINT('',#497);
#204=VERTEX_POINT('',#500);
#205=VERTEX_POINT('',#503);
#206=VERTEX_POINT('',#506);
#207=VERTEX_POINT('',#509);
#208=VERTEX_POINT('',#512);
#209=EDGE_CURVE('',#192,#192,#226,.T.);
#210=EDGE_CURVE('',#193,#193,#227,.T.);
#211=EDGE_CURVE('',#194,#194,#228,.T.);
#212=EDGE_CURVE('',#195,#195,#229,.T.);
#213=EDGE_CURVE('',#196,#196,#230,.T.);
#214=EDGE_CURVE('',#197,#197,#231,.T.);
#215=EDGE_CURVE('',#198,#198,#232,.T.);
#216=EDGE_CURVE('',#199,#199,#233,.T.);
#217=EDGE_CURVE('',#200,#200,#234,.T.);
#218=EDGE_CURVE('',#201,#201,#235,.T.);
#219=EDGE_CURVE('',#202,#202,#236,.T.);
#220=EDGE_CURVE('',#203,#203,#237,.T.);
#221=EDGE_CURVE('',#204,#204,#238,.T.);
#222=EDGE_CURVE('',#205,#205,#239,.T.);
#223=EDGE_CURVE('',#206,#206,#240,.T.);
#224=EDGE_CURVE('',#207,#207,#241,.T.);
#225=EDGE_CURVE('',#208,#208,#242,.T.);
#226=CIRCLE('',#244,6.);
#227=CIRCLE('',#245,14.5);
#228=CIRCLE('',#246,14.);
#229=CIRCLE('',#248,14.5);
#230=CIRCLE('',#250,14.25);
#231=CIRCLE('',#252,14.25);
#232=CIRCLE('',#254,14.4203708685547);
#233=CIRCLE('',#256,14.5275469115328);
#234=CIRCLE('',#258,6.39230331632048);
#235=CIRCLE('',#260,5.875);
#236=CIRCLE('',#262,7.875);
#237=CIRCLE('',#264,7.875);
#238=CIRCLE('',#266,8.5);
#239=CIRCLE('',#268,8.5);
#240=CIRCLE('',#270,8.30044450422656);
#241=CIRCLE('',#272,9.03529142706152);
#242=CIRCLE('',#274,9.78004267621762);
#243=AXIS2_PLACEMENT_3D('',#346,#277,#278);
#244=AXIS2_PLACEMENT_3D('',#347,#279,#280);
#245=AXIS2_PLACEMENT_3D('',#398,#281,#282);
#246=AXIS2_PLACEMENT_3D('',#400,#283,#284);
#247=AXIS2_PLACEMENT_3D('',#402,#285,#286);
#248=AXIS2_PLACEMENT_3D('',#403,#287,#288);
#249=AXIS2_PLACEMENT_3D('',#405,#289,#290);
#250=AXIS2_PLACEMENT_3D('',#406,#291,#292);
#251=AXIS2_PLACEMENT_3D('',#408,#293,#294);
#252=AXIS2_PLACEMENT_3D('',#409,#295,#296);
#253=AXIS2_PLACEMENT_3D('',#411,#297,#298);
#254=AXIS2_PLACEMENT_3D('',#412,#299,#300);
#255=AXIS2_PLACEMENT_3D('',#414,#301,#302);
#256=AXIS2_PLACEMENT_3D('',#415,#303,#304);
#257=AXIS2_PLACEMENT_3D('',#417,#305,#306);
#258=AXIS2_PLACEMENT_3D('',#418,#307,#308);
#259=AXIS2_PLACEMENT_3D('',#489,#310,#311);
#260=AXIS2_PLACEMENT_3D('',#490,#312,#313);
#261=AXIS2_PLACEMENT_3D('',#492,#314,#315);
#262=AXIS2_PLACEMENT_3D('',#493,#316,#317);
#263=AXIS2_PLACEMENT_3D('',#495,#318,#319);
#264=AXIS2_PLACEMENT_3D('',#496,#320,#321);
#265=AXIS2_PLACEMENT_3D('',#498,#322,#323);
#266=AXIS2_PLACEMENT_3D('',#499,#324,#325);
#267=AXIS2_PLACEMENT_3D('',#501,#326,#327);
#268=AXIS2_PLACEMENT_3D('',#502,#328,#329);
#269=AXIS2_PLACEMENT_3D('',#504,#330,#331);
#270=AXIS2_PLACEMENT_3D('',#505,#332,#333);
#271=AXIS2_PLACEMENT_3D('',#507,#334,#335);
#272=AXIS2_PLACEMENT_3D('',#508,#336,#337);
#273=AXIS2_PLACEMENT_3D('',#510,#338,#339);
#274=AXIS2_PLACEMENT_3D('',#511,#340,#341);
#275=AXIS2_PLACEMENT_3D('',#513,#342,#343);
#276=AXIS2_PLACEMENT_3D('',#514,#344,#345);
#277=DIRECTION('',(0.,0.,1.));
#278=DIRECTION('',(1.,0.,0.));
#279=DIRECTION('',(0.,0.,1.));
#280=DIRECTION('',(1.,0.,0.));
#281=DIRECTION('',(-1.,0.,0.));
#282=DIRECTION('',(0.,0.,1.));
#283=DIRECTION('',(-1.,0.,0.));
#284=DIRECTION('',(0.,0.,1.));
#285=DIRECTION('',(-1.,0.,0.));
#286=DIRECTION('',(4.10585438101019E-17,0.,1.));
#287=DIRECTION('',(-1.,0.,0.));
#288=DIRECTION('',(0.,0.,1.));
#289=DIRECTION('',(-1.,0.,0.));
#290=DIRECTION('',(0.,0.,1.));
#291=DIRECTION('',(-1.,0.,0.));
#292=DIRECTION('',(0.,0.,1.));
#293=DIRECTION('',(1.,0.,0.));
#294=DIRECTION('',(-1.02595769895128E-16,0.,-1.));
#295=DIRECTION('',(-1.,0.,0.));
#296=DIRECTION('',(0.,0.,1.));
#297=DIRECTION('',(-1.,0.,0.));
#298=DIRECTION('',(0.,0.,1.));
#299=DIRECTION('',(-1.,0.,0.));
#300=DIRECTION('',(0.,0.,1.));
#301=DIRECTION('',(-1.,0.,0.));
#302=DIRECTION('',(0.,0.,1.));
#303=DIRECTION('',(-1.,0.,0.));
#304=DIRECTION('',(0.,0.,1.));
#305=DIRECTION('',(-1.,0.,0.));
#306=DIRECTION('',(1.84303519347759E-17,0.,1.));
#307=DIRECTION('',(-1.,0.,0.));
#308=DIRECTION('',(0.,0.,1.));
#309=DIRECTION('',(-1.,0.,0.));
#310=DIRECTION('',(1.,0.,0.));
#311=DIRECTION('',(0.,0.,-1.));
#312=DIRECTION('',(-1.,0.,0.));
#313=DIRECTION('',(0.,0.,1.));
#314=DIRECTION('',(-1.,0.,0.));
#315=DIRECTION('',(0.,0.,1.));
#316=DIRECTION('',(-1.,0.,0.));
#317=DIRECTION('',(0.,0.,1.));
#318=DIRECTION('',(-1.,0.,0.));
#319=DIRECTION('',(5.51869280290865E-17,0.,1.));
#320=DIRECTION('',(-1.,0.,0.));
#321=DIRECTION('',(0.,0.,1.));
#322=DIRECTION('',(-1.,0.,0.));
#323=DIRECTION('',(0.,0.,1.));
#324=DIRECTION('',(-1.,0.,0.));
#325=DIRECTION('',(0.,0.,1.));
#326=DIRECTION('',(-1.,0.,0.));
#327=DIRECTION('',(7.11407480423633E-17,0.,1.));
#328=DIRECTION('',(-1.,0.,0.));
#329=DIRECTION('',(0.,0.,1.));
#330=DIRECTION('',(-1.,0.,0.));
#331=DIRECTION('',(0.,0.,1.));
#332=DIRECTION('',(-1.,0.,0.));
#333=DIRECTION('',(0.,0.,1.));
#334=DIRECTION('',(1.,0.,0.));
#335=DIRECTION('',(-2.00800554861768E-16,0.,-1.));
#336=DIRECTION('',(-1.,0.,0.));
#337=DIRECTION('',(0.,0.,1.));
#338=DIRECTION('',(-1.,0.,0.));
#339=DIRECTION('',(0.,0.,1.));
#340=DIRECTION('',(-1.,0.,0.));
#341=DIRECTION('',(0.,0.,1.));
#342=DIRECTION('',(1.,0.,0.));
#343=DIRECTION('',(-1.66930253628555E-17,0.,-1.));
#344=DIRECTION('',(-1.,0.,0.));
#345=DIRECTION('',(0.,0.,1.));
#346=CARTESIAN_POINT('',(0.,0.,0.));
#347=CARTESIAN_POINT('',(6.,-9.87430992,2.));
#348=CARTESIAN_POINT('',(12.,-9.87430992,2.));
#349=CARTESIAN_POINT('',(12.,-9.87430992,2.));
#350=CARTESIAN_POINT('',(12.,-13.87430992,-17.74861984));
#351=CARTESIAN_POINT('',(12.,5.87430991999999,-21.74861984));
#352=CARTESIAN_POINT('',(12.,9.87430992,-2.));
#353=CARTESIAN_POINT('',(12.,13.87430992,17.74861984));
#354=CARTESIAN_POINT('',(12.,-5.87430991999999,21.74861984));
#355=CARTESIAN_POINT('',(12.,-9.87430992,2.));
#356=CARTESIAN_POINT('',(12.,2.12569008000001,2.));
#357=CARTESIAN_POINT('',(12.,-1.87430991999999,6.25138016000002));
#358=CARTESIAN_POINT('',(12.,-6.12569008000001,2.25138016000002));
#359=CARTESIAN_POINT('',(12.,-2.12569008000001,-2.));
#360=CARTESIAN_POINT('',(12.,1.87430991999999,-6.25138016000002));
#361=CARTESIAN_POINT('',(12.,6.12569008000001,-2.25138016000002));
#362=CARTESIAN_POINT('',(12.,2.12569008000001,2.));
#363=CARTESIAN_POINT('',(6.02214420988422E-16,2.12569008000001,2.));
#364=CARTESIAN_POINT('',(6.02214420988422E-16,-1.87430991999999,6.25138016000002));
#365=CARTESIAN_POINT('',(6.02214420988422E-16,-6.12569008000001,2.25138016000002));
#366=CARTESIAN_POINT('',(6.02214420988422E-16,-2.12569008000001,-2.));
#367=CARTESIAN_POINT('',(6.02214420988422E-16,1.87430991999999,-6.25138016000002));
#368=CARTESIAN_POINT('',(6.02214420988422E-16,6.12569008000001,-2.25138016000002));
#369=CARTESIAN_POINT('',(6.02214420988422E-16,2.12569008000001,2.));
#370=CARTESIAN_POINT('',(-8.67361737988404E-16,-9.87430992,2.));
#371=CARTESIAN_POINT('',(-8.67361737988404E-16,-13.87430992,-17.74861984));
#372=CARTESIAN_POINT('',(-8.67361737988404E-16,5.87430991999999,-21.74861984));
#373=CARTESIAN_POINT('',(-8.67361737988404E-16,9.87430992,-2.));
#374=CARTESIAN_POINT('',(-8.67361737988404E-16,13.87430992,17.74861984));
#375=CARTESIAN_POINT('',(-8.67361737988404E-16,-5.87430991999999,21.74861984));
#376=CARTESIAN_POINT('',(-8.67361737988404E-16,-9.87430992,2.));
#377=CARTESIAN_POINT('',(-2.33693789696523E-15,-21.87430992,2.));
#378=CARTESIAN_POINT('',(-2.33693789696523E-15,-25.87430992,-41.7486198400001));
#379=CARTESIAN_POINT('',(-2.33693789696523E-15,17.87430992,-45.7486198400001));
#380=CARTESIAN_POINT('',(-2.33693789696523E-15,21.87430992,-2.));
#381=CARTESIAN_POINT('',(-2.33693789696523E-15,25.87430992,41.7486198400001));
#382=CARTESIAN_POINT('',(-2.33693789696523E-15,-17.87430992,45.7486198400001));
#383=CARTESIAN_POINT('',(-2.33693789696523E-15,-21.87430992,2.));
#384=CARTESIAN_POINT('',(12.,-21.87430992,2.));
#385=CARTESIAN_POINT('',(12.,-25.87430992,-41.7486198400001));
#386=CARTESIAN_POINT('',(12.,17.87430992,-45.7486198400001));
#387=CARTESIAN_POINT('',(12.,21.87430992,-2.));
#388=CARTESIAN_POINT('',(12.,25.87430992,41.7486198400001));
#389=CARTESIAN_POINT('',(12.,-17.87430992,45.7486198400001));
#390=CARTESIAN_POINT('',(12.,-21.87430992,2.));
#391=CARTESIAN_POINT('',(12.,-9.87430992,2.));
#392=CARTESIAN_POINT('',(12.,-13.87430992,-17.74861984));
#393=CARTESIAN_POINT('',(12.,5.87430991999999,-21.74861984));
#394=CARTESIAN_POINT('',(12.,9.87430992,-2.));
#395=CARTESIAN_POINT('',(12.,13.87430992,17.74861984));
#396=CARTESIAN_POINT('',(12.,-5.87430991999999,21.74861984));
#397=CARTESIAN_POINT('',(12.,-9.87430992,2.));
#398=CARTESIAN_POINT('',(42.5,0.,0.));
#399=CARTESIAN_POINT('',(42.5,0.,14.5));
#400=CARTESIAN_POINT('',(43.,0.,0.));
#401=CARTESIAN_POINT('',(43.,0.,14.));
#402=CARTESIAN_POINT('',(43.,0.,0.));
#403=CARTESIAN_POINT('',(38.25,0.,0.));
#404=CARTESIAN_POINT('',(38.25,0.,14.5));
#405=CARTESIAN_POINT('',(0.,0.,0.));
#406=CARTESIAN_POINT('',(38.,0.,0.));
#407=CARTESIAN_POINT('',(38.,0.,14.25));
#408=CARTESIAN_POINT('',(38.25,0.,0.));
#409=CARTESIAN_POINT('',(9.41666469446533,0.,0.));
#410=CARTESIAN_POINT('',(9.41666469446533,0.,14.25));
#411=CARTESIAN_POINT('',(0.,0.,0.));
#412=CARTESIAN_POINT('',(8.12256946895273,0.,0.));
#413=CARTESIAN_POINT('',(8.12256946895273,0.,14.4203708685547));
#414=CARTESIAN_POINT('',(9.41666469446533,0.,0.));
#415=CARTESIAN_POINT('',(7.72258303125674,0.,0.));
#416=CARTESIAN_POINT('',(7.72258303125674,0.,14.5275469115328));
#417=CARTESIAN_POINT('',(8.12256946895273,0.,0.));
#418=CARTESIAN_POINT('',(3.,0.,0.));
#419=CARTESIAN_POINT('',(3.,0.,6.39230331632048));
#420=CARTESIAN_POINT('',(5.68447250445528,5.40953152578197,0.));
#421=CARTESIAN_POINT('',(6.31552749554474,5.40953152578197,0.));
#422=CARTESIAN_POINT('',(6.62834096092117,5.43800297969945,0.));
#423=CARTESIAN_POINT('',(7.24789207639784,5.55236533480335,0.));
#424=CARTESIAN_POINT('',(7.55046509217002,5.63778897633978,0.));
#425=CARTESIAN_POINT('',(8.13197858634285,5.86272010373572,0.));
#426=CARTESIAN_POINT('',(8.41481474995338,6.00407622925778,0.));
#427=CARTESIAN_POINT('',(8.94590763438784,6.33920014701313,0.));
#428=CARTESIAN_POINT('',(9.19179985925793,6.53075380177744,0.));
#429=CARTESIAN_POINT('',(9.64373918220687,6.96249963746337,0.));
#430=CARTESIAN_POINT('',(9.85044760622925,7.20479249803735,0.));
#431=CARTESIAN_POINT('',(10.2044270879922,7.71834893023098,0.));
#432=CARTESIAN_POINT('',(10.3544232755608,7.99163530261486,0.));
#433=CARTESIAN_POINT('',(10.5987897365152,8.57222658782051,0.));
#434=CARTESIAN_POINT('',(10.6900001052227,8.87298694536147,0.));
#435=CARTESIAN_POINT('',(10.7798583002103,9.33121661695228,0.));
#436=CARTESIAN_POINT('',(10.8021053238566,9.48557489487029,0.));
#437=CARTESIAN_POINT('',(10.830965514064,9.79756818065999,0.));
#438=CARTESIAN_POINT('',(10.8375179328067,9.95604333071677,0.));
#439=CARTESIAN_POINT('',(10.8330644011689,10.4266967920629,0.));
#440=CARTESIAN_POINT('',(10.7987184285502,10.7361385616597,0.));
#441=CARTESIAN_POINT('',(10.6689823279463,11.3466034833933,0.));
#442=CARTESIAN_POINT('',(10.5720108571599,11.6499608044278,0.));
#443=CARTESIAN_POINT('',(10.3241955986047,12.2226737301928,0.));
#444=CARTESIAN_POINT('',(10.1732242605516,12.4949564543757,0.));
#445=CARTESIAN_POINT('',(9.81675024471633,13.0111643767034,0.));
#446=CARTESIAN_POINT('',(9.61205502113714,13.2526426482855,0.));
#447=CARTESIAN_POINT('',(9.16551060253834,13.6864943939794,0.));
#448=CARTESIAN_POINT('',(8.92156333959491,13.8818080348521,0.));
#449=CARTESIAN_POINT('',(8.3926349989492,14.2261697862477,0.));
#450=CARTESIAN_POINT('',(8.11580119259352,14.3700021694073,0.));
#451=CARTESIAN_POINT('',(7.53845244418771,14.6033949671135,0.));
#452=CARTESIAN_POINT('',(7.23462193284915,14.6934652116041,0.));
#453=CARTESIAN_POINT('',(6.61916719994554,14.8125724201594,0.));
#454=CARTESIAN_POINT('',(6.30921489036421,14.8420609659795,0.));
#455=CARTESIAN_POINT('',(5.6849179371431,14.8416856281219,0.));
#456=CARTESIAN_POINT('',(5.36816099616724,14.8108491879579,0.));
#457=CARTESIAN_POINT('',(4.7556837648427,14.6908328808059,0.));
#458=CARTESIAN_POINT('',(4.45715684265114,14.6020943680555,0.));
#459=CARTESIAN_POINT('',(3.87580367750199,14.3661235557634,0.));
#460=CARTESIAN_POINT('',(3.59550918308164,14.2191759311243,0.));
#461=CARTESIAN_POINT('',(3.07419897719064,13.8783014104872,0.));
#462=CARTESIAN_POINT('',(2.82959829012873,13.6826565362275,0.));
#463=CARTESIAN_POINT('',(2.37822179593001,13.2422515602019,0.));
#464=CARTESIAN_POINT('',(2.17737117365053,13.0035164484246,0.));
#465=CARTESIAN_POINT('',(1.82396995017609,12.4900071057886,0.));
#466=CARTESIAN_POINT('',(1.67022460396553,12.2118992594768,0.));
#467=CARTESIAN_POINT('',(1.42322860255989,11.636747876606,0.));
#468=CARTESIAN_POINT('',(1.32902560630916,11.3398072595803,0.));
#469=CARTESIAN_POINT('',(1.199896644086,10.7269765497339,0.));
#470=CARTESIAN_POINT('',(1.1659076615955,10.4111561116265,0.));
#471=CARTESIAN_POINT('',(1.16180996604889,9.78781952097954,0.));
#472=CARTESIAN_POINT('',(1.19089984698339,9.47612083770617,0.));
#473=CARTESIAN_POINT('',(1.31396261972876,8.85715725023442,0.));
#474=CARTESIAN_POINT('',(1.4059641964821,8.55908737452794,0.));
#475=CARTESIAN_POINT('',(1.64912854755717,7.98510510650237,0.));
#476=CARTESIAN_POINT('',(1.80272330051591,7.70625024792516,0.));
#477=CARTESIAN_POINT('',(2.15908938168624,7.19276389541476,0.));
#478=CARTESIAN_POINT('',(2.36155099418043,6.95670907800684,0.));
#479=CARTESIAN_POINT('',(2.81448224025043,6.52550824010895,0.));
#480=CARTESIAN_POINT('',(3.06596960981252,6.33081695583895,0.));
#481=CARTESIAN_POINT('',(3.59315418216865,5.99997044344048,0.));
#482=CARTESIAN_POINT('',(3.87149945749844,5.8609669681855,0.));
#483=CARTESIAN_POINT('',(4.45735084970517,5.63518150566718,0.));
#484=CARTESIAN_POINT('',(4.76141461092286,5.55029412140393,0.));
#485=CARTESIAN_POINT('',(5.37370040388871,5.43798607704406,0.));
#486=CARTESIAN_POINT('',(5.68447250445528,5.40953152578197,0.));
#487=CARTESIAN_POINT('',(6.31552749554474,5.40953152578197,0.));
#488=CARTESIAN_POINT('',(0.,0.,0.));
#489=CARTESIAN_POINT('',(3.,6.39230331632048,0.));
#490=CARTESIAN_POINT('',(68.,0.,0.));
#491=CARTESIAN_POINT('',(68.,0.,5.875));
#492=CARTESIAN_POINT('',(68.,0.,0.));
#493=CARTESIAN_POINT('',(66.,0.,0.));
#494=CARTESIAN_POINT('',(66.,0.,7.875));
#495=CARTESIAN_POINT('',(68.,0.,0.));
#496=CARTESIAN_POINT('',(50.0825317547305,0.,0.));
#497=CARTESIAN_POINT('',(50.0825317547305,0.,7.875));
#498=CARTESIAN_POINT('',(0.,0.,0.));
#499=CARTESIAN_POINT('',(49.,0.,0.));
#500=CARTESIAN_POINT('',(49.,0.,8.5));
#501=CARTESIAN_POINT('',(50.0825317547305,0.,0.));
#502=CARTESIAN_POINT('',(44.2800426762176,0.,0.));
#503=CARTESIAN_POINT('',(44.2800426762176,0.,8.5));
#504=CARTESIAN_POINT('',(0.,0.,0.));
#505=CARTESIAN_POINT('',(43.5352914270615,0.,0.));
#506=CARTESIAN_POINT('',(43.5352914270615,0.,8.30044450422656));
#507=CARTESIAN_POINT('',(44.2800426762176,0.,0.));
#508=CARTESIAN_POINT('',(42.8004445042265,0.,0.));
#509=CARTESIAN_POINT('',(42.8004445042265,0.,9.03529142706152));
#510=CARTESIAN_POINT('',(43.38,0.,0.));
#511=CARTESIAN_POINT('',(43.,0.,0.));
#512=CARTESIAN_POINT('',(43.,0.,9.78004267621762));
#513=CARTESIAN_POINT('',(42.8004445042265,0.,0.));
#514=CARTESIAN_POINT('',(43.,9.78004267621762,0.));
#515=MECHANICAL_DESIGN_GEOMETRIC_PRESENTATION_REPRESENTATION('',(#54,#55),
#516);
#516=(
GEOMETRIC_REPRESENTATION_CONTEXT(3)
GLOBAL_UNCERTAINTY_ASSIGNED_CONTEXT((#517))
GLOBAL_UNIT_ASSIGNED_CONTEXT((#523,#519,#518))
REPRESENTATION_CONTEXT('AEMR-RD12T3-D32-M16-L43-Z03-H',
'TOP_LEVEL_ASSEMBLY_PART')
);
#517=UNCERTAINTY_MEASURE_WITH_UNIT(LENGTH_MEASURE(2.E-5),#523,
'DISTANCE_ACCURACY_VALUE','Maximum Tolerance applied to model');
#518=(
NAMED_UNIT(*)
SI_UNIT($,.STERADIAN.)
SOLID_ANGLE_UNIT()
);
#519=(
CONVERSION_BASED_UNIT('DEGREE',#521)
NAMED_UNIT(#520)
PLANE_ANGLE_UNIT()
);
#520=DIMENSIONAL_EXPONENTS(0.,0.,0.,0.,0.,0.,0.);
#521=PLANE_ANGLE_MEASURE_WITH_UNIT(PLANE_ANGLE_MEASURE(0.0174532925),#522);
#522=(
NAMED_UNIT(*)
PLANE_ANGLE_UNIT()
SI_UNIT($,.RADIAN.)
);
#523=(
LENGTH_UNIT()
NAMED_UNIT(*)
SI_UNIT(.MILLI.,.METRE.)
);
ENDSEC;
END-ISO-10303-21;
