ISO-10303-21;
HEADER;
/* Generated by software containing ST-Developer
 * from STEP Tools, Inc. (www.steptools.com) 
 */
/* OPTION: using custom schema-name function */

FILE_DESCRIPTION(
/* description */ (''),
/* implementation_level */ '2;1');

FILE_NAME(
/* name */ 'AEMR-RD12T3-D40-M16-L43-Z04-H.stp',
/* time_stamp */ '2023-10-21T11:36:53+03:00',
/* author */ (''),
/* organization */ (''),
/* preprocessor_version */ 'ST-DEVELOPER v19.4',
/* originating_system */ 'SIEMENS PLM Software NX2306.5001',
/* authorisation */ '');

FILE_SCHEMA (('AUTOMOTIVE_DESIGN { 1 0 10303 214 3 1 1 1 }'));
ENDSEC;

DATA;
#10=PROPERTY_DEFINITION_REPRESENTATION(#14,#12);
#11=PROPERTY_DEFINITION_REPRESENTATION(#15,#13);
#12=REPRESENTATION('',(#16),#536);
#13=REPRESENTATION('',(#17),#536);
#14=PROPERTY_DEFINITION('pmi validation property','',#21);
#15=PROPERTY_DEFINITION('pmi validation property','',#21);
#16=VALUE_REPRESENTATION_ITEM('number of annotations',COUNT_MEASURE(0.));
#17=VALUE_REPRESENTATION_ITEM('number of views',COUNT_MEASURE(0.));
#18=SHAPE_REPRESENTATION_RELATIONSHIP('None',
'relationship between AEMR-RD12T3-D40-M16-L43-Z04-H_x_t_objects-None a
nd AEMR-RD12T3-D40-M16-L43-Z04-H_x_t_objects-None',#30,#19);
#19=ADVANCED_BREP_SHAPE_REPRESENTATION(
'AEMR-RD12T3-D40-M16-L43-Z04-H_x_t_objects-None',(#70,#71),#536);
#20=SHAPE_DEFINITION_REPRESENTATION(#21,#30);
#21=PRODUCT_DEFINITION_SHAPE('','',#22);
#22=PRODUCT_DEFINITION(' ','',#24,#23);
#23=PRODUCT_DEFINITION_CONTEXT('part definition',#29,'design');
#24=PRODUCT_DEFINITION_FORMATION_WITH_SPECIFIED_SOURCE(' ',' ',#26,
 .NOT_KNOWN.);
#25=PRODUCT_RELATED_PRODUCT_CATEGORY('part','',(#26));
#26=PRODUCT('AEMR-RD12T3-D40-M16-L43-Z04-H_x_t_objects',
'AEMR-RD12T3-D40-M16-L43-Z04-H_x_t_objects',' ',(#27));
#27=PRODUCT_CONTEXT(' ',#29,'mechanical');
#28=APPLICATION_PROTOCOL_DEFINITION('international standard',
'automotive_design',2010,#29);
#29=APPLICATION_CONTEXT(
'core data for automotive mechanical design processes');
#30=SHAPE_REPRESENTATION(
'AEMR-RD12T3-D40-M16-L43-Z04-H_x_t_objects-None',(#254),#536);
#31=COLOUR_RGB('silver gray',0.6,0.6,0.6);
#32=PLANE('',#272);
#33=PLANE('',#274);
#34=PLANE('',#289);
#35=FACE_OUTER_BOUND('',#146,.T.);
#36=FACE_OUTER_BOUND('',#147,.T.);
#37=SURFACE_OF_REVOLUTION('',#39,#38);
#38=AXIS1_PLACEMENT('',#505,#322);
#39=B_SPLINE_CURVE_WITH_KNOTS('',3,(#437,#438,#439,#440,#441,#442,#443,
#444,#445,#446,#447,#448,#449,#450,#451,#452,#453,#454,#455,#456,#457,#458,
#459,#460,#461,#462,#463,#464,#465,#466,#467,#468,#469,#470,#471,#472,#473,
#474,#475,#476,#477,#478,#479,#480,#481,#482,#483,#484,#485,#486,#487,#488,
#489,#490,#491,#492,#493,#494,#495,#496,#497,#498,#499,#500,#501,#502,#503,
#504),.UNSPECIFIED.,.T.,.F.,(2,2,2,2,2,2,2,2,2,2,2,2,2,2,2,2,2,2,2,2,2,
2,2,2,2,2,2,2,2,2,2,2,2,2,2,2),(-0.03125,0.,0.03125,0.0625,0.09375,0.125,
0.15625,0.1875,0.21875,0.25,0.28125,0.3125,0.34375,0.375,0.40625,0.4375,
0.46875,0.5,0.53125,0.5625,0.59375,0.625,0.65625,0.6875,0.71875,0.75,0.78125,
0.8125,0.828125,0.84375,0.875,0.90625,0.9375,0.96875,1.,1.03125),
 .UNSPECIFIED.);
#40=TOROIDAL_SURFACE('',#266,29.3,15.);
#41=TOROIDAL_SURFACE('',#271,9.41062103472581,1.5);
#42=TOROIDAL_SURFACE('',#286,8.88,0.6);
#43=CYLINDRICAL_SURFACE('',#260,14.5);
#44=CYLINDRICAL_SURFACE('',#264,14.3);
#45=CYLINDRICAL_SURFACE('',#278,7.875);
#46=CYLINDRICAL_SURFACE('',#282,8.5);
#47=CONICAL_SURFACE('',#258,14.,45.);
#48=CONICAL_SURFACE('',#262,14.5,45.0000000000002);
#49=CONICAL_SURFACE('',#268,15.2046106882113,19.999999999969);
#50=CONICAL_SURFACE('',#276,5.875,45.);
#51=CONICAL_SURFACE('',#280,7.875,30.);
#52=CONICAL_SURFACE('',#284,8.5,15.0000000000002);
#53=CONICAL_SURFACE('',#288,9.03529142706152,74.9999999999999);
#54=PRESENTATION_LAYER_ASSIGNMENT('1','Layer 1',(#70,#71));
#55=STYLED_ITEM('',(#57),#70);
#56=STYLED_ITEM('',(#58),#71);
#57=PRESENTATION_STYLE_ASSIGNMENT((#59));
#58=PRESENTATION_STYLE_ASSIGNMENT((#60));
#59=SURFACE_STYLE_USAGE(.BOTH.,#61);
#60=SURFACE_STYLE_USAGE(.BOTH.,#62);
#61=SURFACE_SIDE_STYLE('',(#63));
#62=SURFACE_SIDE_STYLE('',(#64));
#63=SURFACE_STYLE_FILL_AREA(#65);
#64=SURFACE_STYLE_FILL_AREA(#66);
#65=FILL_AREA_STYLE('',(#67));
#66=FILL_AREA_STYLE('',(#68));
#67=FILL_AREA_STYLE_COLOUR('',#69);
#68=FILL_AREA_STYLE_COLOUR('',#31);
#69=DRAUGHTING_PRE_DEFINED_COLOUR('yellow');
#70=MANIFOLD_SOLID_BREP('',#72);
#71=MANIFOLD_SOLID_BREP('',#73);
#72=CLOSED_SHELL('',(#74));
#73=CLOSED_SHELL('',(#75,#76,#77,#78,#79,#80,#81,#82,#83,#84,#85,#86,#87,
#88,#89,#90,#91,#92));
#74=ADVANCED_FACE('',(#94,#95),#93,.F.);
#75=ADVANCED_FACE('',(#96,#97),#47,.T.);
#76=ADVANCED_FACE('',(#98,#99),#43,.T.);
#77=ADVANCED_FACE('',(#100,#101),#48,.T.);
#78=ADVANCED_FACE('',(#102,#103),#44,.T.);
#79=ADVANCED_FACE('',(#104,#105),#40,.F.);
#80=ADVANCED_FACE('',(#106,#107),#49,.T.);
#81=ADVANCED_FACE('',(#108,#109),#37,.T.);
#82=ADVANCED_FACE('',(#110,#111),#41,.F.);
#83=ADVANCED_FACE('',(#35),#32,.F.);
#84=ADVANCED_FACE('',(#36),#33,.F.);
#85=ADVANCED_FACE('',(#112,#113),#50,.T.);
#86=ADVANCED_FACE('',(#114,#115),#45,.T.);
#87=ADVANCED_FACE('',(#116,#117),#51,.T.);
#88=ADVANCED_FACE('',(#118,#119),#46,.T.);
#89=ADVANCED_FACE('',(#120,#121),#52,.T.);
#90=ADVANCED_FACE('',(#122,#123),#42,.F.);
#91=ADVANCED_FACE('',(#124,#125),#53,.F.);
#92=ADVANCED_FACE('',(#126,#127),#34,.F.);
#93=(
BOUNDED_SURFACE()
B_SPLINE_SURFACE(3,3,((#366,#367,#368,#369,#370,#371,#372),(#373,#374,#375,
#376,#377,#378,#379),(#380,#381,#382,#383,#384,#385,#386),(#387,#388,#389,
#390,#391,#392,#393),(#394,#395,#396,#397,#398,#399,#400),(#401,#402,#403,
#404,#405,#406,#407),(#408,#409,#410,#411,#412,#413,#414)),
 .UNSPECIFIED.,.T.,.T.,.F.)
B_SPLINE_SURFACE_WITH_KNOTS((1,3,3,3,1),(1,3,3,3,1),(-0.5,0.,0.5,1.,1.5),
(-0.5,0.,0.5,1.,1.5),.UNSPECIFIED.)
GEOMETRIC_REPRESENTATION_ITEM()
RATIONAL_B_SPLINE_SURFACE(((1.,0.333333333333334,0.333333333333334,1.,0.333333333333334,
0.333333333333334,1.),(0.333333333333334,0.111111111111111,0.111111111111111,
0.333333333333334,0.111111111111111,0.111111111111111,0.333333333333334),
(0.333333333333334,0.111111111111111,0.111111111111111,0.333333333333334,
0.111111111111111,0.111111111111111,0.333333333333334),(1.,0.333333333333334,
0.333333333333334,1.,0.333333333333334,0.333333333333334,1.),(0.333333333333334,
0.111111111111111,0.111111111111111,0.333333333333334,0.111111111111111,
0.111111111111111,0.333333333333334),(0.333333333333334,0.111111111111111,
0.111111111111111,0.333333333333334,0.111111111111111,0.111111111111111,
0.333333333333334),(1.,0.333333333333334,0.333333333333334,1.,0.333333333333334,
0.333333333333334,1.)))
REPRESENTATION_ITEM('')
SURFACE()
);
#94=FACE_BOUND('',#128,.T.);
#95=FACE_BOUND('',#129,.T.);
#96=FACE_BOUND('',#130,.T.);
#97=FACE_BOUND('',#131,.T.);
#98=FACE_BOUND('',#132,.T.);
#99=FACE_BOUND('',#133,.T.);
#100=FACE_BOUND('',#134,.T.);
#101=FACE_BOUND('',#135,.T.);
#102=FACE_BOUND('',#136,.T.);
#103=FACE_BOUND('',#137,.T.);
#104=FACE_BOUND('',#138,.T.);
#105=FACE_BOUND('',#139,.T.);
#106=FACE_BOUND('',#140,.T.);
#107=FACE_BOUND('',#141,.T.);
#108=FACE_BOUND('',#142,.T.);
#109=FACE_BOUND('',#143,.T.);
#110=FACE_BOUND('',#144,.T.);
#111=FACE_BOUND('',#145,.T.);
#112=FACE_BOUND('',#148,.T.);
#113=FACE_BOUND('',#149,.T.);
#114=FACE_BOUND('',#150,.T.);
#115=FACE_BOUND('',#151,.T.);
#116=FACE_BOUND('',#152,.T.);
#117=FACE_BOUND('',#153,.T.);
#118=FACE_BOUND('',#154,.T.);
#119=FACE_BOUND('',#155,.T.);
#120=FACE_BOUND('',#156,.T.);
#121=FACE_BOUND('',#157,.T.);
#122=FACE_BOUND('',#158,.T.);
#123=FACE_BOUND('',#159,.T.);
#124=FACE_BOUND('',#160,.T.);
#125=FACE_BOUND('',#161,.T.);
#126=FACE_BOUND('',#162,.T.);
#127=FACE_BOUND('',#163,.T.);
#128=EDGE_LOOP('',(#164));
#129=EDGE_LOOP('',(#165));
#130=EDGE_LOOP('',(#166));
#131=EDGE_LOOP('',(#167));
#132=EDGE_LOOP('',(#168));
#133=EDGE_LOOP('',(#169));
#134=EDGE_LOOP('',(#170));
#135=EDGE_LOOP('',(#171));
#136=EDGE_LOOP('',(#172));
#137=EDGE_LOOP('',(#173));
#138=EDGE_LOOP('',(#174));
#139=EDGE_LOOP('',(#175));
#140=EDGE_LOOP('',(#176));
#141=EDGE_LOOP('',(#177));
#142=EDGE_LOOP('',(#178));
#143=EDGE_LOOP('',(#179));
#144=EDGE_LOOP('',(#180));
#145=EDGE_LOOP('',(#181));
#146=EDGE_LOOP('',(#182));
#147=EDGE_LOOP('',(#183));
#148=EDGE_LOOP('',(#184));
#149=EDGE_LOOP('',(#185));
#150=EDGE_LOOP('',(#186));
#151=EDGE_LOOP('',(#187));
#152=EDGE_LOOP('',(#188));
#153=EDGE_LOOP('',(#189));
#154=EDGE_LOOP('',(#190));
#155=EDGE_LOOP('',(#191));
#156=EDGE_LOOP('',(#192));
#157=EDGE_LOOP('',(#193));
#158=EDGE_LOOP('',(#194));
#159=EDGE_LOOP('',(#195));
#160=EDGE_LOOP('',(#196));
#161=EDGE_LOOP('',(#197));
#162=EDGE_LOOP('',(#198));
#163=EDGE_LOOP('',(#199));
#164=ORIENTED_EDGE('',*,*,#218,.T.);
#165=ORIENTED_EDGE('',*,*,#218,.F.);
#166=ORIENTED_EDGE('',*,*,#219,.F.);
#167=ORIENTED_EDGE('',*,*,#220,.T.);
#168=ORIENTED_EDGE('',*,*,#221,.F.);
#169=ORIENTED_EDGE('',*,*,#219,.T.);
#170=ORIENTED_EDGE('',*,*,#222,.F.);
#171=ORIENTED_EDGE('',*,*,#221,.T.);
#172=ORIENTED_EDGE('',*,*,#223,.F.);
#173=ORIENTED_EDGE('',*,*,#222,.T.);
#174=ORIENTED_EDGE('',*,*,#224,.F.);
#175=ORIENTED_EDGE('',*,*,#223,.T.);
#176=ORIENTED_EDGE('',*,*,#225,.F.);
#177=ORIENTED_EDGE('',*,*,#224,.T.);
#178=ORIENTED_EDGE('',*,*,#226,.F.);
#179=ORIENTED_EDGE('',*,*,#225,.T.);
#180=ORIENTED_EDGE('',*,*,#227,.F.);
#181=ORIENTED_EDGE('',*,*,#226,.T.);
#182=ORIENTED_EDGE('',*,*,#227,.T.);
#183=ORIENTED_EDGE('',*,*,#228,.F.);
#184=ORIENTED_EDGE('',*,*,#229,.F.);
#185=ORIENTED_EDGE('',*,*,#228,.T.);
#186=ORIENTED_EDGE('',*,*,#230,.F.);
#187=ORIENTED_EDGE('',*,*,#229,.T.);
#188=ORIENTED_EDGE('',*,*,#231,.F.);
#189=ORIENTED_EDGE('',*,*,#230,.T.);
#190=ORIENTED_EDGE('',*,*,#232,.F.);
#191=ORIENTED_EDGE('',*,*,#231,.T.);
#192=ORIENTED_EDGE('',*,*,#233,.F.);
#193=ORIENTED_EDGE('',*,*,#232,.T.);
#194=ORIENTED_EDGE('',*,*,#234,.F.);
#195=ORIENTED_EDGE('',*,*,#233,.T.);
#196=ORIENTED_EDGE('',*,*,#235,.F.);
#197=ORIENTED_EDGE('',*,*,#234,.T.);
#198=ORIENTED_EDGE('',*,*,#220,.F.);
#199=ORIENTED_EDGE('',*,*,#235,.T.);
#200=VERTEX_POINT('',#365);
#201=VERTEX_POINT('',#416);
#202=VERTEX_POINT('',#418);
#203=VERTEX_POINT('',#421);
#204=VERTEX_POINT('',#424);
#205=VERTEX_POINT('',#427);
#206=VERTEX_POINT('',#430);
#207=VERTEX_POINT('',#433);
#208=VERTEX_POINT('',#436);
#209=VERTEX_POINT('',#507);
#210=VERTEX_POINT('',#511);
#211=VERTEX_POINT('',#514);
#212=VERTEX_POINT('',#517);
#213=VERTEX_POINT('',#520);
#214=VERTEX_POINT('',#523);
#215=VERTEX_POINT('',#526);
#216=VERTEX_POINT('',#529);
#217=VERTEX_POINT('',#532);
#218=EDGE_CURVE('',#200,#200,#236,.T.);
#219=EDGE_CURVE('',#201,#201,#237,.T.);
#220=EDGE_CURVE('',#202,#202,#238,.T.);
#221=EDGE_CURVE('',#203,#203,#239,.T.);
#222=EDGE_CURVE('',#204,#204,#240,.T.);
#223=EDGE_CURVE('',#205,#205,#241,.T.);
#224=EDGE_CURVE('',#206,#206,#242,.T.);
#225=EDGE_CURVE('',#207,#207,#243,.T.);
#226=EDGE_CURVE('',#208,#208,#244,.T.);
#227=EDGE_CURVE('',#209,#209,#245,.T.);
#228=EDGE_CURVE('',#210,#210,#246,.T.);
#229=EDGE_CURVE('',#211,#211,#247,.T.);
#230=EDGE_CURVE('',#212,#212,#248,.T.);
#231=EDGE_CURVE('',#213,#213,#249,.T.);
#232=EDGE_CURVE('',#214,#214,#250,.T.);
#233=EDGE_CURVE('',#215,#215,#251,.T.);
#234=EDGE_CURVE('',#216,#216,#252,.T.);
#235=EDGE_CURVE('',#217,#217,#253,.T.);
#236=CIRCLE('',#255,6.);
#237=CIRCLE('',#256,14.5);
#238=CIRCLE('',#257,14.);
#239=CIRCLE('',#259,14.5);
#240=CIRCLE('',#261,14.3);
#241=CIRCLE('',#263,14.3);
#242=CIRCLE('',#265,15.2046106882113);
#243=CIRCLE('',#267,18.7293769533112);
#244=CIRCLE('',#269,10.687821061936);
#245=CIRCLE('',#270,9.41062103472581);
#246=CIRCLE('',#273,5.875);
#247=CIRCLE('',#275,7.875);
#248=CIRCLE('',#277,7.875);
#249=CIRCLE('',#279,8.5);
#250=CIRCLE('',#281,8.5);
#251=CIRCLE('',#283,8.30044450422656);
#252=CIRCLE('',#285,9.03529142706152);
#253=CIRCLE('',#287,9.78004267621761);
#254=AXIS2_PLACEMENT_3D('',#363,#290,#291);
#255=AXIS2_PLACEMENT_3D('',#364,#292,#293);
#256=AXIS2_PLACEMENT_3D('',#415,#294,#295);
#257=AXIS2_PLACEMENT_3D('',#417,#296,#297);
#258=AXIS2_PLACEMENT_3D('',#419,#298,#299);
#259=AXIS2_PLACEMENT_3D('',#420,#300,#301);
#260=AXIS2_PLACEMENT_3D('',#422,#302,#303);
#261=AXIS2_PLACEMENT_3D('',#423,#304,#305);
#262=AXIS2_PLACEMENT_3D('',#425,#306,#307);
#263=AXIS2_PLACEMENT_3D('',#426,#308,#309);
#264=AXIS2_PLACEMENT_3D('',#428,#310,#311);
#265=AXIS2_PLACEMENT_3D('',#429,#312,#313);
#266=AXIS2_PLACEMENT_3D('',#431,#314,#315);
#267=AXIS2_PLACEMENT_3D('',#432,#316,#317);
#268=AXIS2_PLACEMENT_3D('',#434,#318,#319);
#269=AXIS2_PLACEMENT_3D('',#435,#320,#321);
#270=AXIS2_PLACEMENT_3D('',#506,#323,#324);
#271=AXIS2_PLACEMENT_3D('',#508,#325,#326);
#272=AXIS2_PLACEMENT_3D('',#509,#327,#328);
#273=AXIS2_PLACEMENT_3D('',#510,#329,#330);
#274=AXIS2_PLACEMENT_3D('',#512,#331,#332);
#275=AXIS2_PLACEMENT_3D('',#513,#333,#334);
#276=AXIS2_PLACEMENT_3D('',#515,#335,#336);
#277=AXIS2_PLACEMENT_3D('',#516,#337,#338);
#278=AXIS2_PLACEMENT_3D('',#518,#339,#340);
#279=AXIS2_PLACEMENT_3D('',#519,#341,#342);
#280=AXIS2_PLACEMENT_3D('',#521,#343,#344);
#281=AXIS2_PLACEMENT_3D('',#522,#345,#346);
#282=AXIS2_PLACEMENT_3D('',#524,#347,#348);
#283=AXIS2_PLACEMENT_3D('',#525,#349,#350);
#284=AXIS2_PLACEMENT_3D('',#527,#351,#352);
#285=AXIS2_PLACEMENT_3D('',#528,#353,#354);
#286=AXIS2_PLACEMENT_3D('',#530,#355,#356);
#287=AXIS2_PLACEMENT_3D('',#531,#357,#358);
#288=AXIS2_PLACEMENT_3D('',#533,#359,#360);
#289=AXIS2_PLACEMENT_3D('',#534,#361,#362);
#290=DIRECTION('',(0.,0.,1.));
#291=DIRECTION('',(1.,0.,0.));
#292=DIRECTION('',(0.,0.,1.));
#293=DIRECTION('',(1.,0.,0.));
#294=DIRECTION('',(-1.,0.,0.));
#295=DIRECTION('',(0.,0.,1.));
#296=DIRECTION('',(-1.,0.,0.));
#297=DIRECTION('',(0.,0.,1.));
#298=DIRECTION('',(-1.,0.,0.));
#299=DIRECTION('',(4.10585438101019E-17,0.,1.));
#300=DIRECTION('',(-1.,0.,0.));
#301=DIRECTION('',(0.,0.,1.));
#302=DIRECTION('',(-1.,0.,0.));
#303=DIRECTION('',(0.,0.,1.));
#304=DIRECTION('',(-1.,0.,0.));
#305=DIRECTION('',(0.,0.,1.));
#306=DIRECTION('',(1.,0.,0.));
#307=DIRECTION('',(1.36794359860171E-17,0.,-1.));
#308=DIRECTION('',(-1.,0.,0.));
#309=DIRECTION('',(0.,0.,1.));
#310=DIRECTION('',(-1.,0.,0.));
#311=DIRECTION('',(0.,0.,1.));
#312=DIRECTION('',(-1.,0.,0.));
#313=DIRECTION('',(0.,0.,1.));
#314=DIRECTION('',(-1.,0.,0.));
#315=DIRECTION('',(0.,0.,1.));
#316=DIRECTION('',(-1.,0.,0.));
#317=DIRECTION('',(0.,0.,1.));
#318=DIRECTION('',(-1.,0.,0.));
#319=DIRECTION('',(-1.28099893686958E-16,0.,1.));
#320=DIRECTION('',(-1.,0.,0.));
#321=DIRECTION('',(0.,0.,1.));
#322=DIRECTION('',(-1.,0.,0.));
#323=DIRECTION('',(-1.,0.,0.));
#324=DIRECTION('',(0.,0.,1.));
#325=DIRECTION('',(-1.,0.,0.));
#326=DIRECTION('',(0.,0.,1.));
#327=DIRECTION('',(1.,0.,0.));
#328=DIRECTION('',(0.,0.,-1.));
#329=DIRECTION('',(-1.,0.,0.));
#330=DIRECTION('',(0.,0.,1.));
#331=DIRECTION('',(-1.,0.,0.));
#332=DIRECTION('',(0.,0.,1.));
#333=DIRECTION('',(-1.,0.,0.));
#334=DIRECTION('',(0.,0.,1.));
#335=DIRECTION('',(-1.,0.,0.));
#336=DIRECTION('',(5.5186928029087E-17,0.,1.));
#337=DIRECTION('',(-1.,0.,0.));
#338=DIRECTION('',(0.,0.,1.));
#339=DIRECTION('',(-1.,0.,0.));
#340=DIRECTION('',(0.,0.,1.));
#341=DIRECTION('',(-1.,0.,0.));
#342=DIRECTION('',(0.,0.,1.));
#343=DIRECTION('',(-1.,0.,0.));
#344=DIRECTION('',(7.11407480423632E-17,0.,1.));
#345=DIRECTION('',(-1.,0.,0.));
#346=DIRECTION('',(0.,0.,1.));
#347=DIRECTION('',(-1.,0.,0.));
#348=DIRECTION('',(0.,0.,1.));
#349=DIRECTION('',(-1.,0.,0.));
#350=DIRECTION('',(0.,0.,1.));
#351=DIRECTION('',(1.,0.,0.));
#352=DIRECTION('',(-2.00800554861768E-16,0.,-1.));
#353=DIRECTION('',(-1.,0.,0.));
#354=DIRECTION('',(0.,0.,1.));
#355=DIRECTION('',(-1.,0.,0.));
#356=DIRECTION('',(0.,0.,1.));
#357=DIRECTION('',(-1.,0.,0.));
#358=DIRECTION('',(0.,0.,1.));
#359=DIRECTION('',(1.,0.,0.));
#360=DIRECTION('',(-1.66930253628555E-17,0.,-1.));
#361=DIRECTION('',(-1.,0.,0.));
#362=DIRECTION('',(0.,0.,1.));
#363=CARTESIAN_POINT('',(0.,0.,0.));
#364=CARTESIAN_POINT('',(6.,-13.94629597,1.5));
#365=CARTESIAN_POINT('',(12.,-13.94629597,1.5));
#366=CARTESIAN_POINT('',(12.,-13.94629597,1.5));
#367=CARTESIAN_POINT('',(12.,-16.94629597,-26.39259194));
#368=CARTESIAN_POINT('',(12.,10.94629597,-29.39259194));
#369=CARTESIAN_POINT('',(12.,13.94629597,-1.5));
#370=CARTESIAN_POINT('',(12.,16.94629597,26.39259194));
#371=CARTESIAN_POINT('',(12.,-10.94629597,29.39259194));
#372=CARTESIAN_POINT('',(12.,-13.94629597,1.5));
#373=CARTESIAN_POINT('',(12.,-1.94629596999999,1.5));
#374=CARTESIAN_POINT('',(12.,-4.94629597,-2.39259193999999));
#375=CARTESIAN_POINT('',(12.,-1.05370403000001,-5.39259193999999));
#376=CARTESIAN_POINT('',(12.,1.94629596999999,-1.5));
#377=CARTESIAN_POINT('',(12.,4.94629597,2.39259193999999));
#378=CARTESIAN_POINT('',(12.,1.05370403000001,5.39259193999999));
#379=CARTESIAN_POINT('',(12.,-1.94629596999999,1.5));
#380=CARTESIAN_POINT('',(6.02214420988422E-16,-1.94629596999999,1.5));
#381=CARTESIAN_POINT('',(6.02214420988422E-16,-4.94629597,-2.39259193999999));
#382=CARTESIAN_POINT('',(6.02214420988422E-16,-1.05370403000001,-5.39259193999999));
#383=CARTESIAN_POINT('',(6.02214420988422E-16,1.94629596999999,-1.5));
#384=CARTESIAN_POINT('',(6.02214420988422E-16,4.94629597,2.39259193999999));
#385=CARTESIAN_POINT('',(6.02214420988422E-16,1.05370403000001,5.39259193999999));
#386=CARTESIAN_POINT('',(6.02214420988422E-16,-1.94629596999999,1.5));
#387=CARTESIAN_POINT('',(-8.67361737988404E-16,-13.94629597,1.5));
#388=CARTESIAN_POINT('',(-8.67361737988404E-16,-16.94629597,-26.39259194));
#389=CARTESIAN_POINT('',(-8.67361737988404E-16,10.94629597,-29.39259194));
#390=CARTESIAN_POINT('',(-8.67361737988404E-16,13.94629597,-1.5));
#391=CARTESIAN_POINT('',(-8.67361737988404E-16,16.94629597,26.39259194));
#392=CARTESIAN_POINT('',(-8.67361737988404E-16,-10.94629597,29.39259194));
#393=CARTESIAN_POINT('',(-8.67361737988404E-16,-13.94629597,1.5));
#394=CARTESIAN_POINT('',(-2.33693789696523E-15,-25.94629597,1.5));
#395=CARTESIAN_POINT('',(-2.33693789696523E-15,-28.9462959700001,-50.39259194));
#396=CARTESIAN_POINT('',(-2.33693789696523E-15,22.94629597,-53.3925919400001));
#397=CARTESIAN_POINT('',(-2.33693789696523E-15,25.94629597,-1.5));
#398=CARTESIAN_POINT('',(-2.33693789696523E-15,28.9462959700001,50.39259194));
#399=CARTESIAN_POINT('',(-2.33693789696523E-15,-22.94629597,53.3925919400001));
#400=CARTESIAN_POINT('',(-2.33693789696523E-15,-25.94629597,1.5));
#401=CARTESIAN_POINT('',(12.,-25.94629597,1.5));
#402=CARTESIAN_POINT('',(12.,-28.9462959700001,-50.39259194));
#403=CARTESIAN_POINT('',(12.,22.94629597,-53.3925919400001));
#404=CARTESIAN_POINT('',(12.,25.94629597,-1.5));
#405=CARTESIAN_POINT('',(12.,28.9462959700001,50.39259194));
#406=CARTESIAN_POINT('',(12.,-22.94629597,53.3925919400001));
#407=CARTESIAN_POINT('',(12.,-25.94629597,1.5));
#408=CARTESIAN_POINT('',(12.,-13.94629597,1.5));
#409=CARTESIAN_POINT('',(12.,-16.94629597,-26.39259194));
#410=CARTESIAN_POINT('',(12.,10.94629597,-29.39259194));
#411=CARTESIAN_POINT('',(12.,13.94629597,-1.5));
#412=CARTESIAN_POINT('',(12.,16.94629597,26.39259194));
#413=CARTESIAN_POINT('',(12.,-10.94629597,29.39259194));
#414=CARTESIAN_POINT('',(12.,-13.94629597,1.5));
#415=CARTESIAN_POINT('',(42.5,0.,0.));
#416=CARTESIAN_POINT('',(42.5,0.,14.5));
#417=CARTESIAN_POINT('',(43.,0.,0.));
#418=CARTESIAN_POINT('',(43.,0.,14.));
#419=CARTESIAN_POINT('',(43.,0.,0.));
#420=CARTESIAN_POINT('',(38.2,0.,0.));
#421=CARTESIAN_POINT('',(38.2,0.,14.5));
#422=CARTESIAN_POINT('',(0.,0.,0.));
#423=CARTESIAN_POINT('',(38.,0.,0.));
#424=CARTESIAN_POINT('',(38.,0.,14.3));
#425=CARTESIAN_POINT('',(38.2,0.,0.));
#426=CARTESIAN_POINT('',(22.2458629543121,0.,0.));
#427=CARTESIAN_POINT('',(22.2458629543121,0.,14.3));
#428=CARTESIAN_POINT('',(0.,0.,0.));
#429=CARTESIAN_POINT('',(17.115560804427,0.,0.));
#430=CARTESIAN_POINT('',(17.115560804427,0.,15.2046106882113));
#431=CARTESIAN_POINT('',(22.2458629543121,0.,0.));
#432=CARTESIAN_POINT('',(7.43134508219358,0.,0.));
#433=CARTESIAN_POINT('',(7.43134508219358,0.,18.7293769533112));
#434=CARTESIAN_POINT('',(17.115560804427,0.,0.));
#435=CARTESIAN_POINT('',(2.71338694995938,0.,0.));
#436=CARTESIAN_POINT('',(2.71338694995938,0.,10.687821061936));
#437=CARTESIAN_POINT('',(5.68330927128811,9.43896120831853,0.));
#438=CARTESIAN_POINT('',(6.3166907287119,9.43896120831853,0.));
#439=CARTESIAN_POINT('',(6.63034656993135,9.46869429979168,0.));
#440=CARTESIAN_POINT('',(7.25136946008535,9.58765286610299,0.));
#441=CARTESIAN_POINT('',(7.55376387773685,9.67620431563692,0.));
#442=CARTESIAN_POINT('',(8.13435518837746,9.90793190777944,0.));
#443=CARTESIAN_POINT('',(8.41629658959921,10.0529582886477,0.));
#444=CARTESIAN_POINT('',(8.94548593385475,10.3949743038033,0.));
#445=CARTESIAN_POINT('',(9.19018406632757,10.5895943813569,0.));
#446=CARTESIAN_POINT('',(9.63977595967023,11.0260720774599,0.));
#447=CARTESIAN_POINT('',(9.84567626888284,11.2703576967788,0.));
#448=CARTESIAN_POINT('',(10.1989597094595,11.7872772250601,0.));
#449=CARTESIAN_POINT('',(10.3488158719009,12.0616556659788,0.));
#450=CARTESIAN_POINT('',(10.5934864855905,12.643123877362,0.));
#451=CARTESIAN_POINT('',(10.6858283334923,12.9457660166426,0.));
#452=CARTESIAN_POINT('',(10.8075392989741,13.5584567227517,0.));
#453=CARTESIAN_POINT('',(10.8378897008326,13.8735687897918,0.));
#454=CARTESIAN_POINT('',(10.8344545610061,14.5041914355075,0.));
#455=CARTESIAN_POINT('',(10.8012787386158,14.8149258140704,0.));
#456=CARTESIAN_POINT('',(10.6739064804731,15.4275165208846,0.));
#457=CARTESIAN_POINT('',(10.5780429643791,15.7322301480688,0.));
#458=CARTESIAN_POINT('',(10.331648825787,16.3083563216085,0.));
#459=CARTESIAN_POINT('',(10.1812690387794,16.5820584566496,0.));
#460=CARTESIAN_POINT('',(9.8260060678775,17.1006679365989,0.));
#461=CARTESIAN_POINT('',(9.62109711120806,17.3441396724685,0.));
#462=CARTESIAN_POINT('',(9.17429328165756,17.7808539705329,0.));
#463=CARTESIAN_POINT('',(8.93052086703265,17.9770906448733,0.));
#464=CARTESIAN_POINT('',(8.4007989017571,18.323763533235,0.));
#465=CARTESIAN_POINT('',(8.12272342305845,18.4689288582175,0.));
#466=CARTESIAN_POINT('',(7.54395053202346,18.7039253149143,0.));
#467=CARTESIAN_POINT('',(7.23969980476074,18.7945490314456,0.));
#468=CARTESIAN_POINT('',(6.62179879150743,18.9146869604921,0.));
#469=CARTESIAN_POINT('',(6.31079231777828,18.9443932957138,0.));
#470=CARTESIAN_POINT('',(5.68473688903789,18.9441063919387,0.));
#471=CARTESIAN_POINT('',(5.36694447946143,18.9131312147132,0.));
#472=CARTESIAN_POINT('',(4.75227711013081,18.7923360570015,0.));
#473=CARTESIAN_POINT('',(4.45289686601458,18.7030242277239,0.));
#474=CARTESIAN_POINT('',(3.87028221330622,18.465703364012,0.));
#475=CARTESIAN_POINT('',(3.58901912748835,18.3176919118865,0.));
#476=CARTESIAN_POINT('',(3.06665070661809,17.9746327814971,0.));
#477=CARTESIAN_POINT('',(2.82204208792661,17.7780608359205,0.));
#478=CARTESIAN_POINT('',(2.37011541480417,17.3347398745839,0.));
#479=CARTESIAN_POINT('',(2.16933582400747,17.0945543671147,0.));
#480=CARTESIAN_POINT('',(1.81660958994439,16.5782621008174,0.));
#481=CARTESIAN_POINT('',(1.66344951613665,16.2987887674671,0.));
#482=CARTESIAN_POINT('',(1.41784607490323,15.72065354385,0.));
#483=CARTESIAN_POINT('',(1.32460018268565,15.4224104828109,0.));
#484=CARTESIAN_POINT('',(1.19760807681526,14.8074530029848,0.));
#485=CARTESIAN_POINT('',(1.16473074068907,14.4902533460354,0.));
#486=CARTESIAN_POINT('',(1.16282921091927,13.864937396024,0.));
#487=CARTESIAN_POINT('',(1.19283317011472,13.5533197850093,0.));
#488=CARTESIAN_POINT('',(1.31752266981888,12.9322584601823,0.));
#489=CARTESIAN_POINT('',(1.41028540259885,12.6327956397953,0.));
#490=CARTESIAN_POINT('',(1.59279140015285,12.2011366413852,0.));
#491=CARTESIAN_POINT('',(1.66092722732186,12.0601014583528,0.));
#492=CARTESIAN_POINT('',(1.81212782663279,11.783861472293,0.));
#493=CARTESIAN_POINT('',(1.89550215135127,11.6483746377667,0.));
#494=CARTESIAN_POINT('',(2.16242269921528,11.2599639515465,0.));
#495=CARTESIAN_POINT('',(2.3641370769776,11.0217492289292,0.));
#496=CARTESIAN_POINT('',(2.81413806123438,10.5859319610341,0.));
#497=CARTESIAN_POINT('',(3.06460245675974,10.3876837984861,0.));
#498=CARTESIAN_POINT('',(3.59063683882711,10.0492729182056,0.));
#499=CARTESIAN_POINT('',(3.86833899060526,9.90650420996096,0.));
#500=CARTESIAN_POINT('',(4.45310296168811,9.67382179747525,0.));
#501=CARTESIAN_POINT('',(4.75797470154184,9.58549830089996,0.));
#502=CARTESIAN_POINT('',(5.37163650725404,9.4686858973504,0.));
#503=CARTESIAN_POINT('',(5.68330927128811,9.43896120831853,0.));
#504=CARTESIAN_POINT('',(6.3166907287119,9.43896120831853,0.));
#505=CARTESIAN_POINT('',(0.,0.,0.));
#506=CARTESIAN_POINT('',(5.,0.,0.));
#507=CARTESIAN_POINT('',(5.,0.,9.41062103472581));
#508=CARTESIAN_POINT('',(3.5,0.,0.));
#509=CARTESIAN_POINT('',(5.,9.41062103472581,0.));
#510=CARTESIAN_POINT('',(68.,0.,0.));
#511=CARTESIAN_POINT('',(68.,0.,5.875));
#512=CARTESIAN_POINT('',(68.,0.,0.));
#513=CARTESIAN_POINT('',(66.,0.,0.));
#514=CARTESIAN_POINT('',(66.,0.,7.875));
#515=CARTESIAN_POINT('',(68.,0.,0.));
#516=CARTESIAN_POINT('',(50.0825317547305,0.,0.));
#517=CARTESIAN_POINT('',(50.0825317547305,0.,7.875));
#518=CARTESIAN_POINT('',(0.,0.,0.));
#519=CARTESIAN_POINT('',(49.,0.,0.));
#520=CARTESIAN_POINT('',(49.,0.,8.5));
#521=CARTESIAN_POINT('',(50.0825317547305,0.,0.));
#522=CARTESIAN_POINT('',(44.2800426762176,0.,0.));
#523=CARTESIAN_POINT('',(44.2800426762176,0.,8.5));
#524=CARTESIAN_POINT('',(0.,0.,0.));
#525=CARTESIAN_POINT('',(43.5352914270615,0.,0.));
#526=CARTESIAN_POINT('',(43.5352914270615,0.,8.30044450422656));
#527=CARTESIAN_POINT('',(44.2800426762176,0.,0.));
#528=CARTESIAN_POINT('',(42.8004445042265,0.,0.));
#529=CARTESIAN_POINT('',(42.8004445042265,0.,9.03529142706152));
#530=CARTESIAN_POINT('',(43.38,0.,0.));
#531=CARTESIAN_POINT('',(43.,0.,0.));
#532=CARTESIAN_POINT('',(43.,0.,9.78004267621761));
#533=CARTESIAN_POINT('',(42.8004445042265,0.,0.));
#534=CARTESIAN_POINT('',(43.,9.78004267621761,0.));
#535=MECHANICAL_DESIGN_GEOMETRIC_PRESENTATION_REPRESENTATION('',(#55,#56),
#536);
#536=(
GEOMETRIC_REPRESENTATION_CONTEXT(3)
GLOBAL_UNCERTAINTY_ASSIGNED_CONTEXT((#537))
GLOBAL_UNIT_ASSIGNED_CONTEXT((#543,#539,#538))
REPRESENTATION_CONTEXT('AEMR-RD12T3-D40-M16-L43-Z04-H',
'TOP_LEVEL_ASSEMBLY_PART')
);
#537=UNCERTAINTY_MEASURE_WITH_UNIT(LENGTH_MEASURE(2.E-5),#543,
'DISTANCE_ACCURACY_VALUE','Maximum Tolerance applied to model');
#538=(
NAMED_UNIT(*)
SI_UNIT($,.STERADIAN.)
SOLID_ANGLE_UNIT()
);
#539=(
CONVERSION_BASED_UNIT('DEGREE',#541)
NAMED_UNIT(#540)
PLANE_ANGLE_UNIT()
);
#540=DIMENSIONAL_EXPONENTS(0.,0.,0.,0.,0.,0.,0.);
#541=PLANE_ANGLE_MEASURE_WITH_UNIT(PLANE_ANGLE_MEASURE(0.0174532925),#542);
#542=(
NAMED_UNIT(*)
PLANE_ANGLE_UNIT()
SI_UNIT($,.RADIAN.)
);
#543=(
LENGTH_UNIT()
NAMED_UNIT(*)
SI_UNIT(.MILLI.,.METRE.)
);
ENDSEC;
END-ISO-10303-21;
