ISO-10303-21;
HEADER;
/* Generated by software containing ST-Developer
 * from STEP Tools, Inc. (www.steptools.com) 
 */
/* OPTION: using custom schema-name function */

FILE_DESCRIPTION(
/* description */ (''),
/* implementation_level */ '2;1');

FILE_NAME(
/* name */ 'AEMR-RD1604-D32-M16-L43-Z02-H.stp',
/* time_stamp */ '2023-10-21T11:39:08+03:00',
/* author */ (''),
/* organization */ (''),
/* preprocessor_version */ 'ST-DEVELOPER v19.4',
/* originating_system */ 'SIEMENS PLM Software NX2306.5001',
/* authorisation */ '');

FILE_SCHEMA (('AUTOMOTIVE_DESIGN { 1 0 10303 214 3 1 1 1 }'));
ENDSEC;

DATA;
#10=PROPERTY_DEFINITION_REPRESENTATION(#14,#12);
#11=PROPERTY_DEFINITION_REPRESENTATION(#15,#13);
#12=REPRESENTATION('',(#16),#540);
#13=REPRESENTATION('',(#17),#540);
#14=PROPERTY_DEFINITION('pmi validation property','',#21);
#15=PROPERTY_DEFINITION('pmi validation property','',#21);
#16=VALUE_REPRESENTATION_ITEM('number of annotations',COUNT_MEASURE(0.));
#17=VALUE_REPRESENTATION_ITEM('number of views',COUNT_MEASURE(0.));
#18=SHAPE_REPRESENTATION_RELATIONSHIP('None',
'relationship between AEMR-RD1604-D32-M16-L43-Z02-H-LIGHT_x_t_objects-
None and AEMR-RD1604-D32-M16-L43-Z02-H-LIGHT_x_t_objects-None',#30,#19);
#19=ADVANCED_BREP_SHAPE_REPRESENTATION(
'AEMR-RD1604-D32-M16-L43-Z02-H-LIGHT_x_t_objects-None',(#67,#68),#540);
#20=SHAPE_DEFINITION_REPRESENTATION(#21,#30);
#21=PRODUCT_DEFINITION_SHAPE('','',#22);
#22=PRODUCT_DEFINITION(' ','',#24,#23);
#23=PRODUCT_DEFINITION_CONTEXT('part definition',#29,'design');
#24=PRODUCT_DEFINITION_FORMATION_WITH_SPECIFIED_SOURCE(' ',' ',#26,
 .NOT_KNOWN.);
#25=PRODUCT_RELATED_PRODUCT_CATEGORY('part','',(#26));
#26=PRODUCT('AEMR-RD1604-D32-M16-L43-Z02-H-LIGHT_x_t_objects',
'AEMR-RD1604-D32-M16-L43-Z02-H-LIGHT_x_t_objects',' ',(#27));
#27=PRODUCT_CONTEXT(' ',#29,'mechanical');
#28=APPLICATION_PROTOCOL_DEFINITION('international standard',
'automotive_design',2010,#29);
#29=APPLICATION_CONTEXT(
'core data for automotive mechanical design processes');
#30=SHAPE_REPRESENTATION(
'AEMR-RD1604-D32-M16-L43-Z02-H-LIGHT_x_t_objects-None',(#232),#540);
#31=COLOUR_RGB('silver gray',0.6,0.6,0.6);
#32=SURFACE_OF_REVOLUTION('',#34,#33);
#33=AXIS1_PLACEMENT('',#522,#303);
#34=B_SPLINE_CURVE_WITH_KNOTS('',3,(#434,#435,#436,#437,#438,#439,#440,
#441,#442,#443,#444,#445,#446,#447,#448,#449,#450,#451,#452,#453,#454,#455,
#456,#457,#458,#459,#460,#461,#462,#463,#464,#465,#466,#467,#468,#469,#470,
#471,#472,#473,#474,#475,#476,#477,#478,#479,#480,#481,#482,#483,#484,#485,
#486,#487,#488,#489,#490,#491,#492,#493,#494,#495,#496,#497,#498,#499,#500,
#501,#502,#503,#504,#505,#506,#507,#508,#509,#510,#511,#512,#513,#514,#515,
#516,#517,#518,#519,#520,#521),.UNSPECIFIED.,.T.,.F.,(2,2,2,2,2,2,2,2,2,
2,2,2,2,2,2,2,2,2,2,2,2,2,2,2,2,2,2,2,2,2,2,2,2,2,2,2,2,2,2,2,2,2,2,2,2,
2),(-0.03125,0.,0.015625,0.03125,0.0625,0.09375,0.109375,0.125,0.140625,
0.15625,0.1875,0.203125,0.21875,0.25,0.265625,0.28125,0.296875,0.3125,0.34375,
0.359375,0.375,0.40625,0.4375,0.46875,0.5,0.53125,0.546875,0.5625,0.59375,
0.625,0.640625,0.65625,0.6875,0.71875,0.75,0.78125,0.796875,0.8125,0.84375,
0.859375,0.875,0.90625,0.9375,0.96875,1.,1.015625),.UNSPECIFIED.);
#35=PLANE('',#248);
#36=PLANE('',#250);
#37=PLANE('',#261);
#38=FACE_OUTER_BOUND('',#136,.T.);
#39=FACE_OUTER_BOUND('',#137,.T.);
#40=CYLINDRICAL_SURFACE('',#241,8.5);
#41=CYLINDRICAL_SURFACE('',#245,7.875);
#42=CYLINDRICAL_SURFACE('',#253,14.3);
#43=CYLINDRICAL_SURFACE('',#257,14.5);
#44=CONICAL_SURFACE('',#239,8.5,15.);
#45=CONICAL_SURFACE('',#243,7.875,30.);
#46=CONICAL_SURFACE('',#247,5.875,45.0000000000002);
#47=CONICAL_SURFACE('',#255,14.5,29.9999999999999);
#48=CONICAL_SURFACE('',#259,14.,44.9999999999999);
#49=CONICAL_SURFACE('',#262,9.03529142706151,75.);
#50=TOROIDAL_SURFACE('',#237,8.88,0.6);
#51=PRESENTATION_LAYER_ASSIGNMENT('1','Layer 1',(#67,#68));
#52=STYLED_ITEM('',(#54),#67);
#53=STYLED_ITEM('',(#55),#68);
#54=PRESENTATION_STYLE_ASSIGNMENT((#56));
#55=PRESENTATION_STYLE_ASSIGNMENT((#57));
#56=SURFACE_STYLE_USAGE(.BOTH.,#58);
#57=SURFACE_STYLE_USAGE(.BOTH.,#59);
#58=SURFACE_SIDE_STYLE('',(#60));
#59=SURFACE_SIDE_STYLE('',(#61));
#60=SURFACE_STYLE_FILL_AREA(#62);
#61=SURFACE_STYLE_FILL_AREA(#63);
#62=FILL_AREA_STYLE('',(#64));
#63=FILL_AREA_STYLE('',(#65));
#64=FILL_AREA_STYLE_COLOUR('',#66);
#65=FILL_AREA_STYLE_COLOUR('',#31);
#66=DRAUGHTING_PRE_DEFINED_COLOUR('yellow');
#67=MANIFOLD_SOLID_BREP('',#69);
#68=MANIFOLD_SOLID_BREP('',#70);
#69=CLOSED_SHELL('',(#71,#72));
#70=CLOSED_SHELL('',(#73,#74,#75,#76,#77,#78,#79,#80,#81,#82,#83,#84,#85,
#86,#87));
#71=ADVANCED_FACE('',(#90,#91),#88,.F.);
#72=ADVANCED_FACE('',(#92,#93),#89,.F.);
#73=ADVANCED_FACE('',(#94,#95),#50,.F.);
#74=ADVANCED_FACE('',(#96,#97),#44,.T.);
#75=ADVANCED_FACE('',(#98,#99),#40,.T.);
#76=ADVANCED_FACE('',(#100,#101),#45,.T.);
#77=ADVANCED_FACE('',(#102,#103),#41,.T.);
#78=ADVANCED_FACE('',(#104,#105),#46,.T.);
#79=ADVANCED_FACE('',(#38),#35,.F.);
#80=ADVANCED_FACE('',(#39),#36,.F.);
#81=ADVANCED_FACE('',(#106,#107),#32,.T.);
#82=ADVANCED_FACE('',(#108,#109),#42,.T.);
#83=ADVANCED_FACE('',(#110,#111),#47,.T.);
#84=ADVANCED_FACE('',(#112,#113),#43,.T.);
#85=ADVANCED_FACE('',(#114,#115),#48,.T.);
#86=ADVANCED_FACE('',(#116,#117),#37,.F.);
#87=ADVANCED_FACE('',(#118,#119),#49,.F.);
#88=(
BOUNDED_SURFACE()
B_SPLINE_SURFACE(3,3,((#331,#332,#333,#334,#335,#336,#337),(#338,#339,#340,
#341,#342,#343,#344),(#345,#346,#347,#348,#349,#350,#351),(#352,#353,#354,
#355,#356,#357,#358),(#359,#360,#361,#362,#363,#364,#365),(#366,#367,#368,
#369,#370,#371,#372),(#373,#374,#375,#376,#377,#378,#379)),
 .UNSPECIFIED.,.T.,.F.,.F.)
B_SPLINE_SURFACE_WITH_KNOTS((1,3,3,3,1),(4,3,4),(-0.5,0.,0.5,1.,1.5),(0.,
0.5,1.),.UNSPECIFIED.)
GEOMETRIC_REPRESENTATION_ITEM()
RATIONAL_B_SPLINE_SURFACE(((1.,0.572187935090702,0.572187935090702,1.,0.572187935090702,
0.572187935090702,1.),(0.333333333333334,0.190729311696901,0.190729311696901,
0.333333333333334,0.190729311696901,0.190729311696901,0.333333333333334),
(0.333333333333334,0.190729311696901,0.190729311696901,0.333333333333334,
0.190729311696901,0.190729311696901,0.333333333333334),(1.,0.572187935090702,
0.572187935090702,1.,0.572187935090702,0.572187935090702,1.),(0.333333333333334,
0.190729311696901,0.190729311696901,0.333333333333334,0.190729311696901,
0.190729311696901,0.333333333333334),(0.333333333333334,0.190729311696901,
0.190729311696901,0.333333333333334,0.190729311696901,0.190729311696901,
0.333333333333334),(1.,0.572187935090702,0.572187935090702,1.,0.572187935090702,
0.572187935090702,1.)))
REPRESENTATION_ITEM('')
SURFACE()
);
#89=(
BOUNDED_SURFACE()
B_SPLINE_SURFACE(3,3,((#380,#381,#382,#383),(#384,#385,#386,#387),(#388,
#389,#390,#391),(#392,#393,#394,#395),(#396,#397,#398,#399),(#400,#401,
#402,#403),(#404,#405,#406,#407)),.UNSPECIFIED.,.T.,.F.,.F.)
B_SPLINE_SURFACE_WITH_KNOTS((1,3,3,3,1),(4,4),(-0.5,0.,0.5,1.,1.5),(0.,
1.),.UNSPECIFIED.)
GEOMETRIC_REPRESENTATION_ITEM()
RATIONAL_B_SPLINE_SURFACE(((1.,0.828845437657986,0.828845437657986,1.),
(0.333333333333334,0.276281812552662,0.276281812552662,0.333333333333334),
(0.333333333333334,0.276281812552662,0.276281812552662,0.333333333333334),
(1.,0.828845437657986,0.828845437657986,1.),(0.333333333333334,0.276281812552662,
0.276281812552662,0.333333333333334),(0.333333333333334,0.276281812552662,
0.276281812552662,0.333333333333334),(1.,0.828845437657986,0.828845437657986,
1.)))
REPRESENTATION_ITEM('')
SURFACE()
);
#90=FACE_BOUND('',#120,.T.);
#91=FACE_BOUND('',#121,.T.);
#92=FACE_BOUND('',#122,.T.);
#93=FACE_BOUND('',#123,.T.);
#94=FACE_BOUND('',#124,.T.);
#95=FACE_BOUND('',#125,.T.);
#96=FACE_BOUND('',#126,.T.);
#97=FACE_BOUND('',#127,.T.);
#98=FACE_BOUND('',#128,.T.);
#99=FACE_BOUND('',#129,.T.);
#100=FACE_BOUND('',#130,.T.);
#101=FACE_BOUND('',#131,.T.);
#102=FACE_BOUND('',#132,.T.);
#103=FACE_BOUND('',#133,.T.);
#104=FACE_BOUND('',#134,.T.);
#105=FACE_BOUND('',#135,.T.);
#106=FACE_BOUND('',#138,.T.);
#107=FACE_BOUND('',#139,.T.);
#108=FACE_BOUND('',#140,.T.);
#109=FACE_BOUND('',#141,.T.);
#110=FACE_BOUND('',#142,.T.);
#111=FACE_BOUND('',#143,.T.);
#112=FACE_BOUND('',#144,.T.);
#113=FACE_BOUND('',#145,.T.);
#114=FACE_BOUND('',#146,.T.);
#115=FACE_BOUND('',#147,.T.);
#116=FACE_BOUND('',#148,.T.);
#117=FACE_BOUND('',#149,.T.);
#118=FACE_BOUND('',#150,.T.);
#119=FACE_BOUND('',#151,.T.);
#120=EDGE_LOOP('',(#152));
#121=EDGE_LOOP('',(#153));
#122=EDGE_LOOP('',(#154));
#123=EDGE_LOOP('',(#155));
#124=EDGE_LOOP('',(#156));
#125=EDGE_LOOP('',(#157));
#126=EDGE_LOOP('',(#158));
#127=EDGE_LOOP('',(#159));
#128=EDGE_LOOP('',(#160));
#129=EDGE_LOOP('',(#161));
#130=EDGE_LOOP('',(#162));
#131=EDGE_LOOP('',(#163));
#132=EDGE_LOOP('',(#164));
#133=EDGE_LOOP('',(#165));
#134=EDGE_LOOP('',(#166));
#135=EDGE_LOOP('',(#167));
#136=EDGE_LOOP('',(#168));
#137=EDGE_LOOP('',(#169));
#138=EDGE_LOOP('',(#170));
#139=EDGE_LOOP('',(#171));
#140=EDGE_LOOP('',(#172));
#141=EDGE_LOOP('',(#173));
#142=EDGE_LOOP('',(#174));
#143=EDGE_LOOP('',(#175));
#144=EDGE_LOOP('',(#176));
#145=EDGE_LOOP('',(#177));
#146=EDGE_LOOP('',(#178));
#147=EDGE_LOOP('',(#179));
#148=EDGE_LOOP('',(#180));
#149=EDGE_LOOP('',(#181));
#150=EDGE_LOOP('',(#182));
#151=EDGE_LOOP('',(#183));
#152=ORIENTED_EDGE('',*,*,#200,.T.);
#153=ORIENTED_EDGE('',*,*,#201,.T.);
#154=ORIENTED_EDGE('',*,*,#201,.F.);
#155=ORIENTED_EDGE('',*,*,#200,.F.);
#156=ORIENTED_EDGE('',*,*,#202,.F.);
#157=ORIENTED_EDGE('',*,*,#203,.T.);
#158=ORIENTED_EDGE('',*,*,#203,.F.);
#159=ORIENTED_EDGE('',*,*,#204,.T.);
#160=ORIENTED_EDGE('',*,*,#204,.F.);
#161=ORIENTED_EDGE('',*,*,#205,.T.);
#162=ORIENTED_EDGE('',*,*,#205,.F.);
#163=ORIENTED_EDGE('',*,*,#206,.T.);
#164=ORIENTED_EDGE('',*,*,#206,.F.);
#165=ORIENTED_EDGE('',*,*,#207,.T.);
#166=ORIENTED_EDGE('',*,*,#207,.F.);
#167=ORIENTED_EDGE('',*,*,#208,.T.);
#168=ORIENTED_EDGE('',*,*,#208,.F.);
#169=ORIENTED_EDGE('',*,*,#209,.T.);
#170=ORIENTED_EDGE('',*,*,#209,.F.);
#171=ORIENTED_EDGE('',*,*,#210,.T.);
#172=ORIENTED_EDGE('',*,*,#210,.F.);
#173=ORIENTED_EDGE('',*,*,#211,.T.);
#174=ORIENTED_EDGE('',*,*,#211,.F.);
#175=ORIENTED_EDGE('',*,*,#212,.T.);
#176=ORIENTED_EDGE('',*,*,#212,.F.);
#177=ORIENTED_EDGE('',*,*,#213,.T.);
#178=ORIENTED_EDGE('',*,*,#213,.F.);
#179=ORIENTED_EDGE('',*,*,#214,.T.);
#180=ORIENTED_EDGE('',*,*,#214,.F.);
#181=ORIENTED_EDGE('',*,*,#215,.T.);
#182=ORIENTED_EDGE('',*,*,#215,.F.);
#183=ORIENTED_EDGE('',*,*,#202,.T.);
#184=VERTEX_POINT('',#328);
#185=VERTEX_POINT('',#330);
#186=VERTEX_POINT('',#409);
#187=VERTEX_POINT('',#411);
#188=VERTEX_POINT('',#414);
#189=VERTEX_POINT('',#417);
#190=VERTEX_POINT('',#420);
#191=VERTEX_POINT('',#423);
#192=VERTEX_POINT('',#426);
#193=VERTEX_POINT('',#430);
#194=VERTEX_POINT('',#433);
#195=VERTEX_POINT('',#524);
#196=VERTEX_POINT('',#527);
#197=VERTEX_POINT('',#530);
#198=VERTEX_POINT('',#533);
#199=VERTEX_POINT('',#536);
#200=EDGE_CURVE('',#184,#184,#216,.T.);
#201=EDGE_CURVE('',#185,#185,#217,.T.);
#202=EDGE_CURVE('',#186,#186,#218,.T.);
#203=EDGE_CURVE('',#187,#187,#219,.T.);
#204=EDGE_CURVE('',#188,#188,#220,.T.);
#205=EDGE_CURVE('',#189,#189,#221,.T.);
#206=EDGE_CURVE('',#190,#190,#222,.T.);
#207=EDGE_CURVE('',#191,#191,#223,.T.);
#208=EDGE_CURVE('',#192,#192,#224,.T.);
#209=EDGE_CURVE('',#193,#193,#225,.T.);
#210=EDGE_CURVE('',#194,#194,#226,.T.);
#211=EDGE_CURVE('',#195,#195,#227,.T.);
#212=EDGE_CURVE('',#196,#196,#228,.T.);
#213=EDGE_CURVE('',#197,#197,#229,.T.);
#214=EDGE_CURVE('',#198,#198,#230,.T.);
#215=EDGE_CURVE('',#199,#199,#231,.T.);
#216=CIRCLE('',#233,8.);
#217=CIRCLE('',#234,8.);
#218=CIRCLE('',#235,9.03529142706151);
#219=CIRCLE('',#236,8.30044450422656);
#220=CIRCLE('',#238,8.5);
#221=CIRCLE('',#240,8.5);
#222=CIRCLE('',#242,7.875);
#223=CIRCLE('',#244,7.875);
#224=CIRCLE('',#246,5.875);
#225=CIRCLE('',#249,6.07162100358188);
#226=CIRCLE('',#251,14.2999999999998);
#227=CIRCLE('',#252,14.3);
#228=CIRCLE('',#254,14.5);
#229=CIRCLE('',#256,14.5);
#230=CIRCLE('',#258,14.);
#231=CIRCLE('',#260,9.78004267621761);
#232=AXIS2_PLACEMENT_3D('',#326,#263,#264);
#233=AXIS2_PLACEMENT_3D('',#327,#265,#266);
#234=AXIS2_PLACEMENT_3D('',#329,#267,#268);
#235=AXIS2_PLACEMENT_3D('',#408,#269,#270);
#236=AXIS2_PLACEMENT_3D('',#410,#271,#272);
#237=AXIS2_PLACEMENT_3D('',#412,#273,#274);
#238=AXIS2_PLACEMENT_3D('',#413,#275,#276);
#239=AXIS2_PLACEMENT_3D('',#415,#277,#278);
#240=AXIS2_PLACEMENT_3D('',#416,#279,#280);
#241=AXIS2_PLACEMENT_3D('',#418,#281,#282);
#242=AXIS2_PLACEMENT_3D('',#419,#283,#284);
#243=AXIS2_PLACEMENT_3D('',#421,#285,#286);
#244=AXIS2_PLACEMENT_3D('',#422,#287,#288);
#245=AXIS2_PLACEMENT_3D('',#424,#289,#290);
#246=AXIS2_PLACEMENT_3D('',#425,#291,#292);
#247=AXIS2_PLACEMENT_3D('',#427,#293,#294);
#248=AXIS2_PLACEMENT_3D('',#428,#295,#296);
#249=AXIS2_PLACEMENT_3D('',#429,#297,#298);
#250=AXIS2_PLACEMENT_3D('',#431,#299,#300);
#251=AXIS2_PLACEMENT_3D('',#432,#301,#302);
#252=AXIS2_PLACEMENT_3D('',#523,#304,#305);
#253=AXIS2_PLACEMENT_3D('',#525,#306,#307);
#254=AXIS2_PLACEMENT_3D('',#526,#308,#309);
#255=AXIS2_PLACEMENT_3D('',#528,#310,#311);
#256=AXIS2_PLACEMENT_3D('',#529,#312,#313);
#257=AXIS2_PLACEMENT_3D('',#531,#314,#315);
#258=AXIS2_PLACEMENT_3D('',#532,#316,#317);
#259=AXIS2_PLACEMENT_3D('',#534,#318,#319);
#260=AXIS2_PLACEMENT_3D('',#535,#320,#321);
#261=AXIS2_PLACEMENT_3D('',#537,#322,#323);
#262=AXIS2_PLACEMENT_3D('',#538,#324,#325);
#263=DIRECTION('',(0.,0.,1.));
#264=DIRECTION('',(1.,0.,0.));
#265=DIRECTION('',(0.,0.994483291447898,0.104895104895105));
#266=DIRECTION('',(1.,0.,0.));
#267=DIRECTION('',(0.,0.,-1.));
#268=DIRECTION('',(1.,0.,0.));
#269=DIRECTION('',(-1.,0.,0.));
#270=DIRECTION('',(0.,0.,1.));
#271=DIRECTION('',(-1.,0.,0.));
#272=DIRECTION('',(0.,0.,1.));
#273=DIRECTION('',(-1.,0.,0.));
#274=DIRECTION('',(0.,0.,1.));
#275=DIRECTION('',(-1.,0.,0.));
#276=DIRECTION('',(0.,0.,1.));
#277=DIRECTION('',(1.,0.,0.));
#278=DIRECTION('',(-2.0080055486177E-16,0.,-1.));
#279=DIRECTION('',(-1.,0.,0.));
#280=DIRECTION('',(0.,0.,1.));
#281=DIRECTION('',(-1.,0.,0.));
#282=DIRECTION('',(0.,0.,1.));
#283=DIRECTION('',(-1.,0.,0.));
#284=DIRECTION('',(0.,0.,1.));
#285=DIRECTION('',(-1.,0.,0.));
#286=DIRECTION('',(7.11407480423632E-17,0.,1.));
#287=DIRECTION('',(-1.,0.,0.));
#288=DIRECTION('',(0.,0.,1.));
#289=DIRECTION('',(-1.,0.,0.));
#290=DIRECTION('',(0.,0.,1.));
#291=DIRECTION('',(-1.,0.,0.));
#292=DIRECTION('',(0.,0.,1.));
#293=DIRECTION('',(-1.,0.,0.));
#294=DIRECTION('',(5.51869280290865E-17,0.,1.));
#295=DIRECTION('',(-1.,0.,0.));
#296=DIRECTION('',(0.,0.,1.));
#297=DIRECTION('',(-1.,0.,0.));
#298=DIRECTION('',(0.,0.,1.));
#299=DIRECTION('',(1.,0.,0.));
#300=DIRECTION('',(0.,0.,-1.));
#301=DIRECTION('',(-1.,0.,0.));
#302=DIRECTION('',(0.,0.,1.));
#303=DIRECTION('',(-1.,0.,0.));
#304=DIRECTION('',(-1.,0.,0.));
#305=DIRECTION('',(0.,0.,1.));
#306=DIRECTION('',(-1.,0.,0.));
#307=DIRECTION('',(0.,0.,1.));
#308=DIRECTION('',(-1.,0.,0.));
#309=DIRECTION('',(0.,0.,1.));
#310=DIRECTION('',(1.,0.,0.));
#311=DIRECTION('',(9.37925588971431E-17,0.,-1.));
#312=DIRECTION('',(-1.,0.,0.));
#313=DIRECTION('',(0.,0.,1.));
#314=DIRECTION('',(-1.,0.,0.));
#315=DIRECTION('',(0.,0.,1.));
#316=DIRECTION('',(-1.,0.,0.));
#317=DIRECTION('',(0.,0.,1.));
#318=DIRECTION('',(-1.,0.,0.));
#319=DIRECTION('',(4.10585438101021E-17,0.,1.));
#320=DIRECTION('',(-1.,0.,0.));
#321=DIRECTION('',(0.,0.,1.));
#322=DIRECTION('',(-1.,0.,0.));
#323=DIRECTION('',(0.,0.,1.));
#324=DIRECTION('',(1.,0.,0.));
#325=DIRECTION('',(-1.66930253628555E-17,0.,-1.));
#326=CARTESIAN_POINT('',(0.,0.,0.));
#327=CARTESIAN_POINT('',(8.,0.659955812696323,8.04313005857874));
#328=CARTESIAN_POINT('',(16.,0.659955812696323,8.04313005857874));
#329=CARTESIAN_POINT('',(8.,-7.92953232,1.5));
#330=CARTESIAN_POINT('',(16.,-7.92953232,1.5));
#331=CARTESIAN_POINT('',(16.,-7.92953232,1.5));
#332=CARTESIAN_POINT('',(16.,-9.56118757696279,-7.12550873012284));
#333=CARTESIAN_POINT('',(16.,-2.09288914383251,-11.7392077065087));
#334=CARTESIAN_POINT('',(16.,4.89027845728181,-6.41970867128486));
#335=CARTESIAN_POINT('',(16.,11.8734460583961,-1.10020963606107));
#336=CARTESIAN_POINT('',(16.,9.40903277437323,7.32524981114602));
#337=CARTESIAN_POINT('',(16.,0.659955812696322,8.04313005857875));
#338=CARTESIAN_POINT('',(16.,8.07046768,1.5));
#339=CARTESIAN_POINT('',(16.,6.43881242303721,10.2788140108134));
#340=CARTESIAN_POINT('',(16.,-2.34179898227002,11.9007689001422));
#341=CARTESIAN_POINT('',(16.,-7.00201204650985,4.2841890568059));
#342=CARTESIAN_POINT('',(16.,-11.6622251107497,-3.33239078653044));
#343=CARTESIAN_POINT('',(16.,-6.22095371213294,-10.4121111115591));
#344=CARTESIAN_POINT('',(16.,2.338277491018,-7.86860260458762));
#345=CARTESIAN_POINT('',(2.24711402658958E-16,8.07046768,1.5));
#346=CARTESIAN_POINT('',(2.24711402658958E-16,6.43881242303722,10.2788140108135));
#347=CARTESIAN_POINT('',(2.24711402658958E-16,-2.34179898227002,11.9007689001422));
#348=CARTESIAN_POINT('',(2.24711402658958E-16,-7.00201204650985,4.2841890568059));
#349=CARTESIAN_POINT('',(2.24711402658958E-16,-11.6622251107497,-3.33239078653044));
#350=CARTESIAN_POINT('',(2.24711402658958E-16,-6.22095371213294,-10.4121111115591));
#351=CARTESIAN_POINT('',(2.24711402658958E-16,2.338277491018,-7.86860260458763));
#352=CARTESIAN_POINT('',(-1.7347234759768E-15,-7.92953232,1.5));
#353=CARTESIAN_POINT('',(-1.73472347597681E-15,-9.56118757696279,-7.12550873012284));
#354=CARTESIAN_POINT('',(-1.73472347597681E-15,-2.09288914383251,-11.7392077065087));
#355=CARTESIAN_POINT('',(-1.7347234759768E-15,4.89027845728181,-6.41970867128486));
#356=CARTESIAN_POINT('',(-1.73472347597681E-15,11.8734460583961,-1.10020963606107));
#357=CARTESIAN_POINT('',(-1.73472347597681E-15,9.40903277437323,7.32524981114602));
#358=CARTESIAN_POINT('',(-1.7347234759768E-15,0.659955812696322,8.04313005857875));
#359=CARTESIAN_POINT('',(-3.69415835461257E-15,-23.92953232,1.5));
#360=CARTESIAN_POINT('',(-3.69415835461257E-15,-25.5611875769627,-24.5298314710591));
#361=CARTESIAN_POINT('',(-3.69415835461257E-15,-1.843979305395,-35.3791843131595));
#362=CARTESIAN_POINT('',(-3.69415835461257E-15,16.7825689610735,-17.1236063993756));
#363=CARTESIAN_POINT('',(-3.69415835461257E-15,35.4091172275419,1.13197151440831));
#364=CARTESIAN_POINT('',(-3.69415835461257E-15,25.0390192608794,25.0626107338511));
#365=CARTESIAN_POINT('',(-3.69415835461257E-15,-1.01836586562536,23.9548627217451));
#366=CARTESIAN_POINT('',(16.,-23.92953232,1.5));
#367=CARTESIAN_POINT('',(16.,-25.5611875769627,-24.5298314710591));
#368=CARTESIAN_POINT('',(16.,-1.843979305395,-35.3791843131595));
#369=CARTESIAN_POINT('',(16.,16.7825689610735,-17.1236063993756));
#370=CARTESIAN_POINT('',(16.,35.4091172275419,1.13197151440831));
#371=CARTESIAN_POINT('',(16.,25.0390192608794,25.0626107338511));
#372=CARTESIAN_POINT('',(16.,-1.01836586562536,23.9548627217451));
#373=CARTESIAN_POINT('',(16.,-7.92953232,1.5));
#374=CARTESIAN_POINT('',(16.,-9.56118757696279,-7.12550873012284));
#375=CARTESIAN_POINT('',(16.,-2.09288914383251,-11.7392077065087));
#376=CARTESIAN_POINT('',(16.,4.89027845728181,-6.41970867128486));
#377=CARTESIAN_POINT('',(16.,11.8734460583961,-1.10020963606107));
#378=CARTESIAN_POINT('',(16.,9.40903277437323,7.32524981114602));
#379=CARTESIAN_POINT('',(16.,0.659955812696322,8.04313005857875));
#380=CARTESIAN_POINT('',(16.,0.659955812696323,8.04313005857874));
#381=CARTESIAN_POINT('',(16.,-3.66799433182572,8.39824751088087));
#382=CARTESIAN_POINT('',(16.,-7.12239316279355,5.76682402253738));
#383=CARTESIAN_POINT('',(16.,-7.92953232,1.5));
#384=CARTESIAN_POINT('',(16.,2.338277491018,-7.86860260458762));
#385=CARTESIAN_POINT('',(16.,6.57231567412418,-6.61039238897759));
#386=CARTESIAN_POINT('',(16.,8.87760683720644,-2.84266032099803));
#387=CARTESIAN_POINT('',(16.,8.07046768,1.5));
#388=CARTESIAN_POINT('',(2.24711402658958E-16,2.338277491018,-7.86860260458762));
#389=CARTESIAN_POINT('',(2.24711402658958E-16,6.57231567412418,-6.61039238897759));
#390=CARTESIAN_POINT('',(2.24711402658958E-16,8.87760683720646,-2.84266032099803));
#391=CARTESIAN_POINT('',(2.24711402658958E-16,8.07046768,1.5));
#392=CARTESIAN_POINT('',(-1.7347234759768E-15,0.659955812696323,8.04313005857874));
#393=CARTESIAN_POINT('',(-1.73472347597681E-15,-3.66799433182571,8.39824751088087));
#394=CARTESIAN_POINT('',(-1.73472347597681E-15,-7.12239316279355,5.76682402253737));
#395=CARTESIAN_POINT('',(-1.7347234759768E-15,-7.92953232,1.5));
#396=CARTESIAN_POINT('',(-3.69415835461257E-15,-1.01836586562535,23.9548627217451));
#397=CARTESIAN_POINT('',(-3.69415835461257E-15,-13.9083043377756,23.4068874107393));
#398=CARTESIAN_POINT('',(-3.69415835461257E-15,-23.1223931627935,14.3763083660728));
#399=CARTESIAN_POINT('',(-3.69415835461257E-15,-23.92953232,1.5));
#400=CARTESIAN_POINT('',(16.,-1.01836586562535,23.9548627217451));
#401=CARTESIAN_POINT('',(16.,-13.9083043377756,23.4068874107393));
#402=CARTESIAN_POINT('',(16.,-23.1223931627936,14.3763083660728));
#403=CARTESIAN_POINT('',(16.,-23.92953232,1.5));
#404=CARTESIAN_POINT('',(16.,0.659955812696323,8.04313005857874));
#405=CARTESIAN_POINT('',(16.,-3.66799433182572,8.39824751088087));
#406=CARTESIAN_POINT('',(16.,-7.12239316279355,5.76682402253738));
#407=CARTESIAN_POINT('',(16.,-7.92953232,1.5));
#408=CARTESIAN_POINT('',(42.8004445042265,0.,0.));
#409=CARTESIAN_POINT('',(42.8004445042265,0.,9.03529142706151));
#410=CARTESIAN_POINT('',(43.5352914270615,0.,0.));
#411=CARTESIAN_POINT('',(43.5352914270615,0.,8.30044450422656));
#412=CARTESIAN_POINT('',(43.38,0.,0.));
#413=CARTESIAN_POINT('',(44.2800426762176,0.,0.));
#414=CARTESIAN_POINT('',(44.2800426762176,0.,8.5));
#415=CARTESIAN_POINT('',(44.2800426762176,0.,0.));
#416=CARTESIAN_POINT('',(49.,0.,0.));
#417=CARTESIAN_POINT('',(49.,0.,8.5));
#418=CARTESIAN_POINT('',(0.,0.,0.));
#419=CARTESIAN_POINT('',(50.0825317547305,0.,0.));
#420=CARTESIAN_POINT('',(50.0825317547305,0.,7.875));
#421=CARTESIAN_POINT('',(50.0825317547305,0.,0.));
#422=CARTESIAN_POINT('',(66.,0.,0.));
#423=CARTESIAN_POINT('',(66.,0.,7.875));
#424=CARTESIAN_POINT('',(0.,0.,0.));
#425=CARTESIAN_POINT('',(68.,0.,0.));
#426=CARTESIAN_POINT('',(68.,0.,5.875));
#427=CARTESIAN_POINT('',(68.,0.,0.));
#428=CARTESIAN_POINT('',(68.,0.,0.));
#429=CARTESIAN_POINT('',(2.,0.,0.));
#430=CARTESIAN_POINT('',(2.,0.,6.07162100358188));
#431=CARTESIAN_POINT('',(2.,6.07162100358188,0.));
#432=CARTESIAN_POINT('',(10.820632161258,0.,0.));
#433=CARTESIAN_POINT('',(10.820632161258,0.,14.2999999999998));
#434=CARTESIAN_POINT('',(7.59175830422895,3.51148799558805,0.));
#435=CARTESIAN_POINT('',(8.20412084788553,3.51148799558805,0.));
#436=CARTESIAN_POINT('',(8.41137304523653,3.5150121908598,0.));
#437=CARTESIAN_POINT('',(8.82179051920635,3.52953973839882,0.));
#438=CARTESIAN_POINT('',(9.02667450772152,3.54054297350973,0.));
#439=CARTESIAN_POINT('',(9.64016796164355,3.58689287851477,0.));
#440=CARTESIAN_POINT('',(10.0476656239292,3.63504190216315,0.));
#441=CARTESIAN_POINT('',(10.8576139979188,3.78945531674081,0.));
#442=CARTESIAN_POINT('',(11.2550376044779,3.89544074530269,0.));
#443=CARTESIAN_POINT('',(11.8264665834265,4.11740265818008,0.));
#444=CARTESIAN_POINT('',(12.0131205670201,4.20197897053459,0.));
#445=CARTESIAN_POINT('',(12.3773513639934,4.39627801343574,0.));
#446=CARTESIAN_POINT('',(12.553848484085,4.50571150448542,0.));
#447=CARTESIAN_POINT('',(12.886050004276,4.74500527136505,0.));
#448=CARTESIAN_POINT('',(13.043061768083,4.875503535574,0.));
#449=CARTESIAN_POINT('',(13.3384857467089,5.15870612303234,0.));
#450=CARTESIAN_POINT('',(13.4778597955743,5.31265609211743,0.));
#451=CARTESIAN_POINT('',(13.8600121091319,5.80007938221873,0.));
#452=CARTESIAN_POINT('',(14.0636795435604,6.15228594372686,0.));
#453=CARTESIAN_POINT('',(14.3016417744987,6.7166217709227,0.));
#454=CARTESIAN_POINT('',(14.3698987780514,6.91208480582008,0.));
#455=CARTESIAN_POINT('',(14.4818735037729,7.30921107874552,0.));
#456=CARTESIAN_POINT('',(14.5252819407008,7.50907630070441,0.));
#457=CARTESIAN_POINT('',(14.6209523545068,8.11224885624694,0.));
#458=CARTESIAN_POINT('',(14.6390854457922,8.5190889816737,0.));
#459=CARTESIAN_POINT('',(14.6005350831912,9.13615516590742,0.));
#460=CARTESIAN_POINT('',(14.5765820262728,9.34145370670808,0.));
#461=CARTESIAN_POINT('',(14.5084771526308,9.74439396286198,0.));
#462=CARTESIAN_POINT('',(14.4642632383276,9.94311813430191,0.));
#463=CARTESIAN_POINT('',(14.3562842280209,10.3352831217597,0.));
#464=CARTESIAN_POINT('',(14.2925157453212,10.5287230225837,0.));
#465=CARTESIAN_POINT('',(14.1455058792437,10.910340622849,0.));
#466=CARTESIAN_POINT('',(14.0617367810312,11.0995190784805,0.));
#467=CARTESIAN_POINT('',(13.7844795133765,11.6510862525427,0.));
#468=CARTESIAN_POINT('',(13.566924981254,11.9956118080951,0.));
#469=CARTESIAN_POINT('',(13.1942562083243,12.4795613909068,0.));
#470=CARTESIAN_POINT('',(13.0622493491194,12.6353614881123,0.));
#471=CARTESIAN_POINT('',(12.7824353173287,12.9357640902757,0.));
#472=CARTESIAN_POINT('',(12.6341691737984,13.0806359533574,0.));
#473=CARTESIAN_POINT('',(12.1750007818232,13.4893306497787,0.));
#474=CARTESIAN_POINT('',(11.8471532848347,13.7306695399832,0.));
#475=CARTESIAN_POINT('',(11.1491032648644,14.1526961249964,0.));
#476=CARTESIAN_POINT('',(10.7749615061462,14.3344272366786,0.));
#477=CARTESIAN_POINT('',(10.0101109719233,14.6230497556422,0.));
#478=CARTESIAN_POINT('',(9.61783892010498,14.7317348021245,0.));
#479=CARTESIAN_POINT('',(8.81369179298874,14.8781800692992,0.));
#480=CARTESIAN_POINT('',(8.39944393706431,14.915243461142,0.));
#481=CARTESIAN_POINT('',(7.58338558978921,14.9142114452688,0.));
#482=CARTESIAN_POINT('',(7.17779505375915,14.8772195393199,0.));
#483=CARTESIAN_POINT('',(6.57312151103099,14.7662055682853,0.));
#484=CARTESIAN_POINT('',(6.37124716127605,14.7195751877698,0.));
#485=CARTESIAN_POINT('',(5.97580507728025,14.6089888859324,0.));
#486=CARTESIAN_POINT('',(5.78173925166387,14.5450381364448,0.));
#487=CARTESIAN_POINT('',(5.21029305233782,14.32772084428,0.));
#488=CARTESIAN_POINT('',(4.84356941131621,14.1491131929956,0.));
#489=CARTESIAN_POINT('',(4.13969718602659,13.7218476000209,0.));
#490=CARTESIAN_POINT('',(3.80923337368394,13.4767418965811,0.));
#491=CARTESIAN_POINT('',(3.35366103507859,13.069033211864,0.));
#492=CARTESIAN_POINT('',(3.20804425966691,12.9261187790243,0.));
#493=CARTESIAN_POINT('',(2.9295650036743,12.6259601681885,0.));
#494=CARTESIAN_POINT('',(2.79609026039993,12.4678833385165,0.));
#495=CARTESIAN_POINT('',(2.42080507540284,11.977849005318,0.));
#496=CARTESIAN_POINT('',(2.20439568681046,11.6316861520075,0.));
#497=CARTESIAN_POINT('',(1.83951073356158,10.9001992016346,0.));
#498=CARTESIAN_POINT('',(1.69061859448829,10.511383289809,0.));
#499=CARTESIAN_POINT('',(1.47645679677933,9.72172588100206,0.));
#500=CARTESIAN_POINT('',(1.40911620692932,9.31834072016614,0.));
#501=CARTESIAN_POINT('',(1.36111675996637,8.49290701896262,0.));
#502=CARTESIAN_POINT('',(1.38120147397652,8.08385815612294,0.));
#503=CARTESIAN_POINT('',(1.48116335396094,7.47673113319728,0.));
#504=CARTESIAN_POINT('',(1.52663634538614,7.27419651395935,0.));
#505=CARTESIAN_POINT('',(1.64110577364315,6.87880255645639,0.));
#506=CARTESIAN_POINT('',(1.70992059148571,6.68586598167596,0.));
#507=CARTESIAN_POINT('',(1.95234236933303,6.12184598649326,0.));
#508=CARTESIAN_POINT('',(2.16561278941425,5.76148902614653,0.));
#509=CARTESIAN_POINT('',(2.54794879053498,5.28316541548112,0.));
#510=CARTESIAN_POINT('',(2.68602078559668,5.13309367314967,0.));
#511=CARTESIAN_POINT('',(2.98393571749618,4.85214549244576,0.));
#512=CARTESIAN_POINT('',(3.1452191475137,4.72039682757299,0.));
#513=CARTESIAN_POINT('',(3.649074091062,4.36439664618547,0.));
#514=CARTESIAN_POINT('',(4.01242358313061,4.17723850062805,0.));
#515=CARTESIAN_POINT('',(4.78323770461893,3.88357056621634,0.));
#516=CARTESIAN_POINT('',(5.17954650553983,3.78096055937473,0.));
#517=CARTESIAN_POINT('',(5.97546626616007,3.63215346975769,0.));
#518=CARTESIAN_POINT('',(6.37722259273611,3.58522260824457,0.));
#519=CARTESIAN_POINT('',(7.18536870189628,3.52489052334742,0.));
#520=CARTESIAN_POINT('',(7.59175830422895,3.51148799558805,0.));
#521=CARTESIAN_POINT('',(8.20412084788553,3.51148799558805,0.));
#522=CARTESIAN_POINT('',(0.,0.,0.));
#523=CARTESIAN_POINT('',(38.,0.,0.));
#524=CARTESIAN_POINT('',(38.,0.,14.3));
#525=CARTESIAN_POINT('',(0.,0.,0.));
#526=CARTESIAN_POINT('',(38.3464101615138,0.,0.));
#527=CARTESIAN_POINT('',(38.3464101615138,0.,14.5));
#528=CARTESIAN_POINT('',(38.3464101615138,0.,0.));
#529=CARTESIAN_POINT('',(42.5,0.,0.));
#530=CARTESIAN_POINT('',(42.5,0.,14.5));
#531=CARTESIAN_POINT('',(0.,0.,0.));
#532=CARTESIAN_POINT('',(43.,0.,0.));
#533=CARTESIAN_POINT('',(43.,0.,14.));
#534=CARTESIAN_POINT('',(43.,0.,0.));
#535=CARTESIAN_POINT('',(43.,0.,0.));
#536=CARTESIAN_POINT('',(43.,0.,9.78004267621761));
#537=CARTESIAN_POINT('',(43.,14.,0.));
#538=CARTESIAN_POINT('',(42.8004445042265,0.,0.));
#539=MECHANICAL_DESIGN_GEOMETRIC_PRESENTATION_REPRESENTATION('',(#52,#53),
#540);
#540=(
GEOMETRIC_REPRESENTATION_CONTEXT(3)
GLOBAL_UNCERTAINTY_ASSIGNED_CONTEXT((#541))
GLOBAL_UNIT_ASSIGNED_CONTEXT((#547,#543,#542))
REPRESENTATION_CONTEXT('AEMR-RD1604-D32-M16-L43-Z02-H',
'TOP_LEVEL_ASSEMBLY_PART')
);
#541=UNCERTAINTY_MEASURE_WITH_UNIT(LENGTH_MEASURE(2.E-5),#547,
'DISTANCE_ACCURACY_VALUE','Maximum Tolerance applied to model');
#542=(
NAMED_UNIT(*)
SI_UNIT($,.STERADIAN.)
SOLID_ANGLE_UNIT()
);
#543=(
CONVERSION_BASED_UNIT('DEGREE',#545)
NAMED_UNIT(#544)
PLANE_ANGLE_UNIT()
);
#544=DIMENSIONAL_EXPONENTS(0.,0.,0.,0.,0.,0.,0.);
#545=PLANE_ANGLE_MEASURE_WITH_UNIT(PLANE_ANGLE_MEASURE(0.0174532925),#546);
#546=(
NAMED_UNIT(*)
PLANE_ANGLE_UNIT()
SI_UNIT($,.RADIAN.)
);
#547=(
LENGTH_UNIT()
NAMED_UNIT(*)
SI_UNIT(.MILLI.,.METRE.)
);
ENDSEC;
END-ISO-10303-21;
