ISO-10303-21;
HEADER;
/* Generated by software containing ST-Developer
 * from STEP Tools, Inc. (www.steptools.com) 
 */
/* OPTION: using custom schema-name function */

FILE_DESCRIPTION(
/* description */ (''),
/* implementation_level */ '2;1');

FILE_NAME(
/* name */ 'AEMR-RP08T2M-D20-M10-L30-Z02-H.stp',
/* time_stamp */ '2023-10-21T11:48:53+03:00',
/* author */ (''),
/* organization */ (''),
/* preprocessor_version */ 'ST-DEVELOPER v19.4',
/* originating_system */ 'SIEMENS PLM Software NX2306.5001',
/* authorisation */ '');

FILE_SCHEMA (('AUTOMOTIVE_DESIGN { 1 0 10303 214 3 1 1 1 }'));
ENDSEC;

DATA;
#10=PROPERTY_DEFINITION_REPRESENTATION(#14,#12);
#11=PROPERTY_DEFINITION_REPRESENTATION(#15,#13);
#12=REPRESENTATION('',(#16),#572);
#13=REPRESENTATION('',(#17),#572);
#14=PROPERTY_DEFINITION('pmi validation property','',#21);
#15=PROPERTY_DEFINITION('pmi validation property','',#21);
#16=VALUE_REPRESENTATION_ITEM('number of annotations',COUNT_MEASURE(0.));
#17=VALUE_REPRESENTATION_ITEM('number of views',COUNT_MEASURE(0.));
#18=SHAPE_REPRESENTATION_RELATIONSHIP('None',
'relationship between AEMR-RP08T2M-D20-M10-L30-Z02-H-LIGHT _x_t_object
s-None and AEMR-RP08T2M-D20-M10-L30-Z02-H-LIGHT _x_t_objects-None',#30,
#19);
#19=ADVANCED_BREP_SHAPE_REPRESENTATION(
'AEMR-RP08T2M-D20-M10-L30-Z02-H-LIGHT _x_t_objects-None',(#49,#50),#572);
#20=SHAPE_DEFINITION_REPRESENTATION(#21,#30);
#21=PRODUCT_DEFINITION_SHAPE('','',#22);
#22=PRODUCT_DEFINITION(' ','',#24,#23);
#23=PRODUCT_DEFINITION_CONTEXT('part definition',#29,'design');
#24=PRODUCT_DEFINITION_FORMATION_WITH_SPECIFIED_SOURCE(' ',' ',#26,
 .NOT_KNOWN.);
#25=PRODUCT_RELATED_PRODUCT_CATEGORY('part','',(#26));
#26=PRODUCT('AEMR-RP08T2M-D20-M10-L30-Z02-H-LIGHT _x_t_objects',
'AEMR-RP08T2M-D20-M10-L30-Z02-H-LIGHT _x_t_objects',' ',(#27));
#27=PRODUCT_CONTEXT(' ',#29,'mechanical');
#28=APPLICATION_PROTOCOL_DEFINITION('international standard',
'automotive_design',2010,#29);
#29=APPLICATION_CONTEXT(
'core data for automotive mechanical design processes');
#30=SHAPE_REPRESENTATION(
'AEMR-RP08T2M-D20-M10-L30-Z02-H-LIGHT _x_t_objects-None',(#302),#572);
#31=DRAUGHTING_PRE_DEFINED_COLOUR('yellow');
#32=(
BOUNDED_SURFACE()
B_SPLINE_SURFACE(3,3,((#522,#523,#524,#525,#526,#527,#528),(#529,#530,#531,
#532,#533,#534,#535),(#536,#537,#538,#539,#540,#541,#542),(#543,#544,#545,
#546,#547,#548,#549),(#550,#551,#552,#553,#554,#555,#556),(#557,#558,#559,
#560,#561,#562,#563),(#564,#565,#566,#567,#568,#569,#570)),
 .UNSPECIFIED.,.T.,.T.,.F.)
B_SPLINE_SURFACE_WITH_KNOTS((1,3,3,3,1),(1,3,3,3,1),(-0.5,0.,0.5,1.,1.5),
(-0.5,0.,0.5,1.,1.5),.UNSPECIFIED.)
GEOMETRIC_REPRESENTATION_ITEM()
RATIONAL_B_SPLINE_SURFACE(((1.,0.333333333333334,0.333333333333334,1.,0.333333333333334,
0.333333333333334,1.),(0.333333333333334,0.111111111111111,0.111111111111111,
0.333333333333334,0.111111111111111,0.111111111111111,0.333333333333334),
(0.333333333333334,0.111111111111111,0.111111111111111,0.333333333333334,
0.111111111111111,0.111111111111111,0.333333333333334),(1.,0.333333333333334,
0.333333333333334,1.,0.333333333333334,0.333333333333334,1.),(0.333333333333334,
0.111111111111111,0.111111111111111,0.333333333333334,0.111111111111111,
0.111111111111111,0.333333333333334),(0.333333333333334,0.111111111111111,
0.111111111111111,0.333333333333334,0.111111111111111,0.111111111111111,
0.333333333333334),(1.,0.333333333333334,0.333333333333334,1.,0.333333333333334,
0.333333333333334,1.)))
REPRESENTATION_ITEM('')
SURFACE()
);
#33=PRESENTATION_LAYER_ASSIGNMENT('1','Layer 1',(#49,#50));
#34=STYLED_ITEM('',(#36),#49);
#35=STYLED_ITEM('',(#37),#50);
#36=PRESENTATION_STYLE_ASSIGNMENT((#38));
#37=PRESENTATION_STYLE_ASSIGNMENT((#39));
#38=SURFACE_STYLE_USAGE(.BOTH.,#40);
#39=SURFACE_STYLE_USAGE(.BOTH.,#41);
#40=SURFACE_SIDE_STYLE('',(#42));
#41=SURFACE_SIDE_STYLE('',(#43));
#42=SURFACE_STYLE_FILL_AREA(#44);
#43=SURFACE_STYLE_FILL_AREA(#45);
#44=FILL_AREA_STYLE('',(#46));
#45=FILL_AREA_STYLE('',(#47));
#46=FILL_AREA_STYLE_COLOUR('',#48);
#47=FILL_AREA_STYLE_COLOUR('',#31);
#48=COLOUR_RGB('silver gray',0.6,0.6,0.6);
#49=MANIFOLD_SOLID_BREP('',#51);
#50=MANIFOLD_SOLID_BREP('',#52);
#51=CLOSED_SHELL('',(#74,#75,#76,#77,#78,#79,#80,#81,#82,#83,#84,#85,#86,
#87,#88,#89,#90,#91,#92,#93,#94,#95));
#52=CLOSED_SHELL('',(#96));
#53=FACE_OUTER_BOUND('',#178,.T.);
#54=FACE_OUTER_BOUND('',#179,.T.);
#55=PLANE('',#318);
#56=PLANE('',#333);
#57=PLANE('',#335);
#58=PLANE('',#340);
#59=CONICAL_SURFACE('',#310,8.8,5.99999999999962);
#60=CONICAL_SURFACE('',#312,9.,44.9999999999992);
#61=CONICAL_SURFACE('',#316,8.5,45.);
#62=CONICAL_SURFACE('',#320,5.78529142706151,75.);
#63=CONICAL_SURFACE('',#324,5.25,14.9999999999999);
#64=CONICAL_SURFACE('',#328,4.875,30.);
#65=CONICAL_SURFACE('',#332,3.875,45.0000000000002);
#66=CYLINDRICAL_SURFACE('',#308,7.65);
#67=CYLINDRICAL_SURFACE('',#314,9.);
#68=CYLINDRICAL_SURFACE('',#326,5.25);
#69=CYLINDRICAL_SURFACE('',#330,4.875);
#70=CYLINDRICAL_SURFACE('',#342,9.22326547990368);
#71=TOROIDAL_SURFACE('',#306,8.65,1.);
#72=TOROIDAL_SURFACE('',#322,5.63,0.6);
#73=TOROIDAL_SURFACE('',#337,2.78489401493005,1.);
#74=ADVANCED_FACE('',(#106,#107),#97,.T.);
#75=ADVANCED_FACE('',(#108,#109),#71,.F.);
#76=ADVANCED_FACE('',(#110,#111),#66,.T.);
#77=ADVANCED_FACE('',(#112,#113),#59,.T.);
#78=ADVANCED_FACE('',(#114,#115),#60,.T.);
#79=ADVANCED_FACE('',(#116,#117),#67,.T.);
#80=ADVANCED_FACE('',(#118,#119),#61,.T.);
#81=ADVANCED_FACE('',(#120,#121),#55,.F.);
#82=ADVANCED_FACE('',(#122,#123),#62,.F.);
#83=ADVANCED_FACE('',(#124,#125),#72,.F.);
#84=ADVANCED_FACE('',(#126,#127),#63,.T.);
#85=ADVANCED_FACE('',(#128,#129),#68,.T.);
#86=ADVANCED_FACE('',(#130,#131),#64,.T.);
#87=ADVANCED_FACE('',(#132,#133),#69,.T.);
#88=ADVANCED_FACE('',(#134,#135),#65,.T.);
#89=ADVANCED_FACE('',(#53),#56,.F.);
#90=ADVANCED_FACE('',(#54),#57,.F.);
#91=ADVANCED_FACE('',(#136,#137),#73,.F.);
#92=ADVANCED_FACE('',(#138,#139),#98,.T.);
#93=ADVANCED_FACE('',(#140,#141),#58,.F.);
#94=ADVANCED_FACE('',(#142,#143),#99,.T.);
#95=ADVANCED_FACE('',(#144,#145),#70,.T.);
#96=ADVANCED_FACE('',(#146,#147),#32,.F.);
#97=SURFACE_OF_REVOLUTION('',#103,#100);
#98=SURFACE_OF_REVOLUTION('',#104,#101);
#99=SURFACE_OF_REVOLUTION('',#105,#102);
#100=AXIS1_PLACEMENT('',#444,#350);
#101=AXIS1_PLACEMENT('',#506,#419);
#102=AXIS1_PLACEMENT('',#518,#426);
#103=B_SPLINE_CURVE_WITH_KNOTS('',3,(#436,#437,#438,#439,#440,#441,#442,
#443),.UNSPECIFIED.,.F.,.F.,(4,2,2,4),(0.,0.25,0.5,1.),.UNSPECIFIED.);
#104=B_SPLINE_CURVE_WITH_KNOTS('',3,(#496,#497,#498,#499,#500,#501,#502,
#503,#504,#505),.UNSPECIFIED.,.F.,.F.,(4,2,2,2,4),(0.,0.25,0.5,0.75,1.),
 .UNSPECIFIED.);
#105=B_SPLINE_CURVE_WITH_KNOTS('',3,(#512,#513,#514,#515,#516,#517),
 .UNSPECIFIED.,.F.,.F.,(4,2,4),(0.,0.5,1.),.UNSPECIFIED.);
#106=FACE_BOUND('',#148,.T.);
#107=FACE_BOUND('',#149,.T.);
#108=FACE_BOUND('',#150,.T.);
#109=FACE_BOUND('',#151,.T.);
#110=FACE_BOUND('',#152,.T.);
#111=FACE_BOUND('',#153,.T.);
#112=FACE_BOUND('',#154,.T.);
#113=FACE_BOUND('',#155,.T.);
#114=FACE_BOUND('',#156,.T.);
#115=FACE_BOUND('',#157,.T.);
#116=FACE_BOUND('',#158,.T.);
#117=FACE_BOUND('',#159,.T.);
#118=FACE_BOUND('',#160,.T.);
#119=FACE_BOUND('',#161,.T.);
#120=FACE_BOUND('',#162,.T.);
#121=FACE_BOUND('',#163,.T.);
#122=FACE_BOUND('',#164,.T.);
#123=FACE_BOUND('',#165,.T.);
#124=FACE_BOUND('',#166,.T.);
#125=FACE_BOUND('',#167,.T.);
#126=FACE_BOUND('',#168,.T.);
#127=FACE_BOUND('',#169,.T.);
#128=FACE_BOUND('',#170,.T.);
#129=FACE_BOUND('',#171,.T.);
#130=FACE_BOUND('',#172,.T.);
#131=FACE_BOUND('',#173,.T.);
#132=FACE_BOUND('',#174,.T.);
#133=FACE_BOUND('',#175,.T.);
#134=FACE_BOUND('',#176,.T.);
#135=FACE_BOUND('',#177,.T.);
#136=FACE_BOUND('',#180,.T.);
#137=FACE_BOUND('',#181,.T.);
#138=FACE_BOUND('',#182,.T.);
#139=FACE_BOUND('',#183,.T.);
#140=FACE_BOUND('',#184,.T.);
#141=FACE_BOUND('',#185,.T.);
#142=FACE_BOUND('',#186,.T.);
#143=FACE_BOUND('',#187,.T.);
#144=FACE_BOUND('',#188,.T.);
#145=FACE_BOUND('',#189,.T.);
#146=FACE_BOUND('',#190,.T.);
#147=FACE_BOUND('',#191,.T.);
#148=EDGE_LOOP('',(#192));
#149=EDGE_LOOP('',(#193));
#150=EDGE_LOOP('',(#194));
#151=EDGE_LOOP('',(#195));
#152=EDGE_LOOP('',(#196));
#153=EDGE_LOOP('',(#197));
#154=EDGE_LOOP('',(#198));
#155=EDGE_LOOP('',(#199));
#156=EDGE_LOOP('',(#200));
#157=EDGE_LOOP('',(#201));
#158=EDGE_LOOP('',(#202));
#159=EDGE_LOOP('',(#203));
#160=EDGE_LOOP('',(#204));
#161=EDGE_LOOP('',(#205));
#162=EDGE_LOOP('',(#206));
#163=EDGE_LOOP('',(#207));
#164=EDGE_LOOP('',(#208));
#165=EDGE_LOOP('',(#209));
#166=EDGE_LOOP('',(#210));
#167=EDGE_LOOP('',(#211));
#168=EDGE_LOOP('',(#212));
#169=EDGE_LOOP('',(#213));
#170=EDGE_LOOP('',(#214));
#171=EDGE_LOOP('',(#215));
#172=EDGE_LOOP('',(#216));
#173=EDGE_LOOP('',(#217));
#174=EDGE_LOOP('',(#218));
#175=EDGE_LOOP('',(#219));
#176=EDGE_LOOP('',(#220));
#177=EDGE_LOOP('',(#221));
#178=EDGE_LOOP('',(#222));
#179=EDGE_LOOP('',(#223));
#180=EDGE_LOOP('',(#224));
#181=EDGE_LOOP('',(#225));
#182=EDGE_LOOP('',(#226));
#183=EDGE_LOOP('',(#227));
#184=EDGE_LOOP('',(#228));
#185=EDGE_LOOP('',(#229));
#186=EDGE_LOOP('',(#230));
#187=EDGE_LOOP('',(#231));
#188=EDGE_LOOP('',(#232));
#189=EDGE_LOOP('',(#233));
#190=EDGE_LOOP('',(#234));
#191=EDGE_LOOP('',(#235));
#192=ORIENTED_EDGE('',*,*,#258,.F.);
#193=ORIENTED_EDGE('',*,*,#259,.T.);
#194=ORIENTED_EDGE('',*,*,#259,.F.);
#195=ORIENTED_EDGE('',*,*,#260,.T.);
#196=ORIENTED_EDGE('',*,*,#260,.F.);
#197=ORIENTED_EDGE('',*,*,#261,.T.);
#198=ORIENTED_EDGE('',*,*,#261,.F.);
#199=ORIENTED_EDGE('',*,*,#262,.T.);
#200=ORIENTED_EDGE('',*,*,#262,.F.);
#201=ORIENTED_EDGE('',*,*,#263,.T.);
#202=ORIENTED_EDGE('',*,*,#263,.F.);
#203=ORIENTED_EDGE('',*,*,#264,.T.);
#204=ORIENTED_EDGE('',*,*,#264,.F.);
#205=ORIENTED_EDGE('',*,*,#265,.T.);
#206=ORIENTED_EDGE('',*,*,#265,.F.);
#207=ORIENTED_EDGE('',*,*,#266,.T.);
#208=ORIENTED_EDGE('',*,*,#266,.F.);
#209=ORIENTED_EDGE('',*,*,#267,.T.);
#210=ORIENTED_EDGE('',*,*,#267,.F.);
#211=ORIENTED_EDGE('',*,*,#268,.T.);
#212=ORIENTED_EDGE('',*,*,#268,.F.);
#213=ORIENTED_EDGE('',*,*,#269,.T.);
#214=ORIENTED_EDGE('',*,*,#269,.F.);
#215=ORIENTED_EDGE('',*,*,#270,.T.);
#216=ORIENTED_EDGE('',*,*,#270,.F.);
#217=ORIENTED_EDGE('',*,*,#271,.T.);
#218=ORIENTED_EDGE('',*,*,#271,.F.);
#219=ORIENTED_EDGE('',*,*,#272,.T.);
#220=ORIENTED_EDGE('',*,*,#272,.F.);
#221=ORIENTED_EDGE('',*,*,#273,.T.);
#222=ORIENTED_EDGE('',*,*,#273,.F.);
#223=ORIENTED_EDGE('',*,*,#274,.T.);
#224=ORIENTED_EDGE('',*,*,#274,.F.);
#225=ORIENTED_EDGE('',*,*,#275,.T.);
#226=ORIENTED_EDGE('',*,*,#275,.F.);
#227=ORIENTED_EDGE('',*,*,#276,.T.);
#228=ORIENTED_EDGE('',*,*,#276,.F.);
#229=ORIENTED_EDGE('',*,*,#277,.T.);
#230=ORIENTED_EDGE('',*,*,#277,.F.);
#231=ORIENTED_EDGE('',*,*,#278,.T.);
#232=ORIENTED_EDGE('',*,*,#278,.F.);
#233=ORIENTED_EDGE('',*,*,#258,.T.);
#234=ORIENTED_EDGE('',*,*,#279,.T.);
#235=ORIENTED_EDGE('',*,*,#279,.F.);
#236=VERTEX_POINT('',#433);
#237=VERTEX_POINT('',#435);
#238=VERTEX_POINT('',#446);
#239=VERTEX_POINT('',#449);
#240=VERTEX_POINT('',#452);
#241=VERTEX_POINT('',#455);
#242=VERTEX_POINT('',#458);
#243=VERTEX_POINT('',#461);
#244=VERTEX_POINT('',#464);
#245=VERTEX_POINT('',#467);
#246=VERTEX_POINT('',#470);
#247=VERTEX_POINT('',#473);
#248=VERTEX_POINT('',#476);
#249=VERTEX_POINT('',#479);
#250=VERTEX_POINT('',#482);
#251=VERTEX_POINT('',#485);
#252=VERTEX_POINT('',#489);
#253=VERTEX_POINT('',#492);
#254=VERTEX_POINT('',#495);
#255=VERTEX_POINT('',#508);
#256=VERTEX_POINT('',#511);
#257=VERTEX_POINT('',#521);
#258=EDGE_CURVE('',#236,#236,#280,.T.);
#259=EDGE_CURVE('',#237,#237,#281,.T.);
#260=EDGE_CURVE('',#238,#238,#282,.T.);
#261=EDGE_CURVE('',#239,#239,#283,.T.);
#262=EDGE_CURVE('',#240,#240,#284,.T.);
#263=EDGE_CURVE('',#241,#241,#285,.T.);
#264=EDGE_CURVE('',#242,#242,#286,.T.);
#265=EDGE_CURVE('',#243,#243,#287,.T.);
#266=EDGE_CURVE('',#244,#244,#288,.T.);
#267=EDGE_CURVE('',#245,#245,#289,.T.);
#268=EDGE_CURVE('',#246,#246,#290,.T.);
#269=EDGE_CURVE('',#247,#247,#291,.T.);
#270=EDGE_CURVE('',#248,#248,#292,.T.);
#271=EDGE_CURVE('',#249,#249,#293,.T.);
#272=EDGE_CURVE('',#250,#250,#294,.T.);
#273=EDGE_CURVE('',#251,#251,#295,.T.);
#274=EDGE_CURVE('',#252,#252,#296,.T.);
#275=EDGE_CURVE('',#253,#253,#297,.T.);
#276=EDGE_CURVE('',#254,#254,#298,.T.);
#277=EDGE_CURVE('',#255,#255,#299,.T.);
#278=EDGE_CURVE('',#256,#256,#300,.T.);
#279=EDGE_CURVE('',#257,#257,#301,.T.);
#280=CIRCLE('',#303,9.22326547990368);
#281=CIRCLE('',#304,8.07526632395756);
#282=CIRCLE('',#305,7.65);
#283=CIRCLE('',#307,7.65);
#284=CIRCLE('',#309,8.8);
#285=CIRCLE('',#311,9.);
#286=CIRCLE('',#313,9.);
#287=CIRCLE('',#315,8.5);
#288=CIRCLE('',#317,6.5300426762176);
#289=CIRCLE('',#319,5.78529142706151);
#290=CIRCLE('',#321,5.05044450422656);
#291=CIRCLE('',#323,5.25);
#292=CIRCLE('',#325,5.25);
#293=CIRCLE('',#327,4.875);
#294=CIRCLE('',#329,4.875);
#295=CIRCLE('',#331,3.875);
#296=CIRCLE('',#334,2.78489401493005);
#297=CIRCLE('',#336,3.63521612728567);
#298=CIRCLE('',#338,4.86733462745178);
#299=CIRCLE('',#339,7.58148521916181);
#300=CIRCLE('',#341,9.22326547990368);
#301=CIRCLE('',#343,4.);
#302=AXIS2_PLACEMENT_3D('',#431,#344,#345);
#303=AXIS2_PLACEMENT_3D('',#432,#346,#347);
#304=AXIS2_PLACEMENT_3D('',#434,#348,#349);
#305=AXIS2_PLACEMENT_3D('',#445,#351,#352);
#306=AXIS2_PLACEMENT_3D('',#447,#353,#354);
#307=AXIS2_PLACEMENT_3D('',#448,#355,#356);
#308=AXIS2_PLACEMENT_3D('',#450,#357,#358);
#309=AXIS2_PLACEMENT_3D('',#451,#359,#360);
#310=AXIS2_PLACEMENT_3D('',#453,#361,#362);
#311=AXIS2_PLACEMENT_3D('',#454,#363,#364);
#312=AXIS2_PLACEMENT_3D('',#456,#365,#366);
#313=AXIS2_PLACEMENT_3D('',#457,#367,#368);
#314=AXIS2_PLACEMENT_3D('',#459,#369,#370);
#315=AXIS2_PLACEMENT_3D('',#460,#371,#372);
#316=AXIS2_PLACEMENT_3D('',#462,#373,#374);
#317=AXIS2_PLACEMENT_3D('',#463,#375,#376);
#318=AXIS2_PLACEMENT_3D('',#465,#377,#378);
#319=AXIS2_PLACEMENT_3D('',#466,#379,#380);
#320=AXIS2_PLACEMENT_3D('',#468,#381,#382);
#321=AXIS2_PLACEMENT_3D('',#469,#383,#384);
#322=AXIS2_PLACEMENT_3D('',#471,#385,#386);
#323=AXIS2_PLACEMENT_3D('',#472,#387,#388);
#324=AXIS2_PLACEMENT_3D('',#474,#389,#390);
#325=AXIS2_PLACEMENT_3D('',#475,#391,#392);
#326=AXIS2_PLACEMENT_3D('',#477,#393,#394);
#327=AXIS2_PLACEMENT_3D('',#478,#395,#396);
#328=AXIS2_PLACEMENT_3D('',#480,#397,#398);
#329=AXIS2_PLACEMENT_3D('',#481,#399,#400);
#330=AXIS2_PLACEMENT_3D('',#483,#401,#402);
#331=AXIS2_PLACEMENT_3D('',#484,#403,#404);
#332=AXIS2_PLACEMENT_3D('',#486,#405,#406);
#333=AXIS2_PLACEMENT_3D('',#487,#407,#408);
#334=AXIS2_PLACEMENT_3D('',#488,#409,#410);
#335=AXIS2_PLACEMENT_3D('',#490,#411,#412);
#336=AXIS2_PLACEMENT_3D('',#491,#413,#414);
#337=AXIS2_PLACEMENT_3D('',#493,#415,#416);
#338=AXIS2_PLACEMENT_3D('',#494,#417,#418);
#339=AXIS2_PLACEMENT_3D('',#507,#420,#421);
#340=AXIS2_PLACEMENT_3D('',#509,#422,#423);
#341=AXIS2_PLACEMENT_3D('',#510,#424,#425);
#342=AXIS2_PLACEMENT_3D('',#519,#427,#428);
#343=AXIS2_PLACEMENT_3D('',#520,#429,#430);
#344=DIRECTION('',(0.,0.,1.));
#345=DIRECTION('',(1.,0.,0.));
#346=DIRECTION('',(-1.,0.,0.));
#347=DIRECTION('',(0.,0.,1.));
#348=DIRECTION('',(-1.,0.,0.));
#349=DIRECTION('',(0.,0.,1.));
#350=DIRECTION('',(-1.,0.,0.));
#351=DIRECTION('',(-1.,0.,0.));
#352=DIRECTION('',(0.,0.,1.));
#353=DIRECTION('',(-1.,0.,0.));
#354=DIRECTION('',(0.,0.,1.));
#355=DIRECTION('',(-1.,0.,0.));
#356=DIRECTION('',(0.,0.,1.));
#357=DIRECTION('',(-1.,0.,0.));
#358=DIRECTION('',(0.,0.,1.));
#359=DIRECTION('',(-1.,0.,0.));
#360=DIRECTION('',(0.,0.,1.));
#361=DIRECTION('',(1.,0.,0.));
#362=DIRECTION('',(-7.91942639713078E-16,0.,-1.));
#363=DIRECTION('',(-1.,0.,0.));
#364=DIRECTION('',(0.,0.,1.));
#365=DIRECTION('',(1.,0.,0.));
#366=DIRECTION('',(-1.10032014333517E-16,0.,-1.));
#367=DIRECTION('',(-1.,0.,0.));
#368=DIRECTION('',(0.,0.,1.));
#369=DIRECTION('',(-1.,0.,0.));
#370=DIRECTION('',(0.,0.,1.));
#371=DIRECTION('',(-1.,0.,0.));
#372=DIRECTION('',(0.,0.,1.));
#373=DIRECTION('',(-1.,0.,0.));
#374=DIRECTION('',(2.75216416615061E-17,0.,1.));
#375=DIRECTION('',(-1.,0.,0.));
#376=DIRECTION('',(0.,0.,1.));
#377=DIRECTION('',(-1.,0.,0.));
#378=DIRECTION('',(0.,0.,1.));
#379=DIRECTION('',(-1.,0.,0.));
#380=DIRECTION('',(0.,0.,1.));
#381=DIRECTION('',(1.,0.,0.));
#382=DIRECTION('',(1.02101631694716E-17,0.,-1.));
#383=DIRECTION('',(-1.,0.,0.));
#384=DIRECTION('',(0.,0.,1.));
#385=DIRECTION('',(-1.,0.,0.));
#386=DIRECTION('',(0.,0.,1.));
#387=DIRECTION('',(-1.,0.,0.));
#388=DIRECTION('',(0.,0.,1.));
#389=DIRECTION('',(1.,0.,0.));
#390=DIRECTION('',(1.52391971048523E-16,0.,-1.));
#391=DIRECTION('',(-1.,0.,0.));
#392=DIRECTION('',(0.,0.,1.));
#393=DIRECTION('',(-1.,0.,0.));
#394=DIRECTION('',(0.,0.,1.));
#395=DIRECTION('',(-1.,0.,0.));
#396=DIRECTION('',(0.,0.,1.));
#397=DIRECTION('',(-1.,0.,0.));
#398=DIRECTION('',(1.19178851745222E-17,0.,1.));
#399=DIRECTION('',(-1.,0.,0.));
#400=DIRECTION('',(0.,0.,1.));
#401=DIRECTION('',(-1.,0.,0.));
#402=DIRECTION('',(0.,0.,1.));
#403=DIRECTION('',(-1.,0.,0.));
#404=DIRECTION('',(0.,0.,1.));
#405=DIRECTION('',(-1.,0.,0.));
#406=DIRECTION('',(4.14726568780407E-17,0.,1.));
#407=DIRECTION('',(-1.,0.,0.));
#408=DIRECTION('',(0.,0.,1.));
#409=DIRECTION('',(-1.,0.,0.));
#410=DIRECTION('',(0.,0.,1.));
#411=DIRECTION('',(1.,0.,0.));
#412=DIRECTION('',(0.,0.,-1.));
#413=DIRECTION('',(-1.,0.,0.));
#414=DIRECTION('',(0.,0.,1.));
#415=DIRECTION('',(-1.,0.,0.));
#416=DIRECTION('',(0.,0.,1.));
#417=DIRECTION('',(-1.,0.,0.));
#418=DIRECTION('',(0.,0.,1.));
#419=DIRECTION('',(-1.,0.,0.));
#420=DIRECTION('',(-1.,0.,0.));
#421=DIRECTION('',(0.,0.,1.));
#422=DIRECTION('',(1.,0.,0.));
#423=DIRECTION('',(0.,0.,-1.));
#424=DIRECTION('',(-1.,0.,0.));
#425=DIRECTION('',(0.,0.,1.));
#426=DIRECTION('',(-1.,0.,0.));
#427=DIRECTION('',(-1.,0.,0.));
#428=DIRECTION('',(0.,0.,1.));
#429=DIRECTION('',(0.,0.,1.));
#430=DIRECTION('',(1.,0.,0.));
#431=CARTESIAN_POINT('',(0.,0.,0.));
#432=CARTESIAN_POINT('',(5.41969265448447,0.,0.));
#433=CARTESIAN_POINT('',(5.41969265448447,0.,9.22326547990368));
#434=CARTESIAN_POINT('',(6.81302175184445,0.,0.));
#435=CARTESIAN_POINT('',(6.81302175184445,0.,8.07526632395756));
#436=CARTESIAN_POINT('',(7.1,7.5814852191618,0.));
#437=CARTESIAN_POINT('',(7.01386694854728,7.76430571070101,0.));
#438=CARTESIAN_POINT('',(6.91243520828095,7.93642344752504,0.));
#439=CARTESIAN_POINT('',(6.68074192744321,8.26048998480786,0.));
#440=CARTESIAN_POINT('',(6.54961060099498,8.41325479282824,0.));
#441=CARTESIAN_POINT('',(6.11682980207823,8.83459567302522,0.));
#442=CARTESIAN_POINT('',(5.7882012052899,9.05767397539375,0.));
#443=CARTESIAN_POINT('',(5.41969265448447,9.22326547990368,0.));
#444=CARTESIAN_POINT('',(0.,0.,0.));
#445=CARTESIAN_POINT('',(7.63136226875825,0.,0.));
#446=CARTESIAN_POINT('',(7.63136226875825,0.,7.65));
#447=CARTESIAN_POINT('',(7.63136226875824,0.,0.));
#448=CARTESIAN_POINT('',(14.0584808776433,0.,0.));
#449=CARTESIAN_POINT('',(14.0584808776433,0.,7.65));
#450=CARTESIAN_POINT('',(0.,0.,0.));
#451=CARTESIAN_POINT('',(25.,0.,0.));
#452=CARTESIAN_POINT('',(25.,0.,8.8));
#453=CARTESIAN_POINT('',(25.,0.,0.));
#454=CARTESIAN_POINT('',(25.2,0.,0.));
#455=CARTESIAN_POINT('',(25.2,0.,9.));
#456=CARTESIAN_POINT('',(25.2,0.,0.));
#457=CARTESIAN_POINT('',(29.5,0.,0.));
#458=CARTESIAN_POINT('',(29.5,0.,9.));
#459=CARTESIAN_POINT('',(0.,0.,0.));
#460=CARTESIAN_POINT('',(30.,0.,0.));
#461=CARTESIAN_POINT('',(30.,0.,8.5));
#462=CARTESIAN_POINT('',(30.,0.,0.));
#463=CARTESIAN_POINT('',(30.,0.,0.));
#464=CARTESIAN_POINT('',(30.,0.,6.5300426762176));
#465=CARTESIAN_POINT('',(30.,8.5,0.));
#466=CARTESIAN_POINT('',(29.8004445042265,0.,0.));
#467=CARTESIAN_POINT('',(29.8004445042265,0.,5.78529142706151));
#468=CARTESIAN_POINT('',(29.8004445042265,0.,0.));
#469=CARTESIAN_POINT('',(30.5352914270615,0.,0.));
#470=CARTESIAN_POINT('',(30.5352914270615,0.,5.05044450422656));
#471=CARTESIAN_POINT('',(30.38,0.,0.));
#472=CARTESIAN_POINT('',(31.2800426762176,0.,0.));
#473=CARTESIAN_POINT('',(31.2800426762176,0.,5.25));
#474=CARTESIAN_POINT('',(31.2800426762176,0.,0.));
#475=CARTESIAN_POINT('',(36.,0.,0.));
#476=CARTESIAN_POINT('',(36.,0.,5.25));
#477=CARTESIAN_POINT('',(0.,0.,0.));
#478=CARTESIAN_POINT('',(36.6495190528383,0.,0.));
#479=CARTESIAN_POINT('',(36.6495190528383,0.,4.875));
#480=CARTESIAN_POINT('',(36.6495190528383,0.,0.));
#481=CARTESIAN_POINT('',(49.,0.,0.));
#482=CARTESIAN_POINT('',(49.,0.,4.875));
#483=CARTESIAN_POINT('',(0.,0.,0.));
#484=CARTESIAN_POINT('',(50.,0.,0.));
#485=CARTESIAN_POINT('',(50.,0.,3.875));
#486=CARTESIAN_POINT('',(50.,0.,0.));
#487=CARTESIAN_POINT('',(50.,3.875,0.));
#488=CARTESIAN_POINT('',(2.5,0.,0.));
#489=CARTESIAN_POINT('',(2.5,0.,2.78489401493005));
#490=CARTESIAN_POINT('',(2.5,2.78489401493005,0.));
#491=CARTESIAN_POINT('',(2.02626258202449,0.,0.));
#492=CARTESIAN_POINT('',(2.02626258202449,0.,3.63521612728567));
#493=CARTESIAN_POINT('',(1.5,0.,0.));
#494=CARTESIAN_POINT('',(0.9,0.,0.));
#495=CARTESIAN_POINT('',(0.9,0.,4.86733462745178));
#496=CARTESIAN_POINT('',(0.9,4.86733462745178,0.));
#497=CARTESIAN_POINT('',(0.985754502100333,4.69305416395325,0.));
#498=CARTESIAN_POINT('',(1.08702699301532,4.53005051951388,0.));
#499=CARTESIAN_POINT('',(1.31933755063523,4.22567367620285,0.));
#500=CARTESIAN_POINT('',(1.45188501533781,4.08307511300127,0.));
#501=CARTESIAN_POINT('',(1.74047779297642,3.82688457670602,0.));
#502=CARTESIAN_POINT('',(1.89526799627319,3.71383485194976,0.));
#503=CARTESIAN_POINT('',(2.22431967629558,3.51565240915463,0.));
#504=CARTESIAN_POINT('',(2.39946039671081,3.43033247757801,0.));
#505=CARTESIAN_POINT('',(2.58030734551554,3.36008689244532,0.));
#506=CARTESIAN_POINT('',(0.,0.,0.));
#507=CARTESIAN_POINT('',(0.9,0.,0.));
#508=CARTESIAN_POINT('',(0.9,0.,7.58148521916181));
#509=CARTESIAN_POINT('',(0.9,7.58148521916181,0.));
#510=CARTESIAN_POINT('',(2.58030734551553,0.,0.));
#511=CARTESIAN_POINT('',(2.58030734551553,0.,9.22326547990368));
#512=CARTESIAN_POINT('',(2.58030734551553,9.22326547990368,0.));
#513=CARTESIAN_POINT('',(2.21179461999236,9.05767209945954,0.));
#514=CARTESIAN_POINT('',(1.88066055926943,8.83271875844098,0.));
#515=CARTESIAN_POINT('',(1.30372118758372,8.26989230677424,0.));
#516=CARTESIAN_POINT('',(1.07227247032883,7.94713971732476,0.));
#517=CARTESIAN_POINT('',(0.9,7.58148521916181,0.));
#518=CARTESIAN_POINT('',(0.,0.,0.));
#519=CARTESIAN_POINT('',(0.,0.,0.));
#520=CARTESIAN_POINT('',(4.,-5.94987437,1.));
#521=CARTESIAN_POINT('',(8.,-5.94987437,1.));
#522=CARTESIAN_POINT('',(8.,-5.94987437,1.));
#523=CARTESIAN_POINT('',(7.99999999999999,-7.94987436999999,-10.89974874));
#524=CARTESIAN_POINT('',(7.99999999999999,3.94987436999999,-12.89974874));
#525=CARTESIAN_POINT('',(8.,5.94987437,-1.));
#526=CARTESIAN_POINT('',(7.99999999999999,7.94987436999999,10.89974874));
#527=CARTESIAN_POINT('',(7.99999999999999,-3.94987436999999,12.89974874));
#528=CARTESIAN_POINT('',(8.,-5.94987437,1.));
#529=CARTESIAN_POINT('',(7.99999999999999,2.05012563,1.));
#530=CARTESIAN_POINT('',(8.00000000000001,0.0501256300000051,5.10025126000002));
#531=CARTESIAN_POINT('',(8.00000000000001,-4.05012563000001,3.10025126000001));
#532=CARTESIAN_POINT('',(7.99999999999999,-2.05012563,-1.));
#533=CARTESIAN_POINT('',(8.00000000000001,-0.0501256300000051,-5.10025126000002));
#534=CARTESIAN_POINT('',(8.00000000000001,4.05012563000001,-3.10025126000001));
#535=CARTESIAN_POINT('',(7.99999999999999,2.05012563,1.));
#536=CARTESIAN_POINT('',(1.12355701329479E-16,2.05012563,1.));
#537=CARTESIAN_POINT('',(1.12355701329479E-16,0.050125630000006,5.10025126000002));
#538=CARTESIAN_POINT('',(1.12355701329479E-16,-4.05012563000001,3.10025126000001));
#539=CARTESIAN_POINT('',(1.12355701329479E-16,-2.05012563,-1.));
#540=CARTESIAN_POINT('',(1.12355701329479E-16,-0.050125630000006,-5.10025126000002));
#541=CARTESIAN_POINT('',(1.12355701329479E-16,4.05012563000001,-3.10025126000001));
#542=CARTESIAN_POINT('',(1.12355701329479E-16,2.05012563,1.));
#543=CARTESIAN_POINT('',(-8.67361737988404E-16,-5.94987436999999,1.));
#544=CARTESIAN_POINT('',(-8.67361737988404E-16,-7.94987436999999,-10.89974874));
#545=CARTESIAN_POINT('',(-8.67361737988404E-16,3.94987436999999,-12.89974874));
#546=CARTESIAN_POINT('',(-8.67361737988404E-16,5.94987436999999,-1.));
#547=CARTESIAN_POINT('',(-8.67361737988404E-16,7.94987436999999,10.89974874));
#548=CARTESIAN_POINT('',(-8.67361737988404E-16,-3.94987436999999,12.89974874));
#549=CARTESIAN_POINT('',(-8.67361737988404E-16,-5.94987436999999,1.));
#550=CARTESIAN_POINT('',(-1.84707917730629E-15,-13.94987437,1.));
#551=CARTESIAN_POINT('',(-1.84707917730629E-15,-15.94987437,-26.89974874));
#552=CARTESIAN_POINT('',(-1.84707917730629E-15,11.94987437,-28.89974874));
#553=CARTESIAN_POINT('',(-1.84707917730629E-15,13.94987437,-1.));
#554=CARTESIAN_POINT('',(-1.84707917730629E-15,15.94987437,26.89974874));
#555=CARTESIAN_POINT('',(-1.84707917730629E-15,-11.94987437,28.89974874));
#556=CARTESIAN_POINT('',(-1.84707917730629E-15,-13.94987437,1.));
#557=CARTESIAN_POINT('',(7.99999999999999,-13.94987437,1.));
#558=CARTESIAN_POINT('',(8.00000000000001,-15.94987437,-26.89974874));
#559=CARTESIAN_POINT('',(8.00000000000001,11.94987437,-28.89974874));
#560=CARTESIAN_POINT('',(7.99999999999999,13.94987437,-1.));
#561=CARTESIAN_POINT('',(8.00000000000001,15.94987437,26.89974874));
#562=CARTESIAN_POINT('',(8.00000000000001,-11.94987437,28.89974874));
#563=CARTESIAN_POINT('',(7.99999999999999,-13.94987437,1.));
#564=CARTESIAN_POINT('',(8.,-5.94987437,1.));
#565=CARTESIAN_POINT('',(7.99999999999999,-7.94987436999999,-10.89974874));
#566=CARTESIAN_POINT('',(7.99999999999999,3.94987436999999,-12.89974874));
#567=CARTESIAN_POINT('',(8.,5.94987437,-1.));
#568=CARTESIAN_POINT('',(7.99999999999999,7.94987436999999,10.89974874));
#569=CARTESIAN_POINT('',(7.99999999999999,-3.94987436999999,12.89974874));
#570=CARTESIAN_POINT('',(8.,-5.94987437,1.));
#571=MECHANICAL_DESIGN_GEOMETRIC_PRESENTATION_REPRESENTATION('',(#34,#35),
#572);
#572=(
GEOMETRIC_REPRESENTATION_CONTEXT(3)
GLOBAL_UNCERTAINTY_ASSIGNED_CONTEXT((#573))
GLOBAL_UNIT_ASSIGNED_CONTEXT((#579,#575,#574))
REPRESENTATION_CONTEXT('AEMR-RP08T2M-D20-M10-L30-Z02-H',
'TOP_LEVEL_ASSEMBLY_PART')
);
#573=UNCERTAINTY_MEASURE_WITH_UNIT(LENGTH_MEASURE(2.E-5),#579,
'DISTANCE_ACCURACY_VALUE','Maximum Tolerance applied to model');
#574=(
NAMED_UNIT(*)
SI_UNIT($,.STERADIAN.)
SOLID_ANGLE_UNIT()
);
#575=(
CONVERSION_BASED_UNIT('DEGREE',#577)
NAMED_UNIT(#576)
PLANE_ANGLE_UNIT()
);
#576=DIMENSIONAL_EXPONENTS(0.,0.,0.,0.,0.,0.,0.);
#577=PLANE_ANGLE_MEASURE_WITH_UNIT(PLANE_ANGLE_MEASURE(0.0174532925),#578);
#578=(
NAMED_UNIT(*)
PLANE_ANGLE_UNIT()
SI_UNIT($,.RADIAN.)
);
#579=(
LENGTH_UNIT()
NAMED_UNIT(*)
SI_UNIT(.MILLI.,.METRE.)
);
ENDSEC;
END-ISO-10303-21;
